  0
SECTION
  2
HEADER
  9
$ACADVER
  1
AC1012
  9
$DWGCODEPAGE
  3
dos932
  9
$INSBASE
 10
0.0
 20
0.0
 30
0.0
  9
$EXTMIN
 10
0.0
 20
0.0
 30
0.0
  9
$EXTMAX
 10
5940.0
 20
4200.0
 30
0.0
  9
$LIMMIN
 10
0.0
 20
0.0
  9
$LIMMAX
 10
5940.0
 20
4200.0
  9
$ORTHOMODE
 70
     0
  9
$REGENMODE
 70
     1
  9
$FILLMODE
 70
     1
  9
$QTEXTMODE
 70
     0
  9
$MIRRTEXT
 70
     0
  9
$DRAGMODE
 70
     2
  9
$LTSCALE
 40
10.0
  9
$OSMODE
 70
    33
  9
$ATTMODE
 70
     1
  9
$TEXTSIZE
 40
50.0
  9
$TRACEWID
 40
1.0
  9
$TEXTSTYLE
  7
ADD
  9
$CLAYER
  8
3C1
  9
$CELTYPE
  6
BYLAYER
  9
$CECOLOR
 62
   256
  9
$CELTSCALE
 40
1.0
  9
$DELOBJ
 70
     1
  9
$DISPSILH
 70
     0
  9
$DIMSCALE
 40
20.0
  9
$DIMASZ
 40
2.5
  9
$DIMEXO
 40
1.0
  9
$DIMDLI
 40
7.0
  9
$DIMRND
 40
0.0
  9
$DIMDLE
 40
0.0
  9
$DIMEXE
 40
0.5
  9
$DIMTP
 40
0.0
  9
$DIMTM
 40
0.0
  9
$DIMTXT
 40
2.5
  9
$DIMCEN
 40
2.5
  9
$DIMTSZ
 40
0.0
  9
$DIMTOL
 70
     0
  9
$DIMLIM
 70
     0
  9
$DIMTIH
 70
     0
  9
$DIMTOH
 70
     0
  9
$DIMSE1
 70
     0
  9
$DIMSE2
 70
     0
  9
$DIMTAD
 70
     1
  9
$DIMZIN
 70
     8
  9
$DIMBLK
  1

  9
$DIMASO
 70
     1
  9
$DIMSHO
 70
     1
  9
$DIMPOST
  1

  9
$DIMAPOST
  1

  9
$DIMALT
 70
     0
  9
$DIMALTD
 70
     3
  9
$DIMALTF
 40
0.03937007874016
  9
$DIMLFAC
 40
1.0
  9
$DIMTOFL
 70
     1
  9
$DIMTVP
 40
0.7
  9
$DIMTIX
 70
     1
  9
$DIMSOXD
 70
     0
  9
$DIMSAH
 70
     0
  9
$DIMBLK1
  1

  9
$DIMBLK2
  1

  9
$DIMSTYLE
  2
ADD
  9
$DIMCLRD
 70
   144
  9
$DIMCLRE
 70
   144
  9
$DIMCLRT
 70
     7
  9
$DIMTFAC
 40
1.0
  9
$DIMGAP
 40
0.625
  9
$DIMJUST
 70
     0
  9
$DIMSD1
 70
     0
  9
$DIMSD2
 70
     0
  9
$DIMTOLJ
 70
     2
  9
$DIMTZIN
 70
     8
  9
$DIMALTZ
 70
     0
  9
$DIMALTTZ
 70
     0
  9
$DIMFIT
 70
     5
  9
$DIMUPT
 70
     0
  9
$DIMUNIT
 70
     2
  9
$DIMDEC
 70
     1
  9
$DIMTDEC
 70
     1
  9
$DIMALTU
 70
     2
  9
$DIMALTTD
 70
     3
  9
$DIMTXSTY
  7
ADD
  9
$DIMAUNIT
 70
     0
  9
$LUNITS
 70
     2
  9
$LUPREC
 70
     4
  9
$SKETCHINC
 40
1.0
  9
$FILLETRAD
 40
18.0
  9
$AUNITS
 70
     0
  9
$AUPREC
 70
     1
  9
$MENU
  1
.
  9
$ELEVATION
 40
0.0
  9
$PELEVATION
 40
0.0
  9
$THICKNESS
 40
0.0
  9
$LIMCHECK
 70
     0
  9
$BLIPMODE
 70
     0
  9
$CHAMFERA
 40
10.0
  9
$CHAMFERB
 40
10.0
  9
$CHAMFERC
 40
20.0
  9
$CHAMFERD
 40
0.0
  9
$SKPOLY
 70
     0
  9
$TDCREATE
 40
2451801.142532870
  9
$TDUPDATE
 40
2452200.611039421
  9
$TDINDWG
 40
0.1848466319
  9
$TDUSRTIMER
 40
0.1848466319
  9
$USRTIMER
 70
     1
  9
$ANGBASE
 50
0.0
  9
$ANGDIR
 70
     0
  9
$PDMODE
 70
     0
  9
$PDSIZE
 40
0.0
  9
$PLINEWID
 40
0.0
  9
$COORDS
 70
     1
  9
$SPLFRAME
 70
     0
  9
$SPLINETYPE
 70
     6
  9
$SPLINESEGS
 70
     8
  9
$ATTDIA
 70
     0
  9
$ATTREQ
 70
     1
  9
$HANDLING
 70
-16383
  9
$HANDSEED
  5
CD7
  9
$SURFTAB1
 70
     6
  9
$SURFTAB2
 70
     6
  9
$SURFTYPE
 70
     6
  9
$SURFU
 70
     6
  9
$SURFV
 70
     6
  9
$UCSNAME
  2

  9
$UCSORG
 10
0.0
 20
0.0
 30
0.0
  9
$UCSXDIR
 10
1.0
 20
0.0
 30
0.0
  9
$UCSYDIR
 10
0.0
 20
1.0
 30
0.0
  9
$PUCSNAME
  2

  9
$PUCSORG
 10
0.0
 20
0.0
 30
0.0
  9
$PUCSXDIR
 10
1.0
 20
0.0
 30
0.0
  9
$PUCSYDIR
 10
0.0
 20
1.0
 30
0.0
  9
$USERI1
 70
     0
  9
$USERI2
 70
     0
  9
$USERI3
 70
     0
  9
$USERI4
 70
     0
  9
$USERI5
 70
     0
  9
$USERR1
 40
841.0
  9
$USERR2
 40
594.0
  9
$USERR3
 40
1.0
  9
$USERR4
 40
0.0
  9
$USERR5
 40
0.0
  9
$WORLDVIEW
 70
     1
  9
$SHADEDGE
 70
     3
  9
$SHADEDIF
 70
    70
  9
$TILEMODE
 70
     1
  9
$MAXACTVP
 70
    48
  9
$PINSBASE
 10
0.0
 20
0.0
 30
0.0
  9
$PLIMCHECK
 70
     0
  9
$PEXTMIN
 10
-5.662975978526674
 20
-6.331907780761866
 30
-0.0015258207003583
  9
$PEXTMAX
 10
834.4213426047982
 20
560.9663709967471
 30
0.0000000349246037
  9
$PLIMMIN
 10
-7.500000000000001
 20
-20.0
  9
$PLIMMAX
 10
833.5000000000002
 20
574.0000000000001
  9
$UNITMODE
 70
     0
  9
$VISRETAIN
 70
     1
  9
$PLINEGEN
 70
     0
  9
$PSLTSCALE
 70
     1
  9
$TREEDEPTH
 70
  3020
  9
$PICKSTYLE
 70
     1
  9
$CMLSTYLE
  2
STANDARD
  9
$CMLJUST
 70
     0
  9
$CMLSCALE
 40
20.0
  9
$SAVEIMAGES
 70
     1
  0
ENDSEC
  0
SECTION
  2
CLASSES
  0
CLASS
  1
ACDBDICTIONARYWDFLT
  2
AcDbDictionaryWithDefault
  3
AutoCAD 2000
 90
    32768
280
     0
281
     0
  0
CLASS
  1
ACDBPLACEHOLDER
  2
AcDbPlaceHolder
  3
AutoCAD 2000
 90
    32768
280
     0
281
     0
  0
CLASS
  1
LAYOUT
  2
AcDbLayout
  3
AutoCAD 2000
 90
    32768
280
     0
281
     0
  0
CLASS
  1
RTEXT
  2
RText
  3
RText|AutoCAD Express Tool|expresstools@autodesk.com
 90
    32768
280
     0
281
     1
  0
CLASS
  1
DICTIONARYVAR
  2
AcDbDictionaryVar
  3
AutoCAD 2000
 90
    32768
280
     0
281
     0
  0
CLASS
  1
LONG_TRANSACTION
  2
AcDbLongTransaction
  3
AutoCAD 2000
 90
    32768
280
     0
281
     0
  0
CLASS
  1
LWPOLYLINE
  2
AcDbPolyline
  3
AutoCAD 2000
 90
    32768
280
     0
281
     1
  0
CLASS
  1
HATCH
  2
AcDbHatch
  3
AutoCAD 2000
 90
    32768
280
     0
281
     1
  0
CLASS
  1
XRECORD
  2
AcDbXrecord
  3
AutoCAD 2000
 90
    32768
280
     0
281
     0
  0
CLASS
  1
LONG_TRANSACTION
  2
AcDbLongTransaction
  3
AutoCAD 2000
 90
    32768
280
     0
281
     0
  0
CLASS
  1
LWPOLYLINE
  2
AcDbPolyline
  3
AutoCAD 2000
 90
    32768
280
     0
281
     1
  0
CLASS
  1
HATCH
  2
AcDbHatch
  3
AutoCAD 2000
 90
    32768
280
     0
281
     1
  0
CLASS
  1
XRECORD
  2
AcDbXrecord
  3
AutoCAD 2000
 90
    32768
280
     0
281
     0
  0
CLASS
  1
LONG_TRANSACTION
  2
AcDbLongTransaction
  3
AutoCAD 2000
 90
    32768
280
     0
281
     0
  0
CLASS
  1
LWPOLYLINE
  2
AcDbPolyline
  3
AutoCAD 2000
 90
    32768
280
     0
281
     1
  0
CLASS
  1
HATCH
  2
AcDbHatch
  3
AutoCAD 2000
 90
    32768
280
     0
281
     1
  0
CLASS
  1
XRECORD
  2
AcDbXrecord
  3
AutoCAD 2000
 90
    32768
280
     0
281
     0
  0
CLASS
  1
LONG_TRANSACTION
  2
AcDbLongTransaction
  3
AutoCAD 2000
 90
    32768
280
     0
281
     0
  0
CLASS
  1
LWPOLYLINE
  2
AcDbPolyline
  3
AutoCAD 2000
 90
    32768
280
     0
281
     1
  0
CLASS
  1
HATCH
  2
AcDbHatch
  3
AutoCAD 2000
 90
    32768
280
     0
281
     1
  0
CLASS
  1
XRECORD
  2
AcDbXrecord
  3
AutoCAD 2000
 90
    32768
280
     0
281
     0
  0
CLASS
  1
LONG_TRANSACTION
  2
AcDbLongTransaction
  3
AutoCAD 2000
 90
    32768
280
     0
281
     0
  0
CLASS
  1
LWPOLYLINE
  2
AcDbPolyline
  3
AutoCAD 2000
 90
    32768
280
     0
281
     1
  0
CLASS
  1
HATCH
  2
AcDbHatch
  3
AutoCAD 2000
 90
    32768
280
     0
281
     1
  0
CLASS
  1
XRECORD
  2
AcDbXrecord
  3
AutoCAD 2000
 90
    32768
280
     0
281
     0
  0
CLASS
  1
LONG_TRANSACTION
  2
AcDbLongTransaction
  3
AutoCAD 2000
 90
    32768
280
     0
281
     0
  0
CLASS
  1
LWPOLYLINE
  2
AcDbPolyline
  3
AutoCAD 2000
 90
    32768
280
     0
281
     1
  0
CLASS
  1
HATCH
  2
AcDbHatch
  3
AutoCAD 2000
 90
    32768
280
     0
281
     1
  0
CLASS
  1
XRECORD
  2
AcDbXrecord
  3
AutoCAD 2000
 90
    32768
280
     0
281
     0
  0
CLASS
  1
LONG_TRANSACTION
  2
AcDbLongTransaction
  3
AutoCAD 2000
 90
    32768
280
     0
281
     0
  0
CLASS
  1
LWPOLYLINE
  2
AcDbPolyline
  3
AutoCAD 2000
 90
    32768
280
     0
281
     1
  0
CLASS
  1
HATCH
  2
AcDbHatch
  3
AutoCAD 2000
 90
    32768
280
     0
281
     1
  0
CLASS
  1
XRECORD
  2
AcDbXrecord
  3
AutoCAD 2000
 90
    32768
280
     0
281
     0
  0
CLASS
  1
LONG_TRANSACTION
  2
AcDbLongTransaction
  3
AutoCAD 2000
 90
    32768
280
     0
281
     0
  0
CLASS
  1
LWPOLYLINE
  2
AcDbPolyline
  3
AutoCAD 2000
 90
    32768
280
     0
281
     1
  0
CLASS
  1
HATCH
  2
AcDbHatch
  3
AutoCAD 2000
 90
    32768
280
     0
281
     1
  0
CLASS
  1
XRECORD
  2
AcDbXrecord
  3
AutoCAD 2000
 90
    32768
280
     0
281
     0
  0
CLASS
  1
LONG_TRANSACTION
  2
AcDbLongTransaction
  3
AutoCAD 2000
 90
    32768
280
     0
281
     0
  0
CLASS
  1
LWPOLYLINE
  2
AcDbPolyline
  3
AutoCAD 2000
 90
    32768
280
     0
281
     1
  0
CLASS
  1
HATCH
  2
AcDbHatch
  3
AutoCAD 2000
 90
    32768
280
     0
281
     1
  0
CLASS
  1
XRECORD
  2
AcDbXrecord
  3
AutoCAD 2000
 90
    32768
280
     0
281
     0
  0
ENDSEC
  0
SECTION
  2
TABLES
  0
TABLE
  2
VPORT
  5
8
330
0
100
AcDbSymbolTable
 70
     2
  0
VPORT
  5
CC7
330
8
100
AcDbSymbolTableRecord
100
AcDbViewportTableRecord
  2
*ACTIVE
 70
     0
 10
0.0
 20
0.0
 11
1.0
 21
1.0
 12
3098.979167315361
 22
2052.933470556031
 13
0.0
 23
0.0
 14
10.0
 24
10.0
 15
10.0
 25
10.0
 16
0.0
 26
0.0
 36
1.0
 17
0.0
 27
0.0
 37
0.0
 40
5096.138087395158
 41
1.596072931276297
 42
50.0
 43
0.0
 44
0.0
 50
0.0
 51
0.0
 71
     0
 72
   100
 73
     1
 74
     1
 75
     0
 76
     0
 77
     0
 78
     0
  0
ENDTAB
  0
TABLE
  2
LTYPE
  5
5
330
0
100
AcDbSymbolTable
 70
     5
  0
LTYPE
  5
14
330
5
100
AcDbSymbolTableRecord
100
AcDbLinetypeTableRecord
  2
BYBLOCK
 70
     0
  3

 72
    65
 73
     0
 40
0.0
  0
LTYPE
  5
15
330
5
100
AcDbSymbolTableRecord
100
AcDbLinetypeTableRecord
  2
BYLAYER
 70
     0
  3

 72
    65
 73
     0
 40
0.0
  0
LTYPE
  5
16
330
5
100
AcDbSymbolTableRecord
100
AcDbLinetypeTableRecord
  2
CONTINUOUS
 70
     0
  3
Solid line
 72
    65
 73
     0
 40
0.0
  0
LTYPE
  5
555
330
5
100
AcDbSymbolTableRecord
100
AcDbLinetypeTableRecord
  2
CENTER
 70
     0
  3
Center ____ _ ____ _ ____ _ ____ _ ____ _ ____
 72
    65
 73
     4
 40
50.8
 49
31.75
 74
     0
 49
-6.349999999999999
 74
     0
 49
6.349999999999999
 74
     0
 49
-6.349999999999999
 74
     0
  0
LTYPE
  5
556
330
5
100
AcDbSymbolTableRecord
100
AcDbLinetypeTableRecord
  2
HIDDEN
 70
     0
  3
Hidden __ __ __ __ __ __ __ __ __ __ __ __ __ _
 72
    65
 73
     2
 40
9.524999999999998
 49
6.349999999999999
 74
     0
 49
-3.174999999999999
 74
     0
  0
LTYPE
  5
557
330
5
100
AcDbSymbolTableRecord
100
AcDbLinetypeTableRecord
  2
HIDDEN2
 70
     0
  3
Hidden (.5x) _ _ _ _ _ _ _ _ _ _ _ _ _ _ _ _ _
 72
    65
 73
     2
 40
4.762499999999999
 49
3.174999999999999
 74
     0
 49
-1.587499999999999
 74
     0
  0
LTYPE
  5
558
330
5
100
AcDbSymbolTableRecord
100
AcDbLinetypeTableRecord
  2
PHANTOM
 70
     0
  3
Phantom ______  __  __  ______  __  __  ______
 72
    65
 73
     6
 40
63.5
 49
31.75
 74
     0
 49
-6.349999999999999
 74
     0
 49
6.349999999999999
 74
     0
 49
-6.349999999999999
 74
     0
 49
6.349999999999999
 74
     0
 49
-6.349999999999999
 74
     0
  0
ENDTAB
  0
TABLE
  2
LAYER
  5
2
330
0
100
AcDbSymbolTable
 70
    22
  0
LAYER
  5
10
330
2
100
AcDbSymbolTableRecord
100
AcDbLayerTableRecord
  2
0
 70
     0
 62
     7
  6
CONTINUOUS
  0
LAYER
  5
75
330
2
100
AcDbSymbolTableRecord
100
AcDbLayerTableRecord
  2
VIEWPORT
 70
     0
 62
     1
  6
CONTINUOUS
  0
LAYER
  5
504
330
2
100
AcDbSymbolTableRecord
100
AcDbLayerTableRecord
  2
DEFPOINTS
 70
     0
 62
     6
  6
CONTINUOUS
  0
LAYER
  5
505
330
2
100
AcDbSymbolTableRecord
100
AcDbLayerTableRecord
  2
1C1
 70
     0
 62
   254
  6
CONTINUOUS
  0
LAYER
  5
506
330
2
100
AcDbSymbolTableRecord
100
AcDbLayerTableRecord
  2
1C2
 70
     0
 62
   254
  6
CONTINUOUS
  0
LAYER
  5
507
330
2
100
AcDbSymbolTableRecord
100
AcDbLayerTableRecord
  2
2C1
 70
     0
 62
   144
  6
CONTINUOUS
  0
LAYER
  5
508
330
2
100
AcDbSymbolTableRecord
100
AcDbLayerTableRecord
  2
2C2
 70
     0
 62
   144
  6
CONTINUOUS
  0
LAYER
  5
509
330
2
100
AcDbSymbolTableRecord
100
AcDbLayerTableRecord
  2
2H1
 70
     0
 62
   144
  6
HIDDEN
  0
LAYER
  5
50A
330
2
100
AcDbSymbolTableRecord
100
AcDbLayerTableRecord
  2
2H2
 70
     0
 62
   144
  6
HIDDEN2
  0
LAYER
  5
50B
330
2
100
AcDbSymbolTableRecord
100
AcDbLayerTableRecord
  2
2P1
 70
     0
 62
   144
  6
PHANTOM
  0
LAYER
  5
50C
330
2
100
AcDbSymbolTableRecord
100
AcDbLayerTableRecord
  2
3C1
 70
     0
 62
     7
  6
CONTINUOUS
  0
LAYER
  5
50D
330
2
100
AcDbSymbolTableRecord
100
AcDbLayerTableRecord
  2
3C2
 70
     0
 62
     7
  6
CONTINUOUS
  0
LAYER
  5
50E
330
2
100
AcDbSymbolTableRecord
100
AcDbLayerTableRecord
  2
3C3
 70
     0
 62
     7
  6
CONTINUOUS
  0
LAYER
  5
50F
330
2
100
AcDbSymbolTableRecord
100
AcDbLayerTableRecord
  2
4H1
 70
     0
 62
     6
  6
HIDDEN
  0
LAYER
  5
510
330
2
100
AcDbSymbolTableRecord
100
AcDbLayerTableRecord
  2
4H2
 70
     0
 62
     6
  6
HIDDEN2
  0
LAYER
  5
511
330
2
100
AcDbSymbolTableRecord
100
AcDbLayerTableRecord
  2
5C1
 70
     0
 62
    55
  6
CONTINUOUS
  0
LAYER
  5
512
330
2
100
AcDbSymbolTableRecord
100
AcDbLayerTableRecord
  2
5C2
 70
     0
 62
    55
  6
CONTINUOUS
  0
LAYER
  5
513
330
2
100
AcDbSymbolTableRecord
100
AcDbLayerTableRecord
  2
8C1
 70
     0
 62
    92
  6
CONTINUOUS
  0
LAYER
  5
514
330
2
100
AcDbSymbolTableRecord
100
AcDbLayerTableRecord
  2
HOJO
 70
     0
 62
     5
  6
CONTINUOUS
  0
LAYER
  5
515
330
2
100
AcDbSymbolTableRecord
100
AcDbLayerTableRecord
  2
KIJUN
 70
     0
 62
     1
  6
CENTER
  0
LAYER
  5
516
330
2
100
AcDbSymbolTableRecord
100
AcDbLayerTableRecord
  2
MOJI
 70
     0
 62
     7
  6
CONTINUOUS
  0
LAYER
  5
517
330
2
100
AcDbSymbolTableRecord
100
AcDbLayerTableRecord
  2
SUNPO
 70
     0
 62
   144
  6
CONTINUOUS
  0
ENDTAB
  0
TABLE
  2
STYLE
  5
3
330
0
100
AcDbSymbolTable
 70
     6
  0
STYLE
  5
11
330
3
100
AcDbSymbolTableRecord
100
AcDbTextStyleTableRecord
  2
STANDARD
 70
     0
 40
0.0
 41
1.0
 50
0.0
 71
     0
 42
2.5
  3
txt
  4

  0
STYLE
  5
2C
330
3
100
AcDbSymbolTableRecord
100
AcDbTextStyleTableRecord
  2

 70
     1
 40
0.0
 41
1.0
 50
0.0
 71
     0
 42
2.5
  3
ltypeshp.shx
  4

  0
STYLE
  5
18E
330
3
100
AcDbSymbolTableRecord
100
AcDbTextStyleTableRecord
  2
ADD
 70
     0
 40
0.0
 41
1.0
 50
0.0
 71
     0
 42
50.0
  3
romans.shx
  4
bigfont.shx
  0
STYLE
  5
191
330
3
100
AcDbSymbolTableRecord
100
AcDbTextStyleTableRecord
  2
MSG
 70
     0
 40
0.0
 41
1.0
 50
0.0
 71
     0
 42
2.5
  3
MS Gothic.ttf
  4

1001
ACAD
1000
MS Gothic
1071
    32817
  0
STYLE
  5
5C8
330
3
100
AcDbSymbolTableRecord
100
AcDbTextStyleTableRecord
  2
STANDARD15
 70
     0
 40
0.0
 41
1.0
 50
15.0
 71
     0
 42
2.5
  3
ROMANS
  4
bigfont
  0
STYLE
  5
5C9
330
3
100
AcDbSymbolTableRecord
100
AcDbTextStyleTableRecord
  2
ROMANS15
 70
     0
 40
0.0
 41
1.0
 50
15.0
 71
     0
 42
2.5
  3
romans
  4

  0
ENDTAB
  0
TABLE
  2
VIEW
  5
6
330
0
100
AcDbSymbolTable
 70
     1
  0
VIEW
  5
54D
330
6
100
AcDbSymbolTableRecord
100
AcDbViewTableRecord
  2
ALL
 70
     0
 40
594.0
 10
420.5
 20
297.0
 41
865.125
 11
0.0
 21
0.0
 31
1.0
 12
0.0
 22
0.0
 32
0.0
 42
50.0
 43
0.0
 44
0.0
 50
0.0
 71
     0
  0
ENDTAB
  0
TABLE
  2
UCS
  5
7
330
0
100
AcDbSymbolTable
 70
     0
  0
ENDTAB
  0
TABLE
  2
APPID
  5
9
330
0
100
AcDbSymbolTable
 70
     4
  0
APPID
  5
12
330
9
100
AcDbSymbolTableRecord
100
AcDbRegAppTableRecord
  2
ACAD
 70
     0
  0
APPID
  5
5CB
330
9
100
AcDbSymbolTableRecord
100
AcDbRegAppTableRecord
  2
ARAIGUMI_YOHEKI
 70
     0
  0
APPID
  5
5CC
330
9
100
AcDbSymbolTableRecord
100
AcDbRegAppTableRecord
  2
CONTENTTABDATA
 70
     0
  0
APPID
  5
5CD
330
9
100
AcDbSymbolTableRecord
100
AcDbRegAppTableRecord
  2
CONTENTCURRENTTAB
 70
     0
  0
ENDTAB
  0
TABLE
  2
DIMSTYLE
  5
A
330
0
100
AcDbSymbolTable
 70
    10
  0
DIMSTYLE
105
27
330
A
100
AcDbSymbolTableRecord
100
AcDbDimStyleTableRecord
  2
ISO-25
 70
     0
  3

  4

  5

  6

  7

 40
1.0
 41
2.5
 42
0.625
 43
3.75
 44
1.25
 45
0.0
 46
0.0
 47
0.0
 48
0.0
140
2.5
141
2.5
142
0.0
143
0.03937007874016
144
1.0
145
0.0
146
1.0
147
0.625
 71
     0
 72
     0
 73
     0
 74
     0
 75
     0
 76
     0
 77
     1
 78
     8
170
     0
171
     3
172
     1
173
     0
174
     0
175
     0
176
     0
177
     0
178
     0
270
     2
271
     2
272
     2
273
     2
274
     3
340
11
275
     0
280
     0
281
     0
282
     0
283
     0
284
     8
285
     0
286
     0
287
     3
288
     0
  0
DIMSTYLE
105
197
330
A
100
AcDbSymbolTableRecord
100
AcDbDimStyleTableRecord
  2
ADD
 70
     0
  3

  4

  5

  6

  7

 40
1.0
 41
2.5
 42
1.0
 43
7.0
 44
0.5
 45
0.0
 46
0.0
 47
0.0
 48
0.0
140
2.5
141
2.5
142
0.0
143
0.03937007874016
144
1.0
145
0.7
146
1.0
147
0.625
 71
     0
 72
     0
 73
     0
 74
     0
 75
     0
 76
     0
 77
     1
 78
     8
170
     0
171
     3
172
     1
173
     0
174
     1
175
     0
176
   144
177
   144
178
     7
270
     2
271
     1
272
     1
273
     2
274
     3
340
18E
275
     0
280
     0
281
     0
282
     0
283
     2
284
     8
285
     0
286
     0
287
     5
288
     0
  0
DIMSTYLE
105
3E6
330
A
100
AcDbSymbolTableRecord
100
AcDbDimStyleTableRecord
  2
ADD$2
 70
     0
  3

  4

  5

  6

  7

 40
1.0
 41
2.5
 42
1.0
 43
7.0
 44
0.5
 45
0.0
 46
0.0
 47
0.0
 48
0.0
140
2.5
141
2.5
142
0.0
143
0.03937007874016
144
1.0
145
0.7
146
1.0
147
0.625
 71
     0
 72
     0
 73
     0
 74
     0
 75
     0
 76
     0
 77
     1
 78
     8
170
     0
171
     3
172
     1
173
     0
174
     1
175
     0
176
   144
177
   144
178
     7
270
     2
271
     1
272
     1
273
     2
274
     3
340
18E
275
     0
280
     0
281
     0
282
     0
283
     2
284
     8
285
     0
286
     0
287
     5
288
     0
  0
DIMSTYLE
105
3E7
330
A
100
AcDbSymbolTableRecord
100
AcDbDimStyleTableRecord
  2
ADD$4
 70
     0
  3

  4

  5

  6

  7

 40
1.0
 41
2.5
 42
1.0
 43
7.0
 44
0.5
 45
0.0
 46
0.0
 47
0.0
 48
0.0
140
2.5
141
2.5
142
0.0
143
0.03937007874016
144
1.0
145
0.0
146
1.0
147
0.625
 71
     0
 72
     0
 73
     0
 74
     0
 75
     0
 76
     0
 77
     1
 78
     8
170
     0
171
     3
172
     1
173
     0
174
     1
175
     0
176
   144
177
   144
178
     7
270
     2
271
     1
272
     1
273
     2
274
     3
340
18E
275
     0
280
     0
281
     0
282
     0
283
     2
284
     8
285
     0
286
     0
287
     5
288
     0
  0
DIMSTYLE
105
3E8
330
A
100
AcDbSymbolTableRecord
100
AcDbDimStyleTableRecord
  2
ADD$3
 70
     0
  3

  4

  5

  6

  7

 40
1.0
 41
2.5
 42
1.0
 43
7.0
 44
0.5
 45
0.0
 46
0.0
 47
0.0
 48
0.0
140
2.5
141
2.5
142
0.0
143
0.03937007874016
144
1.0
145
0.0
146
1.0
147
0.625
 71
     0
 72
     0
 73
     0
 74
     0
 75
     0
 76
     0
 77
     1
 78
     8
170
     0
171
     3
172
     1
173
     0
174
     1
175
     0
176
   144
177
   144
178
     7
270
     2
271
     1
272
     1
273
     2
274
     3
340
18E
275
     0
280
     0
281
     0
282
     0
283
     2
284
     8
285
     0
286
     0
287
     5
288
     0
  0
DIMSTYLE
105
3E9
330
A
100
AcDbSymbolTableRecord
100
AcDbDimStyleTableRecord
  2
ADD$6
 70
     0
  3

  4

  5

  6

  7

 40
1.0
 41
2.5
 42
1.0
 43
7.0
 44
0.5
 45
0.0
 46
0.0
 47
0.0
 48
0.0
140
2.5
141
2.5
142
0.0
143
0.03937007874016
144
1.0
145
0.0
146
1.0
147
0.625
 71
     0
 72
     0
 73
     0
 74
     0
 75
     0
 76
     0
 77
     1
 78
     8
170
     0
171
     3
172
     1
173
     0
174
     1
175
     0
176
   144
177
   144
178
     7
270
     2
271
     1
272
     1
273
     2
274
     3
340
18E
275
     0
280
     0
281
     0
282
     0
283
     2
284
     8
285
     0
286
     0
287
     5
288
     0
  0
DIMSTYLE
105
3EA
330
A
100
AcDbSymbolTableRecord
100
AcDbDimStyleTableRecord
  2
ADD$7
 70
     0
  3

  4

  5

  6

  7

 40
1.0
 41
2.5
 42
1.0
 43
7.0
 44
0.5
 45
0.0
 46
0.0
 47
0.0
 48
0.0
140
2.5
141
2.5
142
0.0
143
0.03937007874016
144
1.0
145
0.0
146
1.0
147
0.625
 71
     0
 72
     0
 73
     0
 74
     0
 75
     0
 76
     0
 77
     0
 78
     8
170
     0
171
     3
172
     1
173
     0
174
     1
175
     0
176
   144
177
   144
178
     7
270
     2
271
     1
272
     1
273
     2
274
     3
340
18E
275
     0
280
     0
281
     0
282
     0
283
     2
284
     8
285
     0
286
     0
287
     5
288
     0
  0
DIMSTYLE
105
518
330
A
100
AcDbSymbolTableRecord
100
AcDbDimStyleTableRecord
  2
STANDARD
 70
     0
  3

  4

  5

  6

  7

 40
1.0
 41
0.18
 42
0.0625
 43
0.38
 44
0.18
 45
0.0
 46
0.0
 47
0.0
 48
0.0
140
0.18
141
0.09
142
0.0
143
25.4
144
1.0
145
0.0
146
1.0
147
0.09
 71
     0
 72
     0
 73
     1
 74
     1
 75
     0
 76
     0
 77
     0
 78
     0
170
     0
171
     2
172
     0
173
     0
174
     0
175
     0
176
     0
177
     0
178
     0
270
     2
271
     4
272
     4
273
     2
274
     2
340
11
275
     0
280
     0
281
     0
282
     0
283
     1
284
     0
285
     0
286
     0
287
     3
288
     0
  0
DIMSTYLE
105
550
330
A
100
AcDbSymbolTableRecord
100
AcDbDimStyleTableRecord
  2
ADD$0
 70
     0
  3

  4

  5

  6

  7

 40
1.0
 41
2.5
 42
1.0
 43
7.0
 44
0.5
 45
0.0
 46
0.0
 47
0.0
 48
0.0
140
2.5
141
2.5
142
0.0
143
0.03937007874016
144
1.0
145
0.7
146
1.0
147
0.625
 71
     0
 72
     0
 73
     0
 74
     0
 75
     0
 76
     0
 77
     1
 78
     8
170
     0
171
     3
172
     1
173
     0
174
     1
175
     0
176
   144
177
   144
178
     7
270
     2
271
     1
272
     1
273
     2
274
     3
340
18E
275
     0
280
     0
281
     0
282
     0
283
     2
284
     8
285
     0
286
     0
287
     5
288
     0
  0
DIMSTYLE
105
59B
330
A
100
AcDbSymbolTableRecord
100
AcDbDimStyleTableRecord
  2
ADD_M
 70
     0
  3

  4

  5

  6

  7

 40
1.0
 41
2.5
 42
1.0
 43
7.0
 44
0.5
 45
0.0
 46
0.0
 47
0.0
 48
0.0
140
2.5
141
2.5
142
0.0
143
0.03937007874016
144
1.0
145
0.7
146
1.0
147
0.625
 71
     0
 72
     0
 73
     0
 74
     0
 75
     0
 76
     0
 77
     1
 78
     8
170
     0
171
     3
172
     1
173
     0
174
     1
175
     0
176
   144
177
   144
178
     7
270
     2
271
     1
272
     1
273
     2
274
     3
340
18E
275
     0
280
     0
281
     0
282
     0
283
     2
284
     8
285
     0
286
     0
287
     5
288
     0
  0
ENDTAB
  0
TABLE
  2
BLOCK_RECORD
  5
1
330
0
100
AcDbSymbolTable
 70
    14
  0
BLOCK_RECORD
  5
1F
102
{ACAD_XDICTIONARY
360
65D
102
}
330
1
100
AcDbSymbolTableRecord
100
AcDbBlockTableRecord
  2
*MODEL_SPACE
  0
BLOCK_RECORD
  5
1B
102
{ACAD_XDICTIONARY
360
65F
102
}
330
1
100
AcDbSymbolTableRecord
100
AcDbBlockTableRecord
  2
*PAPER_SPACE
  0
BLOCK_RECORD
  5
192
330
1
100
AcDbSymbolTableRecord
100
AcDbBlockTableRecord
  2
_DOT
  0
BLOCK_RECORD
  5
5CE
330
1
100
AcDbSymbolTableRecord
100
AcDbBlockTableRecord
  2
A4
  0
BLOCK_RECORD
  5
972
330
1
100
AcDbSymbolTableRecord
100
AcDbBlockTableRecord
  2
*D2
  0
BLOCK_RECORD
  5
992
330
1
100
AcDbSymbolTableRecord
100
AcDbBlockTableRecord
  2
*D3
  0
BLOCK_RECORD
  5
9A4
330
1
100
AcDbSymbolTableRecord
100
AcDbBlockTableRecord
  2
*D4
  0
BLOCK_RECORD
  5
9FC
330
1
100
AcDbSymbolTableRecord
100
AcDbBlockTableRecord
  2
*D5
  0
BLOCK_RECORD
  5
A09
330
1
100
AcDbSymbolTableRecord
100
AcDbBlockTableRecord
  2
*D6
  0
BLOCK_RECORD
  5
A16
330
1
100
AcDbSymbolTableRecord
100
AcDbBlockTableRecord
  2
*D7
  0
BLOCK_RECORD
  5
A41
330
1
100
AcDbSymbolTableRecord
100
AcDbBlockTableRecord
  2
*D8
  0
BLOCK_RECORD
  5
A50
330
1
100
AcDbSymbolTableRecord
100
AcDbBlockTableRecord
  2
*D9
  0
BLOCK_RECORD
  5
A6E
330
1
100
AcDbSymbolTableRecord
100
AcDbBlockTableRecord
  2
*D10
  0
BLOCK_RECORD
  5
A7D
330
1
100
AcDbSymbolTableRecord
100
AcDbBlockTableRecord
  2
*D11
  0
BLOCK_RECORD
  5
AA7
330
1
100
AcDbSymbolTableRecord
100
AcDbBlockTableRecord
  2
*D12
  0
BLOCK_RECORD
  5
AB4
330
1
100
AcDbSymbolTableRecord
100
AcDbBlockTableRecord
  2
*D13
  0
ENDTAB
  0
ENDSEC
  0
SECTION
  2
BLOCKS
  0
BLOCK
  5
20
330
1F
100
AcDbEntity
  8
0
100
AcDbBlockBegin
  2
*MODEL_SPACE
 70
     0
 10
0.0
 20
0.0
 30
0.0
  3
*MODEL_SPACE
  1

  0
ENDBLK
  5
21
330
1F
100
AcDbEntity
  8
0
100
AcDbBlockEnd
  0
BLOCK
  5
1C
330
1B
100
AcDbEntity
 67
     1
  8
0
100
AcDbBlockBegin
  2
*PAPER_SPACE
 70
     0
 10
0.0
 20
0.0
 30
0.0
  3
*PAPER_SPACE
  1

  0
ENDBLK
  5
1D
330
1B
100
AcDbEntity
 67
     1
  8
0
100
AcDbBlockEnd
  0
BLOCK
  5
195
330
192
100
AcDbEntity
  8
0
100
AcDbBlockBegin
  2
_DOT
 70
     0
 10
0.0
 20
0.0
 30
0.0
  3
_DOT
  1

  0
POLYLINE
  5
193
330
192
100
AcDbEntity
  8
0
 62
     0
100
AcDb2dPolyline
 66
     1
 10
0.0
 20
0.0
 30
0.0
 70
     1
 40
0.5
 41
0.5
  0
VERTEX
  5
CCA
330
193
100
AcDbEntity
  8
0
 62
     0
100
AcDbVertex
100
AcDb2dVertex
 10
-0.25
 20
0.0
 30
0.0
 42
1.0
  0
VERTEX
  5
CCB
330
193
100
AcDbEntity
  8
0
 62
     0
100
AcDbVertex
100
AcDb2dVertex
 10
0.25
 20
0.0
 30
0.0
 42
1.0
  0
SEQEND
  5
CCC
330
193
100
AcDbEntity
  8
0
 62
     0
  0
LINE
  5
194
330
192
100
AcDbEntity
  8
0
 62
     0
100
AcDbLine
 10
-0.5
 20
0.0
 30
0.0
 11
-1.0
 21
0.0
 31
0.0
  0
ENDBLK
  5
196
330
192
100
AcDbEntity
  8
0
100
AcDbBlockEnd
  0
BLOCK
  5
5D1
330
5CE
100
AcDbEntity
  8
0
100
AcDbBlockBegin
  2
A4
 70
     0
 10
0.0
 20
0.0
 30
0.0
  3
A4
  1

  0
POLYLINE
  5
5CF
330
5CE
100
AcDbEntity
  8
HOJO
100
AcDb2dPolyline
 66
     1
 10
0.0
 20
0.0
 30
0.0
 70
     1
  0
VERTEX
  5
CCD
330
5CF
100
AcDbEntity
  8
HOJO
100
AcDbVertex
100
AcDb2dVertex
 10
0.0
 20
0.0
 30
0.0
  0
VERTEX
  5
CCE
330
5CF
100
AcDbEntity
  8
HOJO
100
AcDbVertex
100
AcDb2dVertex
 10
297.0
 20
0.0
 30
0.0
  0
VERTEX
  5
CCF
330
5CF
100
AcDbEntity
  8
HOJO
100
AcDbVertex
100
AcDb2dVertex
 10
297.0
 20
210.0
 30
0.0
  0
VERTEX
  5
CD0
330
5CF
100
AcDbEntity
  8
HOJO
100
AcDbVertex
100
AcDb2dVertex
 10
0.0
 20
210.0
 30
0.0
  0
SEQEND
  5
CD1
330
5CF
100
AcDbEntity
  8
HOJO
  0
POLYLINE
  5
5D0
330
5CE
100
AcDbEntity
  8
HOJO
100
AcDb2dPolyline
 66
     1
 10
0.0
 20
0.0
 30
0.0
 70
     1
  0
VERTEX
  5
CD2
330
5D0
100
AcDbEntity
  8
HOJO
100
AcDbVertex
100
AcDb2dVertex
 10
18.0
 20
13.0
 30
0.0
  0
VERTEX
  5
CD3
330
5D0
100
AcDbEntity
  8
HOJO
100
AcDbVertex
100
AcDb2dVertex
 10
279.0
 20
13.0
 30
0.0
  0
VERTEX
  5
CD4
330
5D0
100
AcDbEntity
  8
HOJO
100
AcDbVertex
100
AcDb2dVertex
 10
279.0
 20
197.0
 30
0.0
  0
VERTEX
  5
CD5
330
5D0
100
AcDbEntity
  8
HOJO
100
AcDbVertex
100
AcDb2dVertex
 10
18.0
 20
197.0
 30
0.0
  0
SEQEND
  5
CD6
330
5D0
100
AcDbEntity
  8
HOJO
  0
ENDBLK
  5
5D2
330
5CE
100
AcDbEntity
  8
0
100
AcDbBlockEnd
  0
BLOCK
  5
97C
330
972
100
AcDbEntity
  8
0
100
AcDbBlockBegin
  2
*D2
 70
     1
 10
0.0
 20
0.0
 30
0.0
  3
*D2
  1

  0
LINE
  5
973
330
972
100
AcDbEntity
  8
SUNPO
 62
   144
100
AcDbLine
 10
3130.0
 20
3180.0
 30
0.0
 11
3130.0
 21
3360.0
 31
0.0
  0
LINE
  5
974
330
972
100
AcDbEntity
  8
SUNPO
 62
   144
100
AcDbLine
 10
3730.0
 20
3180.0
 30
0.0
 11
3730.0
 21
3360.0
 31
0.0
  0
LINE
  5
975
330
972
100
AcDbEntity
  8
SUNPO
 62
   144
100
AcDbLine
 10
3180.0
 20
3350.0
 30
0.0
 11
3680.0
 21
3350.0
 31
0.0
  0
SOLID
  5
976
330
972
100
AcDbEntity
  8
SUNPO
 62
   144
100
AcDbTrace
 10
3180.0
 20
3358.333333333333
 30
0.0
 11
3180.0
 21
3341.666666666666
 31
0.0
 12
3130.0
 22
3350.0
 32
0.0
 13
3130.0
 23
3350.0
 33
0.0
  0
SOLID
  5
977
330
972
100
AcDbEntity
  8
SUNPO
 62
   144
100
AcDbTrace
 10
3680.0
 20
3358.333333333333
 30
0.0
 11
3680.0
 21
3341.666666666666
 31
0.0
 12
3730.0
 22
3350.0
 32
0.0
 13
3730.0
 23
3350.0
 33
0.0
  0
MTEXT
  5
978
330
972
100
AcDbEntity
  8
SUNPO
 62
     7
100
AcDbMText
 10
3430.0
 20
3387.5
 30
0.0
 40
50.0
 41
0.0
 71
     5
 72
     1
  1
\A2;600
  7
ADD
1001
ACAD
1000
MTEXTBEGIN
1070
    73
1070
     1
1070
    44
1040
1.0
1070
    74
1070
     0
1000
MTEXTEND
1000
MTEXTBEGIN
1070
    73
1070
     1
1070
    44
1040
1.0
1070
    74
1070
     0
1000
MTEXTEND
1000
MTEXTBEGIN
1070
    73
1070
     1
1070
    44
1040
1.0
1070
    74
1070
     0
1000
MTEXTEND
1000
MTEXTBEGIN
1070
    73
1070
     1
1070
    44
1040
1.0
1070
    74
1070
     0
1000
MTEXTEND
  0
POINT
  5
979
330
972
100
AcDbEntity
  8
DEFPOINTS
 62
     0
100
AcDbPoint
 10
3130.0
 20
3160.0
 30
0.0
  0
POINT
  5
97A
330
972
100
AcDbEntity
  8
DEFPOINTS
 62
     0
100
AcDbPoint
 10
3730.0
 20
3160.0
 30
0.0
  0
POINT
  5
97B
330
972
100
AcDbEntity
  8
DEFPOINTS
 62
     0
100
AcDbPoint
 10
3730.0
 20
3350.0
 30
0.0
  0
ENDBLK
  5
97D
330
972
100
AcDbEntity
  8
0
100
AcDbBlockEnd
  0
BLOCK
  5
99C
330
992
100
AcDbEntity
  8
0
100
AcDbBlockBegin
  2
*D3
 70
     1
 10
0.0
 20
0.0
 30
0.0
  3
*D3
  1

  0
LINE
  5
993
330
992
100
AcDbEntity
  8
SUNPO
 62
   144
100
AcDbLine
 10
3750.0
 20
3160.0
 30
0.0
 11
3910.000000000001
 21
3160.0
 31
0.0
  0
LINE
  5
994
330
992
100
AcDbEntity
  8
SUNPO
 62
   144
100
AcDbLine
 10
3750.0
 20
3010.0
 30
0.0
 11
3910.0
 21
3010.0
 31
0.0
  0
LINE
  5
995
330
992
100
AcDbEntity
  8
SUNPO
 62
   144
100
AcDbLine
 10
3900.0
 20
3110.0
 30
0.0
 11
3900.0
 21
3060.0
 31
0.0
  0
SOLID
  5
996
330
992
100
AcDbEntity
  8
SUNPO
 62
   144
100
AcDbTrace
 10
3891.666666666667
 20
3110.0
 30
0.0
 11
3908.333333333334
 21
3110.0
 31
0.0
 12
3900.0
 22
3160.0
 32
0.0
 13
3900.0
 23
3160.0
 33
0.0
  0
SOLID
  5
997
330
992
100
AcDbEntity
  8
SUNPO
 62
   144
100
AcDbTrace
 10
3891.666666666666
 20
3060.0
 30
0.0
 11
3908.333333333333
 21
3060.0
 31
0.0
 12
3900.0
 22
3010.0
 32
0.0
 13
3900.0
 23
3010.0
 33
0.0
  0
MTEXT
  5
998
330
992
100
AcDbEntity
  8
SUNPO
 62
     7
100
AcDbMText
 10
3862.499999999999
 20
3085.0
 30
0.0
 40
50.0
 41
0.0
 71
     5
 72
     1
  1
\A2;150
  7
ADD
 11
0.0000000000000001
 21
1.0
 31
0.0
1001
ACAD
1000
MTEXTBEGIN
1070
    73
1070
     1
1070
    44
1040
1.0
1070
    74
1070
     0
1000
MTEXTEND
1000
MTEXTBEGIN
1070
    73
1070
     1
1070
    44
1040
1.0
1070
    74
1070
     0
1000
MTEXTEND
1000
MTEXTBEGIN
1070
    73
1070
     1
1070
    44
1040
1.0
1070
    74
1070
     0
1000
MTEXTEND
1000
MTEXTBEGIN
1070
    73
1070
     1
1070
    44
1040
1.0
1070
    74
1070
     0
1000
MTEXTEND
  0
POINT
  5
999
330
992
100
AcDbEntity
  8
DEFPOINTS
 62
     0
100
AcDbPoint
 10
3730.0
 20
3160.0
 30
0.0
  0
POINT
  5
99A
330
992
100
AcDbEntity
  8
DEFPOINTS
 62
     0
100
AcDbPoint
 10
3730.0
 20
3010.0
 30
0.0
  0
POINT
  5
99B
330
992
100
AcDbEntity
  8
DEFPOINTS
 62
     0
100
AcDbPoint
 10
3900.0
 20
3010.0
 30
0.0
  0
ENDBLK
  5
99D
330
992
100
AcDbEntity
  8
0
100
AcDbBlockEnd
  0
BLOCK
  5
9AE
330
9A4
100
AcDbEntity
  8
0
100
AcDbBlockBegin
  2
*D4
 70
     1
 10
0.0
 20
0.0
 30
0.0
  3
*D4
  1

  0
LINE
  5
9A5
330
9A4
100
AcDbEntity
  8
SUNPO
 62
   144
100
AcDbLine
 10
2310.0
 20
2360.0
 30
0.0
 11
2490.0
 21
2360.0
 31
0.0
  0
LINE
  5
9A6
330
9A4
100
AcDbEntity
  8
SUNPO
 62
   144
100
AcDbLine
 10
2310.0
 20
1760.0
 30
0.0
 11
2490.0
 21
1760.0
 31
0.0
  0
LINE
  5
9A7
330
9A4
100
AcDbEntity
  8
SUNPO
 62
   144
100
AcDbLine
 10
2480.0
 20
2310.0
 30
0.0
 11
2480.0
 21
1810.0
 31
0.0
  0
SOLID
  5
9A8
330
9A4
100
AcDbEntity
  8
SUNPO
 62
   144
100
AcDbTrace
 10
2471.666666666666
 20
2310.0
 30
0.0
 11
2488.333333333333
 21
2310.0
 31
0.0
 12
2480.0
 22
2360.0
 32
0.0
 13
2480.0
 23
2360.0
 33
0.0
  0
SOLID
  5
9A9
330
9A4
100
AcDbEntity
  8
SUNPO
 62
   144
100
AcDbTrace
 10
2471.666666666666
 20
1810.0
 30
0.0
 11
2488.333333333333
 21
1810.0
 31
0.0
 12
2480.0
 22
1760.0
 32
0.0
 13
2480.0
 23
1760.0
 33
0.0
  0
MTEXT
  5
9AA
330
9A4
100
AcDbEntity
  8
SUNPO
 62
     7
100
AcDbMText
 10
2442.499999999999
 20
2060.0
 30
0.0
 40
50.0
 41
0.0
 71
     5
 72
     1
  1
\A2;600
  7
ADD
 11
0.0000000000000001
 21
1.0
 31
0.0
1001
ACAD
1000
MTEXTBEGIN
1070
    73
1070
     1
1070
    44
1040
1.0
1070
    74
1070
     0
1000
MTEXTEND
1000
MTEXTBEGIN
1070
    73
1070
     1
1070
    44
1040
1.0
1070
    74
1070
     0
1000
MTEXTEND
1000
MTEXTBEGIN
1070
    73
1070
     1
1070
    44
1040
1.0
1070
    74
1070
     0
1000
MTEXTEND
1000
MTEXTBEGIN
1070
    73
1070
     1
1070
    44
1040
1.0
1070
    74
1070
     0
1000
MTEXTEND
  0
POINT
  5
9AB
330
9A4
100
AcDbEntity
  8
DEFPOINTS
 62
     0
100
AcDbPoint
 10
2290.0
 20
2360.0
 30
0.0
  0
POINT
  5
9AC
330
9A4
100
AcDbEntity
  8
DEFPOINTS
 62
     0
100
AcDbPoint
 10
2290.0
 20
1760.0
 30
0.0
  0
POINT
  5
9AD
330
9A4
100
AcDbEntity
  8
DEFPOINTS
 62
     0
100
AcDbPoint
 10
2480.0
 20
1760.0
 30
0.0
  0
ENDBLK
  5
9AF
330
9A4
100
AcDbEntity
  8
0
100
AcDbBlockEnd
  0
BLOCK
  5
A06
330
9FC
100
AcDbEntity
  8
0
100
AcDbBlockBegin
  2
*D5
 70
     1
 10
0.0
 20
0.0
 30
0.0
  3
*D5
  1

  0
LINE
  5
9FD
330
9FC
100
AcDbEntity
  8
SUNPO
 62
   144
100
AcDbLine
 10
1550.0
 20
3180.0
 30
0.0
 11
1550.0
 21
3360.0
 31
0.0
  0
LINE
  5
9FE
330
9FC
100
AcDbEntity
  8
SUNPO
 62
   144
100
AcDbLine
 10
2290.0
 20
3180.0
 30
0.0
 11
2290.0
 21
3360.0
 31
0.0
  0
LINE
  5
9FF
330
9FC
100
AcDbEntity
  8
SUNPO
 62
   144
100
AcDbLine
 10
1600.0
 20
3350.0
 30
0.0
 11
2240.0
 21
3350.0
 31
0.0
  0
SOLID
  5
A00
330
9FC
100
AcDbEntity
  8
SUNPO
 62
   144
100
AcDbTrace
 10
1600.0
 20
3358.333333333333
 30
0.0
 11
1600.0
 21
3341.666666666666
 31
0.0
 12
1550.0
 22
3350.0
 32
0.0
 13
1550.0
 23
3350.0
 33
0.0
  0
SOLID
  5
A01
330
9FC
100
AcDbEntity
  8
SUNPO
 62
   144
100
AcDbTrace
 10
2240.0
 20
3358.333333333333
 30
0.0
 11
2240.0
 21
3341.666666666666
 31
0.0
 12
2290.0
 22
3350.0
 32
0.0
 13
2290.0
 23
3350.0
 33
0.0
  0
MTEXT
  5
A02
330
9FC
100
AcDbEntity
  8
SUNPO
 62
     7
100
AcDbMText
 10
1920.0
 20
3387.5
 30
0.0
 40
50.0
 41
0.0
 71
     5
 72
     1
  1
\A2;740
  7
ADD
1001
ACAD
1000
MTEXTBEGIN
1070
    73
1070
     1
1070
    44
1040
1.0
1070
    74
1070
     0
1000
MTEXTEND
1000
MTEXTBEGIN
1070
    73
1070
     1
1070
    44
1040
1.0
1070
    74
1070
     0
1000
MTEXTEND
1000
MTEXTBEGIN
1070
    73
1070
     1
1070
    44
1040
1.0
1070
    74
1070
     0
1000
MTEXTEND
1000
MTEXTBEGIN
1070
    73
1070
     1
1070
    44
1040
1.0
1070
    74
1070
     0
1000
MTEXTEND
  0
POINT
  5
A03
330
9FC
100
AcDbEntity
  8
DEFPOINTS
 62
     0
100
AcDbPoint
 10
1550.0
 20
3160.0
 30
0.0
  0
POINT
  5
A04
330
9FC
100
AcDbEntity
  8
DEFPOINTS
 62
     0
100
AcDbPoint
 10
2290.0
 20
3160.0
 30
0.0
  0
POINT
  5
A05
330
9FC
100
AcDbEntity
  8
DEFPOINTS
 62
     0
100
AcDbPoint
 10
2290.0
 20
3350.0
 30
0.0
  0
ENDBLK
  5
A07
330
9FC
100
AcDbEntity
  8
0
100
AcDbBlockEnd
  0
BLOCK
  5
A13
330
A09
100
AcDbEntity
  8
0
100
AcDbBlockBegin
  2
*D6
 70
     1
 10
0.0
 20
0.0
 30
0.0
  3
*D6
  1

  0
LINE
  5
A0A
330
A09
100
AcDbEntity
  8
SUNPO
 62
   144
100
AcDbLine
 10
1845.0
 20
3180.0
 30
0.0
 11
1845.0
 21
3250.0
 31
0.0
  0
LINE
  5
A0B
330
A09
100
AcDbEntity
  8
SUNPO
 62
   144
100
AcDbLine
 10
1995.0
 20
3180.0
 30
0.0
 11
1995.0
 21
3250.0
 31
0.0
  0
LINE
  5
A0C
330
A09
100
AcDbEntity
  8
SUNPO
 62
   144
100
AcDbLine
 10
1895.0
 20
3240.0
 30
0.0
 11
1945.0
 21
3240.0
 31
0.0
  0
SOLID
  5
A0D
330
A09
100
AcDbEntity
  8
SUNPO
 62
   144
100
AcDbTrace
 10
1895.0
 20
3248.333333333333
 30
0.0
 11
1895.0
 21
3231.666666666666
 31
0.0
 12
1845.0
 22
3240.0
 32
0.0
 13
1845.0
 23
3240.0
 33
0.0
  0
SOLID
  5
A0E
330
A09
100
AcDbEntity
  8
SUNPO
 62
   144
100
AcDbTrace
 10
1945.0
 20
3248.333333333333
 30
0.0
 11
1945.0
 21
3231.666666666666
 31
0.0
 12
1995.0
 22
3240.0
 32
0.0
 13
1995.0
 23
3240.0
 33
0.0
  0
MTEXT
  5
A0F
330
A09
100
AcDbEntity
  8
SUNPO
 62
     7
100
AcDbMText
 10
1920.0
 20
3277.499999999999
 30
0.0
 40
50.0
 41
0.0
 71
     5
 72
     1
  1
\A2;150
  7
ADD
1001
ACAD
1000
MTEXTBEGIN
1070
    73
1070
     1
1070
    44
1040
1.0
1070
    74
1070
     0
1000
MTEXTEND
1000
MTEXTBEGIN
1070
    73
1070
     1
1070
    44
1040
1.0
1070
    74
1070
     0
1000
MTEXTEND
1000
MTEXTBEGIN
1070
    73
1070
     1
1070
    44
1040
1.0
1070
    74
1070
     0
1000
MTEXTEND
1000
MTEXTBEGIN
1070
    73
1070
     1
1070
    44
1040
1.0
1070
    74
1070
     0
1000
MTEXTEND
  0
POINT
  5
A10
330
A09
100
AcDbEntity
  8
DEFPOINTS
 62
     0
100
AcDbPoint
 10
1845.0
 20
3160.0
 30
0.0
  0
POINT
  5
A11
330
A09
100
AcDbEntity
  8
DEFPOINTS
 62
     0
100
AcDbPoint
 10
1995.0
 20
3160.0
 30
0.0
  0
POINT
  5
A12
330
A09
100
AcDbEntity
  8
DEFPOINTS
 62
     0
100
AcDbPoint
 10
1995.0
 20
3240.0
 30
0.0
  0
ENDBLK
  5
A14
330
A09
100
AcDbEntity
  8
0
100
AcDbBlockEnd
  0
BLOCK
  5
A20
330
A16
100
AcDbEntity
  8
0
100
AcDbBlockBegin
  2
*D7
 70
     1
 10
0.0
 20
0.0
 30
0.0
  3
*D7
  1

  0
LINE
  5
A17
330
A16
100
AcDbEntity
  8
SUNPO
 62
   144
100
AcDbLine
 10
2310.0
 20
3160.0
 30
0.0
 11
2460.0
 21
3160.0
 31
0.0
  0
LINE
  5
A18
330
A16
100
AcDbEntity
  8
SUNPO
 62
   144
100
AcDbLine
 10
2215.0
 20
3010.0
 30
0.0
 11
2460.0
 21
3010.0
 31
0.0
  0
LINE
  5
A19
330
A16
100
AcDbEntity
  8
SUNPO
 62
   144
100
AcDbLine
 10
2450.0
 20
3110.0
 30
0.0
 11
2450.0
 21
3060.0
 31
0.0
  0
SOLID
  5
A1A
330
A16
100
AcDbEntity
  8
SUNPO
 62
   144
100
AcDbTrace
 10
2441.666666666667
 20
3110.0
 30
0.0
 11
2458.333333333333
 21
3110.0
 31
0.0
 12
2450.0
 22
3160.0
 32
0.0
 13
2450.0
 23
3160.0
 33
0.0
  0
SOLID
  5
A1B
330
A16
100
AcDbEntity
  8
SUNPO
 62
   144
100
AcDbTrace
 10
2441.666666666666
 20
3060.0
 30
0.0
 11
2458.333333333333
 21
3060.0
 31
0.0
 12
2450.0
 22
3010.0
 32
0.0
 13
2450.0
 23
3010.0
 33
0.0
  0
MTEXT
  5
A1C
330
A16
100
AcDbEntity
  8
SUNPO
 62
     7
100
AcDbMText
 10
2412.499999999999
 20
3085.0
 30
0.0
 40
50.0
 41
0.0
 71
     5
 72
     1
  1
\A2;150
  7
ADD
 11
0.0000000000000001
 21
1.0
 31
0.0
1001
ACAD
1000
MTEXTBEGIN
1070
    73
1070
     1
1070
    44
1040
1.0
1070
    74
1070
     0
1000
MTEXTEND
1000
MTEXTBEGIN
1070
    73
1070
     1
1070
    44
1040
1.0
1070
    74
1070
     0
1000
MTEXTEND
1000
MTEXTBEGIN
1070
    73
1070
     1
1070
    44
1040
1.0
1070
    74
1070
     0
1000
MTEXTEND
1000
MTEXTBEGIN
1070
    73
1070
     1
1070
    44
1040
1.0
1070
    74
1070
     0
1000
MTEXTEND
  0
POINT
  5
A1D
330
A16
100
AcDbEntity
  8
DEFPOINTS
 62
     0
100
AcDbPoint
 10
2290.0
 20
3160.0
 30
0.0
  0
POINT
  5
A1E
330
A16
100
AcDbEntity
  8
DEFPOINTS
 62
     0
100
AcDbPoint
 10
2195.0
 20
3010.0
 30
0.0
  0
POINT
  5
A1F
330
A16
100
AcDbEntity
  8
DEFPOINTS
 62
     0
100
AcDbPoint
 10
2450.0
 20
3010.0
 30
0.0
  0
ENDBLK
  5
A21
330
A16
100
AcDbEntity
  8
0
100
AcDbBlockEnd
  0
BLOCK
  5
A4D
330
A41
100
AcDbEntity
  8
0
100
AcDbBlockBegin
  2
*D8
 70
     1
 10
0.0
 20
0.0
 30
0.0
  3
*D8
  1

  0
LINE
  5
B54
330
A41
100
AcDbEntity
  8
SUNPO
 62
   144
100
AcDbLine
 10
2215.0
 20
3010.0
 30
0.0
 11
2215.0
 21
2880.0
 31
0.0
  0
LINE
  5
B55
330
A41
100
AcDbEntity
  8
SUNPO
 62
   144
100
AcDbLine
 10
2290.0
 20
3010.0
 30
0.0
 11
2290.0
 21
2880.0
 31
0.0
  0
LINE
  5
B56
330
A41
100
AcDbEntity
  8
SUNPO
 62
   144
100
AcDbLine
 10
2165.0
 20
2890.0
 30
0.0
 11
2115.0
 21
2890.0
 31
0.0
  0
LINE
  5
B57
330
A41
100
AcDbEntity
  8
SUNPO
 62
   144
100
AcDbLine
 10
2340.0
 20
2890.0
 30
0.0
 11
2390.0
 21
2890.0
 31
0.0
  0
LINE
  5
B58
330
A41
100
AcDbEntity
  8
SUNPO
 62
   144
100
AcDbLine
 10
2215.0
 20
2890.0
 30
0.0
 11
2290.0
 21
2890.0
 31
0.0
  0
SOLID
  5
B59
330
A41
100
AcDbEntity
  8
SUNPO
 62
   144
100
AcDbTrace
 10
2165.0
 20
2898.333333333333
 30
0.0
 11
2165.0
 21
2881.666666666666
 31
0.0
 12
2215.0
 22
2890.0
 32
0.0
 13
2215.0
 23
2890.0
 33
0.0
  0
SOLID
  5
B5A
330
A41
100
AcDbEntity
  8
SUNPO
 62
   144
100
AcDbTrace
 10
2340.0
 20
2898.333333333333
 30
0.0
 11
2340.0
 21
2881.666666666666
 31
0.0
 12
2290.0
 22
2890.0
 32
0.0
 13
2290.0
 23
2890.0
 33
0.0
  0
MTEXT
  5
B5B
330
A41
100
AcDbEntity
  8
SUNPO
 62
     7
100
AcDbMText
 10
2252.5
 20
2852.5
 30
0.0
 40
50.0
 41
0.0
 71
     5
 72
     1
  1
\A2;75
  7
ADD
1001
ACAD
1000
MTEXTBEGIN
1070
    73
1070
     1
1070
    44
1040
1.0
1070
    74
1070
     0
1000
MTEXTEND
1000
MTEXTBEGIN
1070
    73
1070
     1
1070
    44
1040
1.0
1070
    74
1070
     0
1000
MTEXTEND
1000
MTEXTBEGIN
1070
    73
1070
     1
1070
    44
1040
1.0
1070
    74
1070
     0
1000
MTEXTEND
  0
POINT
  5
B5C
330
A41
100
AcDbEntity
  8
DEFPOINTS
 62
     0
100
AcDbPoint
 10
2215.0
 20
3030.0
 30
0.0
  0
POINT
  5
B5D
330
A41
100
AcDbEntity
  8
DEFPOINTS
 62
     0
100
AcDbPoint
 10
2290.0
 20
3030.0
 30
0.0
  0
POINT
  5
B5E
330
A41
100
AcDbEntity
  8
DEFPOINTS
 62
     0
100
AcDbPoint
 10
2290.0
 20
2890.0
 30
0.0
  0
ENDBLK
  5
A4E
330
A41
100
AcDbEntity
  8
0
100
AcDbBlockEnd
  0
BLOCK
  5
A5C
330
A50
100
AcDbEntity
  8
0
100
AcDbBlockBegin
  2
*D9
 70
     1
 10
0.0
 20
0.0
 30
0.0
  3
*D9
  1

  0
LINE
  5
B49
330
A50
100
AcDbEntity
  8
SUNPO
 62
   144
100
AcDbLine
 10
1550.0
 20
3010.0
 30
0.0
 11
1550.0
 21
2880.0
 31
0.0
  0
LINE
  5
B4A
330
A50
100
AcDbEntity
  8
SUNPO
 62
   144
100
AcDbLine
 10
1625.0
 20
3010.0
 30
0.0
 11
1625.0
 21
2880.0
 31
0.0
  0
LINE
  5
B4B
330
A50
100
AcDbEntity
  8
SUNPO
 62
   144
100
AcDbLine
 10
1500.0
 20
2890.0
 30
0.0
 11
1450.0
 21
2890.0
 31
0.0
  0
LINE
  5
B4C
330
A50
100
AcDbEntity
  8
SUNPO
 62
   144
100
AcDbLine
 10
1675.0
 20
2890.0
 30
0.0
 11
1725.0
 21
2890.0
 31
0.0
  0
LINE
  5
B4D
330
A50
100
AcDbEntity
  8
SUNPO
 62
   144
100
AcDbLine
 10
1550.0
 20
2890.0
 30
0.0
 11
1625.0
 21
2890.0
 31
0.0
  0
SOLID
  5
B4E
330
A50
100
AcDbEntity
  8
SUNPO
 62
   144
100
AcDbTrace
 10
1500.0
 20
2898.333333333333
 30
0.0
 11
1500.0
 21
2881.666666666666
 31
0.0
 12
1550.0
 22
2890.0
 32
0.0
 13
1550.0
 23
2890.0
 33
0.0
  0
SOLID
  5
B4F
330
A50
100
AcDbEntity
  8
SUNPO
 62
   144
100
AcDbTrace
 10
1675.0
 20
2898.333333333333
 30
0.0
 11
1675.0
 21
2881.666666666666
 31
0.0
 12
1625.0
 22
2890.0
 32
0.0
 13
1625.0
 23
2890.0
 33
0.0
  0
MTEXT
  5
B50
330
A50
100
AcDbEntity
  8
SUNPO
 62
     7
100
AcDbMText
 10
1587.5
 20
2852.5
 30
0.0
 40
50.0
 41
0.0
 71
     5
 72
     1
  1
\A2;75
  7
ADD
1001
ACAD
1000
MTEXTBEGIN
1070
    73
1070
     1
1070
    44
1040
1.0
1070
    74
1070
     0
1000
MTEXTEND
1000
MTEXTBEGIN
1070
    73
1070
     1
1070
    44
1040
1.0
1070
    74
1070
     0
1000
MTEXTEND
1000
MTEXTBEGIN
1070
    73
1070
     1
1070
    44
1040
1.0
1070
    74
1070
     0
1000
MTEXTEND
  0
POINT
  5
B51
330
A50
100
AcDbEntity
  8
DEFPOINTS
 62
     0
100
AcDbPoint
 10
1550.0
 20
3030.0
 30
0.0
  0
POINT
  5
B52
330
A50
100
AcDbEntity
  8
DEFPOINTS
 62
     0
100
AcDbPoint
 10
1625.0
 20
3030.0
 30
0.0
  0
POINT
  5
B53
330
A50
100
AcDbEntity
  8
DEFPOINTS
 62
     0
100
AcDbPoint
 10
1625.0
 20
2890.0
 30
0.0
  0
ENDBLK
  5
A5D
330
A50
100
AcDbEntity
  8
0
100
AcDbBlockEnd
  0
BLOCK
  5
A7A
330
A6E
100
AcDbEntity
  8
0
100
AcDbBlockBegin
  2
*D10
 70
     1
 10
0.0
 20
0.0
 30
0.0
  3
*D10
  1

  0
LINE
  5
A6F
330
A6E
100
AcDbEntity
  8
SUNPO
 62
   144
100
AcDbLine
 10
1530.0
 20
3030.0
 30
0.0
 11
1430.0
 21
3030.0
 31
0.0
  0
LINE
  5
A70
330
A6E
100
AcDbEntity
  8
SUNPO
 62
   144
100
AcDbLine
 10
1530.0
 20
3160.0
 30
0.0
 11
1430.0
 21
3160.0
 31
0.0
  0
LINE
  5
A71
330
A6E
100
AcDbEntity
  8
SUNPO
 62
   144
100
AcDbLine
 10
1440.0
 20
2980.0
 30
0.0
 11
1440.0
 21
2930.0
 31
0.0
  0
LINE
  5
A72
330
A6E
100
AcDbEntity
  8
SUNPO
 62
   144
100
AcDbLine
 10
1440.0
 20
3210.0
 30
0.0
 11
1440.0
 21
3260.0
 31
0.0
  0
LINE
  5
A73
330
A6E
100
AcDbEntity
  8
SUNPO
 62
   144
100
AcDbLine
 10
1440.0
 20
3030.0
 30
0.0
 11
1440.0
 21
3160.0
 31
0.0
  0
SOLID
  5
A74
330
A6E
100
AcDbEntity
  8
SUNPO
 62
   144
100
AcDbTrace
 10
1431.666666666666
 20
2980.0
 30
0.0
 11
1448.333333333333
 21
2980.0
 31
0.0
 12
1440.0
 22
3030.0
 32
0.0
 13
1440.0
 23
3030.0
 33
0.0
  0
SOLID
  5
A75
330
A6E
100
AcDbEntity
  8
SUNPO
 62
   144
100
AcDbTrace
 10
1431.666666666666
 20
3210.0
 30
0.0
 11
1448.333333333333
 21
3210.0
 31
0.0
 12
1440.0
 22
3160.0
 32
0.0
 13
1440.0
 23
3160.0
 33
0.0
  0
MTEXT
  5
A76
330
A6E
100
AcDbEntity
  8
SUNPO
 62
     7
100
AcDbMText
 10
1402.499999999999
 20
3095.0
 30
0.0
 40
50.0
 41
0.0
 71
     5
 72
     1
  1
\A2;130
  7
ADD
 11
0.0000000000000001
 21
1.0
 31
0.0
1001
ACAD
1000
MTEXTBEGIN
1070
    73
1070
     1
1070
    44
1040
1.0
1070
    74
1070
     0
1000
MTEXTEND
1000
MTEXTBEGIN
1070
    73
1070
     1
1070
    44
1040
1.0
1070
    74
1070
     0
1000
MTEXTEND
1000
MTEXTBEGIN
1070
    73
1070
     1
1070
    44
1040
1.0
1070
    74
1070
     0
1000
MTEXTEND
1000
MTEXTBEGIN
1070
    73
1070
     1
1070
    44
1040
1.0
1070
    74
1070
     0
1000
MTEXTEND
  0
POINT
  5
A77
330
A6E
100
AcDbEntity
  8
DEFPOINTS
 62
     0
100
AcDbPoint
 10
1550.0
 20
3030.0
 30
0.0
  0
POINT
  5
A78
330
A6E
100
AcDbEntity
  8
DEFPOINTS
 62
     0
100
AcDbPoint
 10
1550.0
 20
3160.0
 30
0.0
  0
POINT
  5
A79
330
A6E
100
AcDbEntity
  8
DEFPOINTS
 62
     0
100
AcDbPoint
 10
1440.0
 20
3160.0
 30
0.0
  0
ENDBLK
  5
A7B
330
A6E
100
AcDbEntity
  8
0
100
AcDbBlockEnd
  0
BLOCK
  5
A89
330
A7D
100
AcDbEntity
  8
0
100
AcDbBlockBegin
  2
*D11
 70
     1
 10
0.0
 20
0.0
 30
0.0
  3
*D11
  1

  0
LINE
  5
A7E
330
A7D
100
AcDbEntity
  8
SUNPO
 62
   144
100
AcDbLine
 10
1530.0
 20
3030.0
 30
0.0
 11
1290.0
 21
3030.0
 31
0.0
  0
LINE
  5
A7F
330
A7D
100
AcDbEntity
  8
SUNPO
 62
   144
100
AcDbLine
 10
1625.0
 20
3010.0
 30
0.0
 11
1290.0
 21
3010.0
 31
0.0
  0
LINE
  5
A80
330
A7D
100
AcDbEntity
  8
SUNPO
 62
   144
100
AcDbLine
 10
1300.0
 20
3080.0
 30
0.0
 11
1300.0
 21
3130.0
 31
0.0
  0
LINE
  5
A81
330
A7D
100
AcDbEntity
  8
SUNPO
 62
   144
100
AcDbLine
 10
1300.0
 20
2960.0
 30
0.0
 11
1300.0
 21
2910.0
 31
0.0
  0
LINE
  5
A82
330
A7D
100
AcDbEntity
  8
SUNPO
 62
   144
100
AcDbLine
 10
1300.0
 20
3030.0
 30
0.0
 11
1300.0
 21
3010.0
 31
0.0
  0
SOLID
  5
A83
330
A7D
100
AcDbEntity
  8
SUNPO
 62
   144
100
AcDbTrace
 10
1291.666666666666
 20
3080.0
 30
0.0
 11
1308.333333333333
 21
3080.0
 31
0.0
 12
1300.0
 22
3030.0
 32
0.0
 13
1300.0
 23
3030.0
 33
0.0
  0
SOLID
  5
A84
330
A7D
100
AcDbEntity
  8
SUNPO
 62
   144
100
AcDbTrace
 10
1291.666666666666
 20
2960.0
 30
0.0
 11
1308.333333333333
 21
2960.0
 31
0.0
 12
1300.0
 22
3010.0
 32
0.0
 13
1300.0
 23
3010.0
 33
0.0
  0
MTEXT
  5
A85
330
A7D
100
AcDbEntity
  8
SUNPO
 62
     7
100
AcDbMText
 10
1262.499999999999
 20
3020.0
 30
0.0
 40
50.0
 41
0.0
 71
     5
 72
     1
  1
\A2;20
  7
ADD
 11
0.0000000000000001
 21
1.0
 31
0.0
1001
ACAD
1000
MTEXTBEGIN
1070
    73
1070
     1
1070
    44
1040
1.0
1070
    74
1070
     0
1000
MTEXTEND
1000
MTEXTBEGIN
1070
    73
1070
     1
1070
    44
1040
1.0
1070
    74
1070
     0
1000
MTEXTEND
1000
MTEXTBEGIN
1070
    73
1070
     1
1070
    44
1040
1.0
1070
    74
1070
     0
1000
MTEXTEND
1000
MTEXTBEGIN
1070
    73
1070
     1
1070
    44
1040
1.0
1070
    74
1070
     0
1000
MTEXTEND
  0
POINT
  5
A86
330
A7D
100
AcDbEntity
  8
DEFPOINTS
 62
     0
100
AcDbPoint
 10
1550.0
 20
3030.0
 30
0.0
  0
POINT
  5
A87
330
A7D
100
AcDbEntity
  8
DEFPOINTS
 62
     0
100
AcDbPoint
 10
1645.0
 20
3010.0
 30
0.0
  0
POINT
  5
A88
330
A7D
100
AcDbEntity
  8
DEFPOINTS
 62
     0
100
AcDbPoint
 10
1300.0
 20
3010.0
 30
0.0
  0
ENDBLK
  5
A8A
330
A7D
100
AcDbEntity
  8
0
100
AcDbBlockEnd
  0
BLOCK
  5
AB1
330
AA7
100
AcDbEntity
  8
0
100
AcDbBlockBegin
  2
*D12
 70
     1
 10
0.0
 20
0.0
 30
0.0
  3
*D12
  1

  0
LINE
  5
AA8
330
AA7
100
AcDbEntity
  8
SUNPO
 62
   144
100
AcDbLine
 10
1844.999999999999
 20
2380.0
 30
0.0
 11
1844.999999999999
 21
2468.833643623107
 31
0.0
  0
LINE
  5
AA9
330
AA7
100
AcDbEntity
  8
SUNPO
 62
   144
100
AcDbLine
 10
1994.999999999999
 20
2377.999999999998
 30
0.0
 11
1994.999999999999
 21
2468.833643623107
 31
0.0
  0
LINE
  5
AAA
330
AA7
100
AcDbEntity
  8
SUNPO
 62
   144
100
AcDbLine
 10
1894.999999999999
 20
2458.833643623107
 30
0.0
 11
1944.999999999999
 21
2458.833643623107
 31
0.0
  0
SOLID
  5
AAB
330
AA7
100
AcDbEntity
  8
SUNPO
 62
   144
100
AcDbTrace
 10
1894.999999999999
 20
2467.166976956441
 30
0.0
 11
1894.999999999999
 21
2450.500310289774
 31
0.0
 12
1844.999999999999
 22
2458.833643623107
 32
0.0
 13
1844.999999999999
 23
2458.833643623107
 33
0.0
  0
SOLID
  5
AAC
330
AA7
100
AcDbEntity
  8
SUNPO
 62
   144
100
AcDbTrace
 10
1944.999999999999
 20
2467.166976956441
 30
0.0
 11
1944.999999999999
 21
2450.500310289774
 31
0.0
 12
1994.999999999999
 22
2458.833643623107
 32
0.0
 13
1994.999999999999
 23
2458.833643623107
 33
0.0
  0
MTEXT
  5
AAD
330
AA7
100
AcDbEntity
  8
SUNPO
 62
     7
100
AcDbMText
 10
1919.999999999999
 20
2496.333643623107
 30
0.0
 40
50.0
 41
0.0
 71
     5
 72
     1
  1
\A2;150
  7
ADD
1001
ACAD
1000
MTEXTBEGIN
1070
    73
1070
     1
1070
    44
1040
1.0
1070
    74
1070
     0
1000
MTEXTEND
1000
MTEXTBEGIN
1070
    73
1070
     1
1070
    44
1040
1.0
1070
    74
1070
     0
1000
MTEXTEND
1000
MTEXTBEGIN
1070
    73
1070
     1
1070
    44
1040
1.0
1070
    74
1070
     0
1000
MTEXTEND
1000
MTEXTBEGIN
1070
    73
1070
     1
1070
    44
1040
1.0
1070
    74
1070
     0
1000
MTEXTEND
  0
POINT
  5
AAE
330
AA7
100
AcDbEntity
  8
DEFPOINTS
 62
     0
100
AcDbPoint
 10
1844.999999999999
 20
2360.0
 30
0.0
  0
POINT
  5
AAF
330
AA7
100
AcDbEntity
  8
DEFPOINTS
 62
     0
100
AcDbPoint
 10
1994.999999999999
 20
2357.999999999998
 30
0.0
  0
POINT
  5
AB0
330
AA7
100
AcDbEntity
  8
DEFPOINTS
 62
     0
100
AcDbPoint
 10
1994.999999999999
 20
2458.833643623107
 30
0.0
  0
ENDBLK
  5
AB2
330
AA7
100
AcDbEntity
  8
0
100
AcDbBlockEnd
  0
BLOCK
  5
ABE
330
AB4
100
AcDbEntity
  8
0
100
AcDbBlockBegin
  2
*D13
 70
     1
 10
0.0
 20
0.0
 30
0.0
  3
*D13
  1

  0
LINE
  5
AB5
330
AB4
100
AcDbEntity
  8
SUNPO
 62
   144
100
AcDbLine
 10
1844.999999999999
 20
1742.000000000001
 30
0.0
 11
1844.999999999999
 21
1639.059119762943
 31
0.0
  0
LINE
  5
AB6
330
AB4
100
AcDbEntity
  8
SUNPO
 62
   144
100
AcDbLine
 10
1995.0
 20
1740.0
 30
0.0
 11
1995.0
 21
1639.059119762943
 31
0.0
  0
LINE
  5
AB7
330
AB4
100
AcDbEntity
  8
SUNPO
 62
   144
100
AcDbLine
 10
1894.999999999999
 20
1649.059119762943
 30
0.0
 11
1945.0
 21
1649.059119762943
 31
0.0
  0
SOLID
  5
AB8
330
AB4
100
AcDbEntity
  8
SUNPO
 62
   144
100
AcDbTrace
 10
1894.999999999999
 20
1657.392453096277
 30
0.0
 11
1894.999999999999
 21
1640.72578642961
 31
0.0
 12
1844.999999999999
 22
1649.059119762943
 32
0.0
 13
1844.999999999999
 23
1649.059119762943
 33
0.0
  0
SOLID
  5
AB9
330
AB4
100
AcDbEntity
  8
SUNPO
 62
   144
100
AcDbTrace
 10
1945.0
 20
1657.392453096277
 30
0.0
 11
1945.0
 21
1640.72578642961
 31
0.0
 12
1995.0
 22
1649.059119762943
 32
0.0
 13
1995.0
 23
1649.059119762943
 33
0.0
  0
MTEXT
  5
ABA
330
AB4
100
AcDbEntity
  8
SUNPO
 62
     7
100
AcDbMText
 10
1919.999999999999
 20
1686.559119762943
 30
0.0
 40
50.0
 41
0.0
 71
     5
 72
     1
  1
\A2;150
  7
ADD
1001
ACAD
1000
MTEXTBEGIN
1070
    73
1070
     1
1070
    44
1040
1.0
1070
    74
1070
     0
1000
MTEXTEND
1000
MTEXTBEGIN
1070
    73
1070
     1
1070
    44
1040
1.0
1070
    74
1070
     0
1000
MTEXTEND
1000
MTEXTBEGIN
1070
    73
1070
     1
1070
    44
1040
1.0
1070
    74
1070
     0
1000
MTEXTEND
1000
MTEXTBEGIN
1070
    73
1070
     1
1070
    44
1040
1.0
1070
    74
1070
     0
1000
MTEXTEND
  0
POINT
  5
ABB
330
AB4
100
AcDbEntity
  8
DEFPOINTS
 62
     0
100
AcDbPoint
 10
1844.999999999999
 20
1762.000000000002
 30
0.0
  0
POINT
  5
ABC
330
AB4
100
AcDbEntity
  8
DEFPOINTS
 62
     0
100
AcDbPoint
 10
1995.0
 20
1760.0
 30
0.0
  0
POINT
  5
ABD
330
AB4
100
AcDbEntity
  8
DEFPOINTS
 62
     0
100
AcDbPoint
 10
1995.0
 20
1649.059119762943
 30
0.0
  0
ENDBLK
  5
ABF
330
AB4
100
AcDbEntity
  8
0
100
AcDbBlockEnd
  0
ENDSEC
  0
SECTION
  2
ENTITIES
  0
LINE
  5
60A
330
1F
100
AcDbEntity
  8
HOJO
100
AcDbLine
 10
360.0
 20
260.0
 30
0.0
 11
5580.0
 21
260.0
 31
0.0
  0
LINE
  5
60B
330
1F
100
AcDbEntity
  8
HOJO
100
AcDbLine
 10
360.0
 20
560.0
 30
0.0
 11
5580.0
 21
560.0
 31
0.0
  0
LINE
  5
60C
330
1F
100
AcDbEntity
  8
HOJO
100
AcDbLine
 10
360.0
 20
260.0
 30
0.0
 11
360.0
 21
560.0
 31
0.0
  0
LINE
  5
60D
330
1F
100
AcDbEntity
  8
HOJO
100
AcDbLine
 10
2360.0
 20
260.0
 30
0.0
 11
2360.0
 21
560.0
 31
0.0
  0
LINE
  5
60F
330
1F
100
AcDbEntity
  8
HOJO
100
AcDbLine
 10
3160.0
 20
260.0
 30
0.0
 11
3160.0
 21
560.0
 31
0.0
  0
LINE
  5
610
330
1F
100
AcDbEntity
  8
HOJO
100
AcDbLine
 10
3660.0
 20
260.0
 30
0.0
 11
3660.0
 21
560.0
 31
0.0
  0
LINE
  5
9A2
330
1F
100
AcDbEntity
  8
3C1
100
AcDbLine
 10
3130.0
 20
3030.0
 30
0.0
 11
3730.0
 21
3030.0
 31
0.0
  0
LINE
  5
9E4
330
1F
100
AcDbEntity
  8
3C1
100
AcDbLine
 10
1845.0
 20
3160.0
 30
0.0
 11
1845.0
 21
3010.0
 31
0.0
  0
LINE
  5
9E5
330
1F
100
AcDbEntity
  8
3C1
100
AcDbLine
 10
1995.0
 20
3160.0
 30
0.0
 11
1995.0
 21
3010.0
 31
0.0
  0
LINE
  5
9E6
330
1F
100
AcDbEntity
  8
3C1
100
AcDbLine
 10
1550.0
 20
3030.0
 30
0.0
 11
1625.0
 21
3030.0
 31
0.0
  0
LINE
  5
9E7
330
1F
100
AcDbEntity
  8
3C1
100
AcDbLine
 10
1625.0
 20
3030.0
 30
0.0
 11
1645.0
 21
3010.0
 31
0.0
  0
LINE
  5
9E8
330
1F
100
AcDbEntity
  8
3C1
100
AcDbLine
 10
2290.0
 20
3030.0
 30
0.0
 11
2215.0
 21
3030.0
 31
0.0
  0
LINE
  5
9E9
330
1F
100
AcDbEntity
  8
3C1
100
AcDbLine
 10
2215.0
 20
3030.0
 30
0.0
 11
2195.0
 21
3010.0
 31
0.0
  0
LINE
  5
9EA
330
1F
100
AcDbEntity
  8
3C1
100
AcDbLine
 10
1550.0
 20
3160.0
 30
0.0
 11
1550.0
 21
3030.0
 31
0.0
  0
LINE
  5
9EB
330
1F
100
AcDbEntity
  8
3C1
100
AcDbLine
 10
1550.0
 20
3160.0
 30
0.0
 11
2290.0
 21
3160.0
 31
0.0
  0
LINE
  5
9EC
330
1F
100
AcDbEntity
  8
3C1
100
AcDbLine
 10
2290.0
 20
3160.0
 30
0.0
 11
2290.0
 21
3030.0
 31
0.0
  0
LINE
  5
9ED
330
1F
100
AcDbEntity
  8
3C1
100
AcDbLine
 10
1645.0
 20
3010.0
 30
0.0
 11
2195.0
 21
3010.0
 31
0.0
  0
LINE
  5
A91
330
1F
100
AcDbEntity
  8
3C1
100
AcDbLine
 10
1844.999999999999
 20
2360.0
 30
0.0
 11
1844.999999999999
 21
2358.0
 31
0.0
  0
LINE
  5
A92
330
1F
100
AcDbEntity
  8
3C1
100
AcDbLine
 10
1862.999999999999
 20
2340.0
 30
0.0
 11
1976.999999999999
 21
2340.0
 31
0.0
  0
LINE
  5
A93
330
1F
100
AcDbEntity
  8
3C1
100
AcDbLine
 10
1994.999999999999
 20
2358.0
 30
0.0
 11
1995.0
 21
2360.0
 31
0.0
  0
LINE
  5
A94
330
1F
100
AcDbEntity
  8
3C1
100
AcDbLine
 10
1844.999999999999
 20
1760.0
 30
0.0
 11
1844.999999999999
 21
1762.0
 31
0.0
  0
LINE
  5
A95
330
1F
100
AcDbEntity
  8
3C1
100
AcDbLine
 10
1862.999999999999
 20
1780.0
 30
0.0
 11
1976.999999999999
 21
1780.0
 31
0.0
  0
LINE
  5
A96
330
1F
100
AcDbEntity
  8
3C1
100
AcDbLine
 10
1994.999999999999
 20
1762.0
 30
0.0
 11
1995.0
 21
1760.0
 31
0.0
  0
ARC
  5
A98
330
1F
100
AcDbEntity
  8
3C1
100
AcDbCircle
 10
1862.999999999999
 20
2358.0
 30
0.0
 40
18.0
100
AcDbArc
 50
180.0
 51
270.0
  0
ARC
  5
A99
330
1F
100
AcDbEntity
  8
3C1
100
AcDbCircle
 10
1976.999999999999
 20
2358.0
 30
0.0
 40
18.0
100
AcDbArc
 50
270.0
 51
0.0
  0
ARC
  5
A9A
330
1F
100
AcDbEntity
  8
3C1
100
AcDbCircle
 10
1862.999999999999
 20
1762.0
 30
0.0
 40
18.0
100
AcDbArc
 50
90.0
 51
180.0
  0
ARC
  5
A9B
330
1F
100
AcDbEntity
  8
3C1
100
AcDbCircle
 10
1976.999999999999
 20
1762.0
 30
0.0
 40
18.0
100
AcDbArc
 50
0.0
 51
90.0
  0
LINE
  5
A9D
330
1F
100
AcDbEntity
  8
3C1
100
AcDbLine
 10
1549.999999999999
 20
2360.0
 30
0.0
 11
1549.999999999999
 21
1760.0
 31
0.0
  0
LINE
  5
A9E
330
1F
100
AcDbEntity
  8
3C1
100
AcDbLine
 10
1549.999999999999
 20
1760.0
 30
0.0
 11
1844.999999999999
 21
1760.0
 31
0.0
  0
LINE
  5
AA2
330
1F
100
AcDbEntity
  8
3C1
100
AcDbLine
 10
1844.999999999999
 20
2360.0
 30
0.0
 11
1549.999999999999
 21
2360.0
 31
0.0
  0
LINE
  5
AA3
330
1F
100
AcDbEntity
  8
3C1
100
AcDbLine
 10
1995.0
 20
2360.0
 30
0.0
 11
2290.0
 21
2360.0
 31
0.0
  0
LINE
  5
AA4
330
1F
100
AcDbEntity
  8
3C1
100
AcDbLine
 10
2290.0
 20
2360.0
 30
0.0
 11
2289.999999999999
 21
1760.0
 31
0.0
  0
LINE
  5
AA5
330
1F
100
AcDbEntity
  8
3C1
100
AcDbLine
 10
2289.999999999999
 20
1760.0
 30
0.0
 11
1995.0
 21
1760.0
 31
0.0
  0
LINE
  5
C59
330
1F
100
AcDbEntity
  8
SUNPO
 62
   144
100
AcDbLine
 10
1844.999999999999
 20
1742.000000000001
 30
0.0
 11
1844.999999999999
 21
1639.059119762943
 31
0.0
  0
LINE
  5
C5A
330
1F
100
AcDbEntity
  8
SUNPO
 62
   144
100
AcDbLine
 10
1995.0
 20
1740.0
 30
0.0
 11
1995.0
 21
1639.059119762943
 31
0.0
  0
LINE
  5
C5B
330
1F
100
AcDbEntity
  8
SUNPO
 62
   144
100
AcDbLine
 10
1894.999999999999
 20
1649.059119762943
 30
0.0
 11
1945.0
 21
1649.059119762943
 31
0.0
  0
SOLID
  5
C5C
330
1F
100
AcDbEntity
  8
SUNPO
 62
   144
100
AcDbTrace
 10
1894.999999999999
 20
1657.392453096277
 30
0.0
 11
1894.999999999999
 21
1640.72578642961
 31
0.0
 12
1844.999999999999
 22
1649.059119762943
 32
0.0
 13
1844.999999999999
 23
1649.059119762943
 33
0.0
  0
SOLID
  5
C5D
330
1F
100
AcDbEntity
  8
SUNPO
 62
   144
100
AcDbTrace
 10
1945.0
 20
1657.392453096277
 30
0.0
 11
1945.0
 21
1640.72578642961
 31
0.0
 12
1995.0
 22
1649.059119762943
 32
0.0
 13
1995.0
 23
1649.059119762943
 33
0.0
  0
LINE
  5
C5F
330
1F
100
AcDbEntity
  8
SUNPO
 62
   144
100
AcDbLine
 10
1844.999999999999
 20
2380.0
 30
0.0
 11
1844.999999999999
 21
2468.833643623107
 31
0.0
  0
LINE
  5
C60
330
1F
100
AcDbEntity
  8
SUNPO
 62
   144
100
AcDbLine
 10
1994.999999999999
 20
2377.999999999998
 30
0.0
 11
1994.999999999999
 21
2468.833643623107
 31
0.0
  0
LINE
  5
C61
330
1F
100
AcDbEntity
  8
SUNPO
 62
   144
100
AcDbLine
 10
1894.999999999999
 20
2458.833643623107
 30
0.0
 11
1944.999999999999
 21
2458.833643623107
 31
0.0
  0
SOLID
  5
C62
330
1F
100
AcDbEntity
  8
SUNPO
 62
   144
100
AcDbTrace
 10
1894.999999999999
 20
2467.166976956441
 30
0.0
 11
1894.999999999999
 21
2450.500310289774
 31
0.0
 12
1844.999999999999
 22
2458.833643623107
 32
0.0
 13
1844.999999999999
 23
2458.833643623107
 33
0.0
  0
SOLID
  5
C63
330
1F
100
AcDbEntity
  8
SUNPO
 62
   144
100
AcDbTrace
 10
1944.999999999999
 20
2467.166976956441
 30
0.0
 11
1944.999999999999
 21
2450.500310289774
 31
0.0
 12
1994.999999999999
 22
2458.833643623107
 32
0.0
 13
1994.999999999999
 23
2458.833643623107
 33
0.0
  0
LINE
  5
C65
330
1F
100
AcDbEntity
  8
SUNPO
 62
   144
100
AcDbLine
 10
1530.0
 20
3030.0
 30
0.0
 11
1290.0
 21
3030.0
 31
0.0
  0
LINE
  5
C66
330
1F
100
AcDbEntity
  8
SUNPO
 62
   144
100
AcDbLine
 10
1625.0
 20
3010.0
 30
0.0
 11
1290.0
 21
3010.0
 31
0.0
  0
LINE
  5
C67
330
1F
100
AcDbEntity
  8
SUNPO
 62
   144
100
AcDbLine
 10
1300.0
 20
3080.0
 30
0.0
 11
1300.0
 21
3130.0
 31
0.0
  0
LINE
  5
C68
330
1F
100
AcDbEntity
  8
SUNPO
 62
   144
100
AcDbLine
 10
1300.0
 20
2960.0
 30
0.0
 11
1300.0
 21
2910.0
 31
0.0
  0
LINE
  5
C69
330
1F
100
AcDbEntity
  8
SUNPO
 62
   144
100
AcDbLine
 10
1300.0
 20
3030.0
 30
0.0
 11
1300.0
 21
3010.0
 31
0.0
  0
SOLID
  5
C6A
330
1F
100
AcDbEntity
  8
SUNPO
 62
   144
100
AcDbTrace
 10
1291.666666666666
 20
3080.0
 30
0.0
 11
1308.333333333333
 21
3080.0
 31
0.0
 12
1300.0
 22
3030.0
 32
0.0
 13
1300.0
 23
3030.0
 33
0.0
  0
SOLID
  5
C6B
330
1F
100
AcDbEntity
  8
SUNPO
 62
   144
100
AcDbTrace
 10
1291.666666666666
 20
2960.0
 30
0.0
 11
1308.333333333333
 21
2960.0
 31
0.0
 12
1300.0
 22
3010.0
 32
0.0
 13
1300.0
 23
3010.0
 33
0.0
  0
LINE
  5
C6D
330
1F
100
AcDbEntity
  8
SUNPO
 62
   144
100
AcDbLine
 10
1530.0
 20
3030.0
 30
0.0
 11
1430.0
 21
3030.0
 31
0.0
  0
LINE
  5
C6E
330
1F
100
AcDbEntity
  8
SUNPO
 62
   144
100
AcDbLine
 10
1530.0
 20
3160.0
 30
0.0
 11
1430.0
 21
3160.0
 31
0.0
  0
LINE
  5
C6F
330
1F
100
AcDbEntity
  8
SUNPO
 62
   144
100
AcDbLine
 10
1440.0
 20
2980.0
 30
0.0
 11
1440.0
 21
2930.0
 31
0.0
  0
LINE
  5
C70
330
1F
100
AcDbEntity
  8
SUNPO
 62
   144
100
AcDbLine
 10
1440.0
 20
3210.0
 30
0.0
 11
1440.0
 21
3260.0
 31
0.0
  0
LINE
  5
C71
330
1F
100
AcDbEntity
  8
SUNPO
 62
   144
100
AcDbLine
 10
1440.0
 20
3030.0
 30
0.0
 11
1440.0
 21
3160.0
 31
0.0
  0
SOLID
  5
C72
330
1F
100
AcDbEntity
  8
SUNPO
 62
   144
100
AcDbTrace
 10
1431.666666666666
 20
2980.0
 30
0.0
 11
1448.333333333333
 21
2980.0
 31
0.0
 12
1440.0
 22
3030.0
 32
0.0
 13
1440.0
 23
3030.0
 33
0.0
  0
SOLID
  5
C73
330
1F
100
AcDbEntity
  8
SUNPO
 62
   144
100
AcDbTrace
 10
1431.666666666666
 20
3210.0
 30
0.0
 11
1448.333333333333
 21
3210.0
 31
0.0
 12
1440.0
 22
3160.0
 32
0.0
 13
1440.0
 23
3160.0
 33
0.0
  0
LINE
  5
C75
330
1F
100
AcDbEntity
  8
SUNPO
 62
   144
100
AcDbLine
 10
1550.0
 20
3010.0
 30
0.0
 11
1550.0
 21
2880.0
 31
0.0
  0
LINE
  5
C76
330
1F
100
AcDbEntity
  8
SUNPO
 62
   144
100
AcDbLine
 10
1625.0
 20
3010.0
 30
0.0
 11
1625.0
 21
2880.0
 31
0.0
  0
LINE
  5
C77
330
1F
100
AcDbEntity
  8
SUNPO
 62
   144
100
AcDbLine
 10
1500.0
 20
2890.0
 30
0.0
 11
1450.0
 21
2890.0
 31
0.0
  0
LINE
  5
C78
330
1F
100
AcDbEntity
  8
SUNPO
 62
   144
100
AcDbLine
 10
1675.0
 20
2890.0
 30
0.0
 11
1725.0
 21
2890.0
 31
0.0
  0
LINE
  5
C79
330
1F
100
AcDbEntity
  8
SUNPO
 62
   144
100
AcDbLine
 10
1550.0
 20
2890.0
 30
0.0
 11
1625.0
 21
2890.0
 31
0.0
  0
SOLID
  5
C7A
330
1F
100
AcDbEntity
  8
SUNPO
 62
   144
100
AcDbTrace
 10
1500.0
 20
2898.333333333333
 30
0.0
 11
1500.0
 21
2881.666666666666
 31
0.0
 12
1550.0
 22
2890.0
 32
0.0
 13
1550.0
 23
2890.0
 33
0.0
  0
SOLID
  5
C7B
330
1F
100
AcDbEntity
  8
SUNPO
 62
   144
100
AcDbTrace
 10
1675.0
 20
2898.333333333333
 30
0.0
 11
1675.0
 21
2881.666666666666
 31
0.0
 12
1625.0
 22
2890.0
 32
0.0
 13
1625.0
 23
2890.0
 33
0.0
  0
LINE
  5
C7D
330
1F
100
AcDbEntity
  8
SUNPO
 62
   144
100
AcDbLine
 10
2215.0
 20
3010.0
 30
0.0
 11
2215.0
 21
2880.0
 31
0.0
  0
LINE
  5
C7E
330
1F
100
AcDbEntity
  8
SUNPO
 62
   144
100
AcDbLine
 10
2290.0
 20
3010.0
 30
0.0
 11
2290.0
 21
2880.0
 31
0.0
  0
LINE
  5
C7F
330
1F
100
AcDbEntity
  8
SUNPO
 62
   144
100
AcDbLine
 10
2165.0
 20
2890.0
 30
0.0
 11
2115.0
 21
2890.0
 31
0.0
  0
LINE
  5
C80
330
1F
100
AcDbEntity
  8
SUNPO
 62
   144
100
AcDbLine
 10
2340.0
 20
2890.0
 30
0.0
 11
2390.0
 21
2890.0
 31
0.0
  0
LINE
  5
C81
330
1F
100
AcDbEntity
  8
SUNPO
 62
   144
100
AcDbLine
 10
2215.0
 20
2890.0
 30
0.0
 11
2290.0
 21
2890.0
 31
0.0
  0
SOLID
  5
C82
330
1F
100
AcDbEntity
  8
SUNPO
 62
   144
100
AcDbTrace
 10
2165.0
 20
2898.333333333333
 30
0.0
 11
2165.0
 21
2881.666666666666
 31
0.0
 12
2215.0
 22
2890.0
 32
0.0
 13
2215.0
 23
2890.0
 33
0.0
  0
SOLID
  5
C83
330
1F
100
AcDbEntity
  8
SUNPO
 62
   144
100
AcDbTrace
 10
2340.0
 20
2898.333333333333
 30
0.0
 11
2340.0
 21
2881.666666666666
 31
0.0
 12
2290.0
 22
2890.0
 32
0.0
 13
2290.0
 23
2890.0
 33
0.0
  0
LINE
  5
C85
330
1F
100
AcDbEntity
  8
SUNPO
 62
   144
100
AcDbLine
 10
2310.0
 20
3160.0
 30
0.0
 11
2460.0
 21
3160.0
 31
0.0
  0
LINE
  5
C86
330
1F
100
AcDbEntity
  8
SUNPO
 62
   144
100
AcDbLine
 10
2215.0
 20
3010.0
 30
0.0
 11
2460.0
 21
3010.0
 31
0.0
  0
LINE
  5
C87
330
1F
100
AcDbEntity
  8
SUNPO
 62
   144
100
AcDbLine
 10
2450.0
 20
3110.0
 30
0.0
 11
2450.0
 21
3060.0
 31
0.0
  0
SOLID
  5
C88
330
1F
100
AcDbEntity
  8
SUNPO
 62
   144
100
AcDbTrace
 10
2441.666666666667
 20
3110.0
 30
0.0
 11
2458.333333333333
 21
3110.0
 31
0.0
 12
2450.0
 22
3160.0
 32
0.0
 13
2450.0
 23
3160.0
 33
0.0
  0
SOLID
  5
C89
330
1F
100
AcDbEntity
  8
SUNPO
 62
   144
100
AcDbTrace
 10
2441.666666666666
 20
3060.0
 30
0.0
 11
2458.333333333333
 21
3060.0
 31
0.0
 12
2450.0
 22
3010.0
 32
0.0
 13
2450.0
 23
3010.0
 33
0.0
  0
LINE
  5
C8B
330
1F
100
AcDbEntity
  8
SUNPO
 62
   144
100
AcDbLine
 10
1845.0
 20
3180.0
 30
0.0
 11
1845.0
 21
3250.0
 31
0.0
  0
LINE
  5
C8C
330
1F
100
AcDbEntity
  8
SUNPO
 62
   144
100
AcDbLine
 10
1995.0
 20
3180.0
 30
0.0
 11
1995.0
 21
3250.0
 31
0.0
  0
LINE
  5
C8D
330
1F
100
AcDbEntity
  8
SUNPO
 62
   144
100
AcDbLine
 10
1895.0
 20
3240.0
 30
0.0
 11
1945.0
 21
3240.0
 31
0.0
  0
SOLID
  5
C8E
330
1F
100
AcDbEntity
  8
SUNPO
 62
   144
100
AcDbTrace
 10
1895.0
 20
3248.333333333333
 30
0.0
 11
1895.0
 21
3231.666666666666
 31
0.0
 12
1845.0
 22
3240.0
 32
0.0
 13
1845.0
 23
3240.0
 33
0.0
  0
SOLID
  5
C8F
330
1F
100
AcDbEntity
  8
SUNPO
 62
   144
100
AcDbTrace
 10
1945.0
 20
3248.333333333333
 30
0.0
 11
1945.0
 21
3231.666666666666
 31
0.0
 12
1995.0
 22
3240.0
 32
0.0
 13
1995.0
 23
3240.0
 33
0.0
  0
LINE
  5
C91
330
1F
100
AcDbEntity
  8
SUNPO
 62
   144
100
AcDbLine
 10
1550.0
 20
3180.0
 30
0.0
 11
1550.0
 21
3360.0
 31
0.0
  0
LINE
  5
C92
330
1F
100
AcDbEntity
  8
SUNPO
 62
   144
100
AcDbLine
 10
2290.0
 20
3180.0
 30
0.0
 11
2290.0
 21
3360.0
 31
0.0
  0
LINE
  5
C93
330
1F
100
AcDbEntity
  8
SUNPO
 62
   144
100
AcDbLine
 10
1600.0
 20
3350.0
 30
0.0
 11
2240.0
 21
3350.0
 31
0.0
  0
SOLID
  5
C94
330
1F
100
AcDbEntity
  8
SUNPO
 62
   144
100
AcDbTrace
 10
1600.0
 20
3358.333333333333
 30
0.0
 11
1600.0
 21
3341.666666666666
 31
0.0
 12
1550.0
 22
3350.0
 32
0.0
 13
1550.0
 23
3350.0
 33
0.0
  0
SOLID
  5
C95
330
1F
100
AcDbEntity
  8
SUNPO
 62
   144
100
AcDbTrace
 10
2240.0
 20
3358.333333333333
 30
0.0
 11
2240.0
 21
3341.666666666666
 31
0.0
 12
2290.0
 22
3350.0
 32
0.0
 13
2290.0
 23
3350.0
 33
0.0
  0
LINE
  5
C97
330
1F
100
AcDbEntity
  8
SUNPO
 62
   144
100
AcDbLine
 10
2310.0
 20
2360.0
 30
0.0
 11
2490.0
 21
2360.0
 31
0.0
  0
LINE
  5
C98
330
1F
100
AcDbEntity
  8
SUNPO
 62
   144
100
AcDbLine
 10
2310.0
 20
1760.0
 30
0.0
 11
2490.0
 21
1760.0
 31
0.0
  0
LINE
  5
C99
330
1F
100
AcDbEntity
  8
SUNPO
 62
   144
100
AcDbLine
 10
2480.0
 20
2310.0
 30
0.0
 11
2480.0
 21
1810.0
 31
0.0
  0
SOLID
  5
C9A
330
1F
100
AcDbEntity
  8
SUNPO
 62
   144
100
AcDbTrace
 10
2471.666666666666
 20
2310.0
 30
0.0
 11
2488.333333333333
 21
2310.0
 31
0.0
 12
2480.0
 22
2360.0
 32
0.0
 13
2480.0
 23
2360.0
 33
0.0
  0
SOLID
  5
C9B
330
1F
100
AcDbEntity
  8
SUNPO
 62
   144
100
AcDbTrace
 10
2471.666666666666
 20
1810.0
 30
0.0
 11
2488.333333333333
 21
1810.0
 31
0.0
 12
2480.0
 22
1760.0
 32
0.0
 13
2480.0
 23
1760.0
 33
0.0
  0
LINE
  5
C9D
330
1F
100
AcDbEntity
  8
3C1
100
AcDbLine
 10
3130.0
 20
3160.0
 30
0.0
 11
3730.0
 21
3160.0
 31
0.0
  0
LINE
  5
C9E
330
1F
100
AcDbEntity
  8
3C1
100
AcDbLine
 10
3730.0
 20
3160.0
 30
0.0
 11
3730.0
 21
3010.0
 31
0.0
  0
LINE
  5
C9F
330
1F
100
AcDbEntity
  8
3C1
100
AcDbLine
 10
3730.0
 20
3010.0
 30
0.0
 11
3130.0
 21
3010.0
 31
0.0
  0
LINE
  5
CA0
330
1F
100
AcDbEntity
  8
3C1
100
AcDbLine
 10
3130.0
 20
3010.0
 30
0.0
 11
3130.0
 21
3160.0
 31
0.0
  0
LINE
  5
CA1
330
1F
100
AcDbEntity
  8
SUNPO
 62
   144
100
AcDbLine
 10
3750.0
 20
3160.0
 30
0.0
 11
3910.000000000001
 21
3160.0
 31
0.0
  0
LINE
  5
CA2
330
1F
100
AcDbEntity
  8
SUNPO
 62
   144
100
AcDbLine
 10
3750.0
 20
3010.0
 30
0.0
 11
3910.0
 21
3010.0
 31
0.0
  0
LINE
  5
CA3
330
1F
100
AcDbEntity
  8
SUNPO
 62
   144
100
AcDbLine
 10
3900.0
 20
3110.0
 30
0.0
 11
3900.0
 21
3060.0
 31
0.0
  0
SOLID
  5
CA4
330
1F
100
AcDbEntity
  8
SUNPO
 62
   144
100
AcDbTrace
 10
3891.666666666667
 20
3110.0
 30
0.0
 11
3908.333333333334
 21
3110.0
 31
0.0
 12
3900.0
 22
3160.0
 32
0.0
 13
3900.0
 23
3160.0
 33
0.0
  0
SOLID
  5
CA5
330
1F
100
AcDbEntity
  8
SUNPO
 62
   144
100
AcDbTrace
 10
3891.666666666666
 20
3060.0
 30
0.0
 11
3908.333333333333
 21
3060.0
 31
0.0
 12
3900.0
 22
3010.0
 32
0.0
 13
3900.0
 23
3010.0
 33
0.0
  0
LINE
  5
CA7
330
1F
100
AcDbEntity
  8
SUNPO
 62
   144
100
AcDbLine
 10
3130.0
 20
3180.0
 30
0.0
 11
3130.0
 21
3360.0
 31
0.0
  0
LINE
  5
CA8
330
1F
100
AcDbEntity
  8
SUNPO
 62
   144
100
AcDbLine
 10
3730.0
 20
3180.0
 30
0.0
 11
3730.0
 21
3360.0
 31
0.0
  0
LINE
  5
CA9
330
1F
100
AcDbEntity
  8
SUNPO
 62
   144
100
AcDbLine
 10
3180.0
 20
3350.0
 30
0.0
 11
3680.0
 21
3350.0
 31
0.0
  0
SOLID
  5
CAA
330
1F
100
AcDbEntity
  8
SUNPO
 62
   144
100
AcDbTrace
 10
3180.0
 20
3358.333333333333
 30
0.0
 11
3180.0
 21
3341.666666666666
 31
0.0
 12
3130.0
 22
3350.0
 32
0.0
 13
3130.0
 23
3350.0
 33
0.0
  0
SOLID
  5
CAB
330
1F
100
AcDbEntity
  8
SUNPO
 62
   144
100
AcDbTrace
 10
3680.0
 20
3358.333333333333
 30
0.0
 11
3680.0
 21
3341.666666666666
 31
0.0
 12
3730.0
 22
3350.0
 32
0.0
 13
3730.0
 23
3350.0
 33
0.0
  0
TEXT
  5
CAD
330
1F
100
AcDbEntity
  8
3C1
100
AcDbText
 10
586.8481308228401
 20
358.1279991016817
 30
0.0
 40
100.0
  1
鉄筋ｺﾝｸﾘｰﾄＵ形600用2種蓋
  7
ADD
100
AcDbText
1001
ACAD
1000
MTEXTBEGIN
1070
    73
1070
     1
1070
    44
1040
1.0
1070
    74
1070
     0
1000
MTEXTEND
1000
MTEXTBEGIN
1070
    73
1070
     1
1070
    44
1040
1.0
1070
    74
1070
     0
1000
MTEXTEND
1000
MTEXTBEGIN
1070
    73
1070
     1
1070
    44
1040
1.0
1070
    74
1070
     0
1000
MTEXTEND
  0
TEXT
  5
CAE
330
1F
100
AcDbEntity
  8
3C1
100
AcDbText
 10
3246.680311730542
 20
359.2274732162223
 30
0.0
 40
70.0
  1
１／２０
  7
ADD
100
AcDbText
1001
ACAD
1000
MTEXTBEGIN
1070
    73
1070
     1
1070
    44
1040
1.0
1070
    74
1070
     0
1000
MTEXTEND
1000
MTEXTBEGIN
1070
    73
1070
     1
1070
    44
1040
1.0
1070
    74
1070
     0
1000
MTEXTEND
1000
MTEXTBEGIN
1070
    73
1070
     1
1070
    44
1040
1.0
1070
    74
1070
     0
1000
MTEXTEND
1000
MTEXTBEGIN
1070
    73
1070
     1
1070
    44
1040
1.0
1070
    74
1070
     0
1000
MTEXTEND
1000
MTEXTBEGIN
1070
    73
1070
     1
1070
    44
1040
1.0
1070
    74
1070
     0
1000
MTEXTEND
1000
MTEXTBEGIN
1070
    73
1070
     1
1070
    44
1040
1.0
1070
    74
1070
     0
1000
MTEXTEND
1000
MTEXTBEGIN
1070
    73
1070
     1
1070
    44
1040
1.0
1070
    74
1070
     0
1000
MTEXTEND
1000
MTEXTBEGIN
1070
    73
1070
     1
1070
    44
1040
1.0
1070
    74
1070
     0
1000
MTEXTEND
  0
TEXT
  5
CAF
330
1F
100
AcDbEntity
  8
3C1
100
AcDbText
 10
381.8862574011546
 20
488.6918916770627
 30
0.0
 40
50.0
  1
製品名
  7
ADD
100
AcDbText
1001
ACAD
1000
MTEXTBEGIN
1070
    73
1070
     1
1070
    44
1040
1.0
1070
    74
1070
     0
1000
MTEXTEND
1000
MTEXTBEGIN
1070
    73
1070
     1
1070
    44
1040
1.0
1070
    74
1070
     0
1000
MTEXTEND
1000
MTEXTBEGIN
1070
    73
1070
     1
1070
    44
1040
1.0
1070
    74
1070
     0
1000
MTEXTEND
1000
MTEXTBEGIN
1070
    73
1070
     1
1070
    44
1040
1.0
1070
    74
1070
     0
1000
MTEXTEND
1000
MTEXTBEGIN
1070
    73
1070
     1
1070
    44
1040
1.0
1070
    74
1070
     0
1000
MTEXTEND
1000
MTEXTBEGIN
1070
    73
1070
     1
1070
    44
1040
1.0
1070
    74
1070
     0
1000
MTEXTEND
1000
MTEXTBEGIN
1070
    73
1070
     1
1070
    44
1040
1.0
1070
    74
1070
     0
1000
MTEXTEND
1000
MTEXTBEGIN
1070
    73
1070
     1
1070
    44
1040
1.0
1070
    74
1070
     0
1000
MTEXTEND
  0
TEXT
  5
CB0
330
1F
100
AcDbEntity
  8
3C1
100
AcDbText
 10
2376.290169028722
 20
494.4531736811823
 30
0.0
 40
50.0
  1
型式
  7
ADD
100
AcDbText
1001
ACAD
1000
MTEXTBEGIN
1070
    73
1070
     1
1070
    44
1040
1.0
1070
    74
1070
     0
1000
MTEXTEND
1000
MTEXTBEGIN
1070
    73
1070
     1
1070
    44
1040
1.0
1070
    74
1070
     0
1000
MTEXTEND
1000
MTEXTBEGIN
1070
    73
1070
     1
1070
    44
1040
1.0
1070
    74
1070
     0
1000
MTEXTEND
1000
MTEXTBEGIN
1070
    73
1070
     1
1070
    44
1040
1.0
1070
    74
1070
     0
1000
MTEXTEND
1000
MTEXTBEGIN
1070
    73
1070
     1
1070
    44
1040
1.0
1070
    74
1070
     0
1000
MTEXTEND
1000
MTEXTBEGIN
1070
    73
1070
     1
1070
    44
1040
1.0
1070
    74
1070
     0
1000
MTEXTEND
1000
MTEXTBEGIN
1070
    73
1070
     1
1070
    44
1040
1.0
1070
    74
1070
     0
1000
MTEXTEND
1000
MTEXTBEGIN
1070
    73
1070
     1
1070
    44
1040
1.0
1070
    74
1070
     0
1000
MTEXTEND
  0
TEXT
  5
CB1
330
1F
100
AcDbEntity
  8
3C1
100
AcDbText
 10
3177.510249231658
 20
488.6918916770627
 30
0.0
 40
50.0
  1
縮尺
  7
ADD
100
AcDbText
1001
ACAD
1000
MTEXTBEGIN
1070
    73
1070
     1
1070
    44
1040
1.0
1070
    74
1070
     0
1000
MTEXTEND
1000
MTEXTBEGIN
1070
    73
1070
     1
1070
    44
1040
1.0
1070
    74
1070
     0
1000
MTEXTEND
1000
MTEXTBEGIN
1070
    73
1070
     1
1070
    44
1040
1.0
1070
    74
1070
     0
1000
MTEXTEND
1000
MTEXTBEGIN
1070
    73
1070
     1
1070
    44
1040
1.0
1070
    74
1070
     0
1000
MTEXTEND
1000
MTEXTBEGIN
1070
    73
1070
     1
1070
    44
1040
1.0
1070
    74
1070
     0
1000
MTEXTEND
1000
MTEXTBEGIN
1070
    73
1070
     1
1070
    44
1040
1.0
1070
    74
1070
     0
1000
MTEXTEND
1000
MTEXTBEGIN
1070
    73
1070
     1
1070
    44
1040
1.0
1070
    74
1070
     0
1000
MTEXTEND
1000
MTEXTBEGIN
1070
    73
1070
     1
1070
    44
1040
1.0
1070
    74
1070
     0
1000
MTEXTEND
  0
TEXT
  5
CB2
330
1F
100
AcDbEntity
  8
3C1
100
AcDbText
 10
3730.870883051572
 20
352.2726133092145
 30
0.0
 40
100.0
  1
千葉県コンクリート製品協同組合
  7
ADD
100
AcDbText
1001
ACAD
1000
MTEXTBEGIN
1070
    73
1070
     1
1070
    44
1040
1.0
1070
    74
1070
     0
1000
MTEXTEND
1000
MTEXTBEGIN
1070
    73
1070
     1
1070
    44
1040
1.0
1070
    74
1070
     0
1000
MTEXTEND
1000
MTEXTBEGIN
1070
    73
1070
     1
1070
    44
1040
1.0
1070
    74
1070
     0
1000
MTEXTEND
1000
MTEXTBEGIN
1070
    73
1070
     1
1070
    44
1040
1.0
1070
    74
1070
     0
1000
MTEXTEND
1000
MTEXTBEGIN
1070
    73
1070
     1
1070
    44
1040
1.0
1070
    74
1070
     0
1000
MTEXTEND
1000
MTEXTBEGIN
1070
    73
1070
     1
1070
    44
1040
1.0
1070
    74
1070
     0
1000
MTEXTEND
1000
MTEXTBEGIN
1070
    73
1070
     1
1070
    44
1040
1.0
1070
    74
1070
     0
1000
MTEXTEND
1000
MTEXTBEGIN
1070
    73
1070
     1
1070
    44
1040
1.0
1070
    74
1070
     0
1000
MTEXTEND
  0
LINE
  5
CB3
330
1F
100
AcDbEntity
  8
HOJO
100
AcDbLine
 10
360.0
 20
260.0
 30
0.0
 11
5580.0
 21
260.0
 31
0.0
  0
LINE
  5
CB4
330
1F
100
AcDbEntity
  8
HOJO
100
AcDbLine
 10
5580.0
 20
260.0
 30
0.0
 11
5580.0
 21
3940.0
 31
0.0
  0
LINE
  5
CB5
330
1F
100
AcDbEntity
  8
HOJO
100
AcDbLine
 10
5580.0
 20
3940.0
 30
0.0
 11
360.0
 21
3940.0
 31
0.0
  0
LINE
  5
CB6
330
1F
100
AcDbEntity
  8
HOJO
100
AcDbLine
 10
360.0
 20
3940.0
 30
0.0
 11
360.0
 21
260.0
 31
0.0
  0
LINE
  5
CB7
330
1F
100
AcDbEntity
  8
HOJO
100
AcDbLine
 10
0.0
 20
0.0
 30
0.0
 11
5940.0
 21
0.0
 31
0.0
  0
LINE
  5
CB8
330
1F
100
AcDbEntity
  8
HOJO
100
AcDbLine
 10
5940.0
 20
0.0
 30
0.0
 11
5940.0
 21
4200.0
 31
0.0
  0
LINE
  5
CB9
330
1F
100
AcDbEntity
  8
HOJO
100
AcDbLine
 10
5940.0
 20
4200.0
 30
0.0
 11
0.0
 21
4200.0
 31
0.0
  0
LINE
  5
CBA
330
1F
100
AcDbEntity
  8
HOJO
100
AcDbLine
 10
0.0
 20
4200.0
 30
0.0
 11
0.0
 21
0.0
 31
0.0
  0
TEXT
  5
CBB
330
1F
100
AcDbEntity
  8
3C1
 62
     7
100
AcDbText
 10
3357.380952380952
 20
3362.5
 30
0.0
 40
50.0
  1
600
  7
ADD
100
AcDbText
1001
ACAD
1000
MTEXTBEGIN
1070
    73
1070
     1
1070
    44
1040
1.0
1070
    74
1070
     0
1000
MTEXTEND
1000
MTEXTBEGIN
1070
    73
1070
     1
1070
    44
1040
1.0
1070
    74
1070
     0
1000
MTEXTEND
1000
MTEXTBEGIN
1070
    73
1070
     1
1070
    44
1040
1.0
1070
    74
1070
     0
1000
MTEXTEND
  0
TEXT
  5
CBC
330
1F
100
AcDbEntity
  8
3C1
 62
     7
100
AcDbText
 10
3887.499999999999
 20
3010.0
 30
0.0
 40
50.0
  1
150
 50
90.0
  7
ADD
100
AcDbText
1001
ACAD
1000
MTEXTBEGIN
1070
    73
1070
     1
1070
    44
1040
1.0
1070
    74
1070
     0
1000
MTEXTEND
1000
MTEXTBEGIN
1070
    73
1070
     1
1070
    44
1040
1.0
1070
    74
1070
     0
1000
MTEXTEND
1000
MTEXTBEGIN
1070
    73
1070
     1
1070
    44
1040
1.0
1070
    74
1070
     0
1000
MTEXTEND
  0
TEXT
  5
CBD
330
1F
100
AcDbEntity
  8
3C1
 62
     7
100
AcDbText
 10
2467.499999999999
 20
1987.380952380953
 30
0.0
 40
50.0
  1
600
 50
90.0
  7
ADD
100
AcDbText
1001
ACAD
1000
MTEXTBEGIN
1070
    73
1070
     1
1070
    44
1040
1.0
1070
    74
1070
     0
1000
MTEXTEND
1000
MTEXTBEGIN
1070
    73
1070
     1
1070
    44
1040
1.0
1070
    74
1070
     0
1000
MTEXTEND
1000
MTEXTBEGIN
1070
    73
1070
     1
1070
    44
1040
1.0
1070
    74
1070
     0
1000
MTEXTEND
  0
TEXT
  5
CBE
330
1F
100
AcDbEntity
  8
3C1
 62
     7
100
AcDbText
 10
1848.571428571428
 20
3362.5
 30
0.0
 40
50.0
  1
740
  7
ADD
100
AcDbText
1001
ACAD
1000
MTEXTBEGIN
1070
    73
1070
     1
1070
    44
1040
1.0
1070
    74
1070
     0
1000
MTEXTEND
1000
MTEXTBEGIN
1070
    73
1070
     1
1070
    44
1040
1.0
1070
    74
1070
     0
1000
MTEXTEND
1000
MTEXTBEGIN
1070
    73
1070
     1
1070
    44
1040
1.0
1070
    74
1070
     0
1000
MTEXTEND
  0
TEXT
  5
CBF
330
1F
100
AcDbEntity
  8
3C1
 62
     7
100
AcDbText
 10
1845.0
 20
3252.499999999999
 30
0.0
 40
50.0
  1
150
  7
ADD
100
AcDbText
1001
ACAD
1000
MTEXTBEGIN
1070
    73
1070
     1
1070
    44
1040
1.0
1070
    74
1070
     0
1000
MTEXTEND
1000
MTEXTBEGIN
1070
    73
1070
     1
1070
    44
1040
1.0
1070
    74
1070
     0
1000
MTEXTEND
1000
MTEXTBEGIN
1070
    73
1070
     1
1070
    44
1040
1.0
1070
    74
1070
     0
1000
MTEXTEND
  0
TEXT
  5
CC0
330
1F
100
AcDbEntity
  8
3C1
 62
     7
100
AcDbText
 10
2437.5
 20
3010.0
 30
0.0
 40
50.0
  1
150
 50
90.0
  7
ADD
100
AcDbText
1001
ACAD
1000
MTEXTBEGIN
1070
    73
1070
     1
1070
    44
1040
1.0
1070
    74
1070
     0
1000
MTEXTEND
1000
MTEXTBEGIN
1070
    73
1070
     1
1070
    44
1040
1.0
1070
    74
1070
     0
1000
MTEXTEND
1000
MTEXTBEGIN
1070
    73
1070
     1
1070
    44
1040
1.0
1070
    74
1070
     0
1000
MTEXTEND
  0
TEXT
  5
CC1
330
1F
100
AcDbEntity
  8
3C1
 62
     7
100
AcDbText
 10
2204.880952380952
 20
2827.5
 30
0.0
 40
50.0
  1
75
  7
ADD
100
AcDbText
1001
ACAD
1000
MTEXTBEGIN
1070
    73
1070
     1
1070
    44
1040
1.0
1070
    74
1070
     0
1000
MTEXTEND
1000
MTEXTBEGIN
1070
    73
1070
     1
1070
    44
1040
1.0
1070
    74
1070
     0
1000
MTEXTEND
  0
TEXT
  5
CC2
330
1F
100
AcDbEntity
  8
3C1
 62
     7
100
AcDbText
 10
1539.880952380952
 20
2827.5
 30
0.0
 40
50.0
  1
75
  7
ADD
100
AcDbText
1001
ACAD
1000
MTEXTBEGIN
1070
    73
1070
     1
1070
    44
1040
1.0
1070
    74
1070
     0
1000
MTEXTEND
1000
MTEXTBEGIN
1070
    73
1070
     1
1070
    44
1040
1.0
1070
    74
1070
     0
1000
MTEXTEND
  0
TEXT
  5
CC3
330
1F
100
AcDbEntity
  8
3C1
 62
     7
100
AcDbText
 10
1427.499999999999
 20
3020.0
 30
0.0
 40
50.0
  1
130
 50
90.0
  7
ADD
100
AcDbText
1001
ACAD
1000
MTEXTBEGIN
1070
    73
1070
     1
1070
    44
1040
1.0
1070
    74
1070
     0
1000
MTEXTEND
1000
MTEXTBEGIN
1070
    73
1070
     1
1070
    44
1040
1.0
1070
    74
1070
     0
1000
MTEXTEND
1000
MTEXTBEGIN
1070
    73
1070
     1
1070
    44
1040
1.0
1070
    74
1070
     0
1000
MTEXTEND
  0
TEXT
  5
CC4
330
1F
100
AcDbEntity
  8
3C1
 62
     7
100
AcDbText
 10
1287.499999999999
 20
2972.380952380953
 30
0.0
 40
50.0
  1
20
 50
90.0
  7
ADD
100
AcDbText
1001
ACAD
1000
MTEXTBEGIN
1070
    73
1070
     1
1070
    44
1040
1.0
1070
    74
1070
     0
1000
MTEXTEND
1000
MTEXTBEGIN
1070
    73
1070
     1
1070
    44
1040
1.0
1070
    74
1070
     0
1000
MTEXTEND
1000
MTEXTBEGIN
1070
    73
1070
     1
1070
    44
1040
1.0
1070
    74
1070
     0
1000
MTEXTEND
  0
TEXT
  5
CC5
330
1F
100
AcDbEntity
  8
3C1
 62
     7
100
AcDbText
 10
1844.999999999999
 20
2471.333643623107
 30
0.0
 40
50.0
  1
150
  7
ADD
100
AcDbText
1001
ACAD
1000
MTEXTBEGIN
1070
    73
1070
     1
1070
    44
1040
1.0
1070
    74
1070
     0
1000
MTEXTEND
1000
MTEXTBEGIN
1070
    73
1070
     1
1070
    44
1040
1.0
1070
    74
1070
     0
1000
MTEXTEND
1000
MTEXTBEGIN
1070
    73
1070
     1
1070
    44
1040
1.0
1070
    74
1070
     0
1000
MTEXTEND
  0
TEXT
  5
CC6
330
1F
100
AcDbEntity
  8
3C1
 62
     7
100
AcDbText
 10
1844.999999999999
 20
1661.559119762944
 30
0.0
 40
50.0
  1
150
  7
ADD
100
AcDbText
1001
ACAD
1000
MTEXTBEGIN
1070
    73
1070
     1
1070
    44
1040
1.0
1070
    74
1070
     0
1000
MTEXTEND
1000
MTEXTBEGIN
1070
    73
1070
     1
1070
    44
1040
1.0
1070
    74
1070
     0
1000
MTEXTEND
1000
MTEXTBEGIN
1070
    73
1070
     1
1070
    44
1040
1.0
1070
    74
1070
     0
1000
MTEXTEND
  0
VIEWPORT
  5
72
330
1B
100
AcDbEntity
 67
     1
  8
0
100
AcDbViewport
 10
429.8380103383459
 20
277.0
 30
0.0
 40
948.9782706766918
 41
628.4520000000001
 68
     1
 69
     1
1001
ACAD
1000
MVIEW
1002
{
1070
    16
1010
0.0
1020
0.0
1030
0.0
1010
0.0
1020
0.0
1030
1.0
1040
0.0
1040
628.4520000000001
1040
429.8380103383459
1040
277.0
1040
50.0
1040
0.0
1040
0.0
1070
     0
1070
   100
1070
     1
1070
     1
1070
     0
1070
     0
1070
     0
1070
     0
1040
0.0
1040
0.0
1040
0.0
1040
10.0
1040
10.0
1040
10.0
1040
10.0
1070
     0
1002
{
1002
}
1002
}
  0
VIEWPORT
  5
74
330
1B
100
AcDbEntity
 67
     1
  8
VIEWPORT
100
AcDbViewport
 10
414.3779638919211
 20
277.3177265058034
 30
0.0
 40
840.0353682728887
 41
567.2285469943826
 68
     2
 69
     2
1001
ACAD
1000
MVIEW
1002
{
1070
    16
1010
0.0
1020
0.0
1030
0.0
1010
0.0
1020
0.0
1030
1.0
1040
0.0
1040
579.5583043546323
1040
424.4938908624541
1040
286.1973242720074
1040
50.0
1040
0.0
1040
0.0
1070
     0
1070
   100
1070
     1
1070
     1
1070
     0
1070
     0
1070
     0
1070
     0
1040
0.0
1040
0.0
1040
0.0
1040
10.0
1040
10.0
1040
10.0
1040
10.0
1070
     0
1002
{
1002
}
1002
}
  0
ENDSEC
  0
SECTION
  2
OBJECTS
  0
DICTIONARY
  5
C
330
0
100
AcDbDictionary
  3
ACAD_GROUP
350
D
  3
ACAD_LAYOUT
350
1A
  3
ACAD_MLINESTYLE
350
17
  3
ACAD_PLOTSETTINGS
350
19
  3
DWGPROPS
350
4C7
1001
ACAD
1000
TREAT_AS_HARD
1070
     0
  0
DICTIONARY
  5
65D
330
1F
100
AcDbDictionary
  3
ACAD_LAYOUTSELFREF
350
CC9
1001
ACAD
1000
TREAT_AS_HARD
1070
     1
  0
DICTIONARY
  5
65F
330
1B
100
AcDbDictionary
  3
ACAD_LAYOUTSELFREF
350
CC8
1001
ACAD
1000
TREAT_AS_HARD
1070
     1
  0
DICTIONARY
  5
D
102
{ACAD_REACTORS
330
C
102
}
330
C
100
AcDbDictionary
1001
ACAD
1000
TREAT_AS_HARD
1070
     0
  0
DICTIONARY
  5
1A
102
{ACAD_REACTORS
330
C
102
}
330
C
100
AcDbDictionary
1001
ACAD
1000
TREAT_AS_HARD
1070
     0
  0
DICTIONARY
  5
17
102
{ACAD_REACTORS
330
C
102
}
330
C
100
AcDbDictionary
  3
STANDARD
350
18
1001
ACAD
1000
TREAT_AS_HARD
1070
     0
  0
DICTIONARY
  5
19
102
{ACAD_REACTORS
330
C
102
}
330
C
100
AcDbDictionary
1001
ACAD
1000
TREAT_AS_HARD
1070
     0
  0
XRECORD
  5
4C7
102
{ACAD_REACTORS
330
C
102
}
330
C
100
AcDbXrecord
  1
DWGPROPS COOKIE
  2
印刷用テスト
  3
AutoCAD2000による建築設計
  4
鈴木 裕二
  6

  7

  8
U2
  9

300
=
301
=
302
=
303
=
304
=
305
=
306
=
307
=
308
=
309
=
 40
0.7653446875
 41
2451285.4846114
 42
2451333.689743032
  1

 90
        0
  0
XRECORD
  5
CC9
102
{ACAD_REACTORS
330
65D
102
}
330
65D
100
AcDbXrecord
340
1F
  0
XRECORD
  5
CC8
102
{ACAD_REACTORS
330
65F
102
}
330
65F
100
AcDbXrecord
340
1B
  0
MLINESTYLE
  5
18
102
{ACAD_REACTORS
330
17
102
}
330
17
100
AcDbMlineStyle
  2
STANDARD
 70
     0
  3

 62
   256
 51
90.0
 52
90.0
 71
     2
 49
0.5
 62
   256
  6
BYLAYER
 49
-0.5
 62
   256
  6
BYLAYER
  0
ENDSEC
  0
EOF
