  0
SECTION
  2
HEADER
  9
$ACADVER
  1
AC1012
  9
$DWGCODEPAGE
  3
dos932
  9
$INSBASE
 10
0.0
 20
0.0
 30
0.0
  9
$EXTMIN
 10
0.0
 20
0.0
 30
0.0
  9
$EXTMAX
 10
5940.0
 20
4200.0
 30
0.0
  9
$LIMMIN
 10
0.0
 20
0.0
  9
$LIMMAX
 10
5940.0
 20
4200.0
  9
$ORTHOMODE
 70
     0
  9
$REGENMODE
 70
     1
  9
$FILLMODE
 70
     1
  9
$QTEXTMODE
 70
     0
  9
$MIRRTEXT
 70
     0
  9
$DRAGMODE
 70
     2
  9
$LTSCALE
 40
10.0
  9
$OSMODE
 70
    39
  9
$ATTMODE
 70
     1
  9
$TEXTSIZE
 40
50.0
  9
$TRACEWID
 40
1.0
  9
$TEXTSTYLE
  7
ADD
  9
$CLAYER
  8
SUNPO
  9
$CELTYPE
  6
BYLAYER
  9
$CECOLOR
 62
   256
  9
$CELTSCALE
 40
1.0
  9
$DELOBJ
 70
     1
  9
$DISPSILH
 70
     0
  9
$DIMSCALE
 40
20.0
  9
$DIMASZ
 40
1.399999999999999
  9
$DIMEXO
 40
1.0
  9
$DIMDLI
 40
7.0
  9
$DIMRND
 40
0.0
  9
$DIMDLE
 40
0.0
  9
$DIMEXE
 40
0.5
  9
$DIMTP
 40
0.0
  9
$DIMTM
 40
0.0
  9
$DIMTXT
 40
1.8
  9
$DIMCEN
 40
1.399999999999999
  9
$DIMTSZ
 40
0.0
  9
$DIMTOL
 70
     0
  9
$DIMLIM
 70
     0
  9
$DIMTIH
 70
     0
  9
$DIMTOH
 70
     0
  9
$DIMSE1
 70
     0
  9
$DIMSE2
 70
     0
  9
$DIMTAD
 70
     1
  9
$DIMZIN
 70
     8
  9
$DIMBLK
  1

  9
$DIMASO
 70
     1
  9
$DIMSHO
 70
     1
  9
$DIMPOST
  1

  9
$DIMAPOST
  1

  9
$DIMALT
 70
     0
  9
$DIMALTD
 70
     3
  9
$DIMALTF
 40
0.03937007874016
  9
$DIMLFAC
 40
1.0
  9
$DIMTOFL
 70
     1
  9
$DIMTVP
 40
0.7
  9
$DIMTIX
 70
     1
  9
$DIMSOXD
 70
     0
  9
$DIMSAH
 70
     0
  9
$DIMBLK1
  1

  9
$DIMBLK2
  1

  9
$DIMSTYLE
  2
ADD
  9
$DIMCLRD
 70
   144
  9
$DIMCLRE
 70
   144
  9
$DIMCLRT
 70
     7
  9
$DIMTFAC
 40
1.0
  9
$DIMGAP
 40
0.625
  9
$DIMJUST
 70
     0
  9
$DIMSD1
 70
     0
  9
$DIMSD2
 70
     0
  9
$DIMTOLJ
 70
     2
  9
$DIMTZIN
 70
     8
  9
$DIMALTZ
 70
     0
  9
$DIMALTTZ
 70
     0
  9
$DIMFIT
 70
     5
  9
$DIMUPT
 70
     0
  9
$DIMUNIT
 70
     2
  9
$DIMDEC
 70
     1
  9
$DIMTDEC
 70
     1
  9
$DIMALTU
 70
     2
  9
$DIMALTTD
 70
     3
  9
$DIMTXSTY
  7
ADD
  9
$DIMAUNIT
 70
     0
  9
$LUNITS
 70
     2
  9
$LUPREC
 70
     4
  9
$SKETCHINC
 40
1.0
  9
$FILLETRAD
 40
124.0
  9
$AUNITS
 70
     0
  9
$AUPREC
 70
     1
  9
$MENU
  1
.
  9
$ELEVATION
 40
0.0
  9
$PELEVATION
 40
0.0
  9
$THICKNESS
 40
0.0
  9
$LIMCHECK
 70
     0
  9
$BLIPMODE
 70
     0
  9
$CHAMFERA
 40
25.0
  9
$CHAMFERB
 40
25.0
  9
$CHAMFERC
 40
20.0
  9
$CHAMFERD
 40
0.0
  9
$SKPOLY
 70
     0
  9
$TDCREATE
 40
2451801.142532870
  9
$TDUPDATE
 40
2451857.942035764
  9
$TDINDWG
 40
0.4676924653
  9
$TDUSRTIMER
 40
0.4676924653
  9
$USRTIMER
 70
     1
  9
$ANGBASE
 50
0.0
  9
$ANGDIR
 70
     0
  9
$PDMODE
 70
     0
  9
$PDSIZE
 40
0.0
  9
$PLINEWID
 40
0.0
  9
$COORDS
 70
     2
  9
$SPLFRAME
 70
     0
  9
$SPLINETYPE
 70
     6
  9
$SPLINESEGS
 70
     8
  9
$ATTDIA
 70
     0
  9
$ATTREQ
 70
     1
  9
$HANDLING
 70
 10241
  9
$HANDSEED
  5
24CB
  9
$SURFTAB1
 70
     6
  9
$SURFTAB2
 70
     6
  9
$SURFTYPE
 70
     6
  9
$SURFU
 70
     6
  9
$SURFV
 70
     6
  9
$UCSNAME
  2

  9
$UCSORG
 10
0.0
 20
0.0
 30
0.0
  9
$UCSXDIR
 10
1.0
 20
0.0
 30
0.0
  9
$UCSYDIR
 10
0.0
 20
1.0
 30
0.0
  9
$PUCSNAME
  2

  9
$PUCSORG
 10
0.0
 20
0.0
 30
0.0
  9
$PUCSXDIR
 10
1.0
 20
0.0
 30
0.0
  9
$PUCSYDIR
 10
0.0
 20
1.0
 30
0.0
  9
$USERI1
 70
     0
  9
$USERI2
 70
     0
  9
$USERI3
 70
     0
  9
$USERI4
 70
     0
  9
$USERI5
 70
     0
  9
$USERR1
 40
841.0
  9
$USERR2
 40
594.0
  9
$USERR3
 40
1.0
  9
$USERR4
 40
0.0
  9
$USERR5
 40
0.0
  9
$WORLDVIEW
 70
     1
  9
$SHADEDGE
 70
     3
  9
$SHADEDIF
 70
    70
  9
$TILEMODE
 70
     1
  9
$MAXACTVP
 70
    48
  9
$PINSBASE
 10
0.0
 20
0.0
 30
0.0
  9
$PLIMCHECK
 70
     0
  9
$PEXTMIN
 10
-5.639720244523232
 20
-6.296546991387913
 30
0.0
  9
$PEXTMAX
 10
834.3956480283654
 20
560.9320000029947
 30
0.0
  9
$PLIMMIN
 10
-7.500000000000001
 20
-20.0
  9
$PLIMMAX
 10
833.5000000000002
 20
574.0000000000001
  9
$UNITMODE
 70
     0
  9
$VISRETAIN
 70
     1
  9
$PLINEGEN
 70
     0
  9
$PSLTSCALE
 70
     1
  9
$TREEDEPTH
 70
  3020
  9
$PICKSTYLE
 70
     1
  9
$CMLSTYLE
  2
STANDARD
  9
$CMLJUST
 70
     0
  9
$CMLSCALE
 40
20.0
  9
$SAVEIMAGES
 70
     1
  0
ENDSEC
  0
SECTION
  2
CLASSES
  0
CLASS
  1
ACDBDICTIONARYWDFLT
  2
AcDbDictionaryWithDefault
  3
AutoCAD 2000
 90
    32768
280
     0
281
     0
  0
CLASS
  1
ACDBPLACEHOLDER
  2
AcDbPlaceHolder
  3
AutoCAD 2000
 90
    32768
280
     0
281
     0
  0
CLASS
  1
LAYOUT
  2
AcDbLayout
  3
AutoCAD 2000
 90
    32768
280
     0
281
     0
  0
CLASS
  1
RTEXT
  2
RText
  3
RText|AutoCAD Express Tool|expresstools@autodesk.com
 90
    32768
280
     0
281
     1
  0
CLASS
  1
DICTIONARYVAR
  2
AcDbDictionaryVar
  3
AutoCAD 2000
 90
    32768
280
     0
281
     0
  0
CLASS
  1
LONG_TRANSACTION
  2
AcDbLongTransaction
  3
AutoCAD 2000
 90
    32768
280
     0
281
     0
  0
CLASS
  1
LWPOLYLINE
  2
AcDbPolyline
  3
AutoCAD 2000
 90
    32768
280
     0
281
     1
  0
CLASS
  1
HATCH
  2
AcDbHatch
  3
AutoCAD 2000
 90
    32768
280
     0
281
     1
  0
CLASS
  1
XRECORD
  2
AcDbXrecord
  3
AutoCAD 2000
 90
    32768
280
     0
281
     0
  0
CLASS
  1
LONG_TRANSACTION
  2
AcDbLongTransaction
  3
AutoCAD 2000
 90
    32768
280
     0
281
     0
  0
CLASS
  1
LWPOLYLINE
  2
AcDbPolyline
  3
AutoCAD 2000
 90
    32768
280
     0
281
     1
  0
CLASS
  1
HATCH
  2
AcDbHatch
  3
AutoCAD 2000
 90
    32768
280
     0
281
     1
  0
CLASS
  1
XRECORD
  2
AcDbXrecord
  3
AutoCAD 2000
 90
    32768
280
     0
281
     0
  0
CLASS
  1
LONG_TRANSACTION
  2
AcDbLongTransaction
  3
AutoCAD 2000
 90
    32768
280
     0
281
     0
  0
CLASS
  1
LWPOLYLINE
  2
AcDbPolyline
  3
AutoCAD 2000
 90
    32768
280
     0
281
     1
  0
CLASS
  1
HATCH
  2
AcDbHatch
  3
AutoCAD 2000
 90
    32768
280
     0
281
     1
  0
CLASS
  1
XRECORD
  2
AcDbXrecord
  3
AutoCAD 2000
 90
    32768
280
     0
281
     0
  0
CLASS
  1
LONG_TRANSACTION
  2
AcDbLongTransaction
  3
AutoCAD 2000
 90
    32768
280
     0
281
     0
  0
CLASS
  1
LWPOLYLINE
  2
AcDbPolyline
  3
AutoCAD 2000
 90
    32768
280
     0
281
     1
  0
CLASS
  1
HATCH
  2
AcDbHatch
  3
AutoCAD 2000
 90
    32768
280
     0
281
     1
  0
CLASS
  1
XRECORD
  2
AcDbXrecord
  3
AutoCAD 2000
 90
    32768
280
     0
281
     0
  0
CLASS
  1
LONG_TRANSACTION
  2
AcDbLongTransaction
  3
AutoCAD 2000
 90
    32768
280
     0
281
     0
  0
CLASS
  1
LWPOLYLINE
  2
AcDbPolyline
  3
AutoCAD 2000
 90
    32768
280
     0
281
     1
  0
CLASS
  1
HATCH
  2
AcDbHatch
  3
AutoCAD 2000
 90
    32768
280
     0
281
     1
  0
CLASS
  1
XRECORD
  2
AcDbXrecord
  3
AutoCAD 2000
 90
    32768
280
     0
281
     0
  0
CLASS
  1
LONG_TRANSACTION
  2
AcDbLongTransaction
  3
AutoCAD 2000
 90
    32768
280
     0
281
     0
  0
CLASS
  1
LWPOLYLINE
  2
AcDbPolyline
  3
AutoCAD 2000
 90
    32768
280
     0
281
     1
  0
CLASS
  1
HATCH
  2
AcDbHatch
  3
AutoCAD 2000
 90
    32768
280
     0
281
     1
  0
CLASS
  1
XRECORD
  2
AcDbXrecord
  3
AutoCAD 2000
 90
    32768
280
     0
281
     0
  0
CLASS
  1
LONG_TRANSACTION
  2
AcDbLongTransaction
  3
AutoCAD 2000
 90
    32768
280
     0
281
     0
  0
CLASS
  1
LWPOLYLINE
  2
AcDbPolyline
  3
AutoCAD 2000
 90
    32768
280
     0
281
     1
  0
CLASS
  1
HATCH
  2
AcDbHatch
  3
AutoCAD 2000
 90
    32768
280
     0
281
     1
  0
CLASS
  1
XRECORD
  2
AcDbXrecord
  3
AutoCAD 2000
 90
    32768
280
     0
281
     0
  0
CLASS
  1
LONG_TRANSACTION
  2
AcDbLongTransaction
  3
AutoCAD 2000
 90
    32768
280
     0
281
     0
  0
CLASS
  1
LWPOLYLINE
  2
AcDbPolyline
  3
AutoCAD 2000
 90
    32768
280
     0
281
     1
  0
CLASS
  1
HATCH
  2
AcDbHatch
  3
AutoCAD 2000
 90
    32768
280
     0
281
     1
  0
CLASS
  1
XRECORD
  2
AcDbXrecord
  3
AutoCAD 2000
 90
    32768
280
     0
281
     0
  0
CLASS
  1
LONG_TRANSACTION
  2
AcDbLongTransaction
  3
AutoCAD 2000
 90
    32768
280
     0
281
     0
  0
CLASS
  1
LWPOLYLINE
  2
AcDbPolyline
  3
AutoCAD 2000
 90
    32768
280
     0
281
     1
  0
CLASS
  1
HATCH
  2
AcDbHatch
  3
AutoCAD 2000
 90
    32768
280
     0
281
     1
  0
CLASS
  1
XRECORD
  2
AcDbXrecord
  3
AutoCAD 2000
 90
    32768
280
     0
281
     0
  0
CLASS
  1
LONG_TRANSACTION
  2
AcDbLongTransaction
  3
AutoCAD 2000
 90
    32768
280
     0
281
     0
  0
CLASS
  1
LWPOLYLINE
  2
AcDbPolyline
  3
AutoCAD 2000
 90
    32768
280
     0
281
     1
  0
CLASS
  1
HATCH
  2
AcDbHatch
  3
AutoCAD 2000
 90
    32768
280
     0
281
     1
  0
CLASS
  1
XRECORD
  2
AcDbXrecord
  3
AutoCAD 2000
 90
    32768
280
     0
281
     0
  0
CLASS
  1
LONG_TRANSACTION
  2
AcDbLongTransaction
  3
AutoCAD 2000
 90
    32768
280
     0
281
     0
  0
CLASS
  1
LWPOLYLINE
  2
AcDbPolyline
  3
AutoCAD 2000
 90
    32768
280
     0
281
     1
  0
CLASS
  1
HATCH
  2
AcDbHatch
  3
AutoCAD 2000
 90
    32768
280
     0
281
     1
  0
CLASS
  1
XRECORD
  2
AcDbXrecord
  3
AutoCAD 2000
 90
    32768
280
     0
281
     0
  0
CLASS
  1
LONG_TRANSACTION
  2
AcDbLongTransaction
  3
AutoCAD 2000
 90
    32768
280
     0
281
     0
  0
CLASS
  1
LWPOLYLINE
  2
AcDbPolyline
  3
AutoCAD 2000
 90
    32768
280
     0
281
     1
  0
CLASS
  1
HATCH
  2
AcDbHatch
  3
AutoCAD 2000
 90
    32768
280
     0
281
     1
  0
CLASS
  1
XRECORD
  2
AcDbXrecord
  3
AutoCAD 2000
 90
    32768
280
     0
281
     0
  0
CLASS
  1
LONG_TRANSACTION
  2
AcDbLongTransaction
  3
AutoCAD 2000
 90
    32768
280
     0
281
     0
  0
CLASS
  1
LWPOLYLINE
  2
AcDbPolyline
  3
AutoCAD 2000
 90
    32768
280
     0
281
     1
  0
CLASS
  1
HATCH
  2
AcDbHatch
  3
AutoCAD 2000
 90
    32768
280
     0
281
     1
  0
CLASS
  1
XRECORD
  2
AcDbXrecord
  3
AutoCAD 2000
 90
    32768
280
     0
281
     0
  0
CLASS
  1
LONG_TRANSACTION
  2
AcDbLongTransaction
  3
AutoCAD 2000
 90
    32768
280
     0
281
     0
  0
CLASS
  1
LWPOLYLINE
  2
AcDbPolyline
  3
AutoCAD 2000
 90
    32768
280
     0
281
     1
  0
CLASS
  1
HATCH
  2
AcDbHatch
  3
AutoCAD 2000
 90
    32768
280
     0
281
     1
  0
CLASS
  1
XRECORD
  2
AcDbXrecord
  3
AutoCAD 2000
 90
    32768
280
     0
281
     0
  0
CLASS
  1
LONG_TRANSACTION
  2
AcDbLongTransaction
  3
AutoCAD 2000
 90
    32768
280
     0
281
     0
  0
CLASS
  1
LWPOLYLINE
  2
AcDbPolyline
  3
AutoCAD 2000
 90
    32768
280
     0
281
     1
  0
CLASS
  1
HATCH
  2
AcDbHatch
  3
AutoCAD 2000
 90
    32768
280
     0
281
     1
  0
CLASS
  1
XRECORD
  2
AcDbXrecord
  3
AutoCAD 2000
 90
    32768
280
     0
281
     0
  0
CLASS
  1
LONG_TRANSACTION
  2
AcDbLongTransaction
  3
AutoCAD 2000
 90
    32768
280
     0
281
     0
  0
CLASS
  1
LWPOLYLINE
  2
AcDbPolyline
  3
AutoCAD 2000
 90
    32768
280
     0
281
     1
  0
CLASS
  1
HATCH
  2
AcDbHatch
  3
AutoCAD 2000
 90
    32768
280
     0
281
     1
  0
CLASS
  1
XRECORD
  2
AcDbXrecord
  3
AutoCAD 2000
 90
    32768
280
     0
281
     0
  0
CLASS
  1
LONG_TRANSACTION
  2
AcDbLongTransaction
  3
AutoCAD 2000
 90
    32768
280
     0
281
     0
  0
CLASS
  1
LWPOLYLINE
  2
AcDbPolyline
  3
AutoCAD 2000
 90
    32768
280
     0
281
     1
  0
CLASS
  1
HATCH
  2
AcDbHatch
  3
AutoCAD 2000
 90
    32768
280
     0
281
     1
  0
CLASS
  1
XRECORD
  2
AcDbXrecord
  3
AutoCAD 2000
 90
    32768
280
     0
281
     0
  0
ENDSEC
  0
SECTION
  2
TABLES
  0
TABLE
  2
VPORT
  5
8
330
0
100
AcDbSymbolTable
 70
     2
  0
VPORT
  5
24BB
330
8
100
AcDbSymbolTableRecord
100
AcDbViewportTableRecord
  2
*ACTIVE
 70
     0
 10
0.0
 20
0.0
 11
1.0
 21
1.0
 12
2970.000013830139
 22
2315.861655865738
 13
0.0
 23
0.0
 14
50.0
 24
50.0
 15
10.0
 25
10.0
 16
0.0
 26
0.0
 36
1.0
 17
0.0
 27
0.0
 37
0.0
 40
4719.182193760837
 41
2.198738170347003
 42
50.0
 43
0.0
 44
0.0
 50
0.0
 51
0.0
 71
     0
 72
   200
 73
     1
 74
     1
 75
     0
 76
     0
 77
     0
 78
     0
  0
ENDTAB
  0
TABLE
  2
LTYPE
  5
5
330
0
100
AcDbSymbolTable
 70
     5
  0
LTYPE
  5
14
330
5
100
AcDbSymbolTableRecord
100
AcDbLinetypeTableRecord
  2
BYBLOCK
 70
     0
  3

 72
    65
 73
     0
 40
0.0
  0
LTYPE
  5
15
330
5
100
AcDbSymbolTableRecord
100
AcDbLinetypeTableRecord
  2
BYLAYER
 70
     0
  3

 72
    65
 73
     0
 40
0.0
  0
LTYPE
  5
16
330
5
100
AcDbSymbolTableRecord
100
AcDbLinetypeTableRecord
  2
CONTINUOUS
 70
     0
  3
Solid line
 72
    65
 73
     0
 40
0.0
  0
LTYPE
  5
555
330
5
100
AcDbSymbolTableRecord
100
AcDbLinetypeTableRecord
  2
CENTER
 70
     0
  3
Center ____ _ ____ _ ____ _ ____ _ ____ _ ____
 72
    65
 73
     4
 40
50.8
 49
31.75
 74
     0
 49
-6.349999999999999
 74
     0
 49
6.349999999999999
 74
     0
 49
-6.349999999999999
 74
     0
  0
LTYPE
  5
556
330
5
100
AcDbSymbolTableRecord
100
AcDbLinetypeTableRecord
  2
HIDDEN
 70
     0
  3
Hidden __ __ __ __ __ __ __ __ __ __ __ __ __ _
 72
    65
 73
     2
 40
9.524999999999998
 49
6.349999999999999
 74
     0
 49
-3.174999999999999
 74
     0
  0
LTYPE
  5
557
330
5
100
AcDbSymbolTableRecord
100
AcDbLinetypeTableRecord
  2
HIDDEN2
 70
     0
  3
Hidden (.5x) _ _ _ _ _ _ _ _ _ _ _ _ _ _ _ _ _
 72
    65
 73
     2
 40
4.762499999999999
 49
3.174999999999999
 74
     0
 49
-1.587499999999999
 74
     0
  0
LTYPE
  5
558
330
5
100
AcDbSymbolTableRecord
100
AcDbLinetypeTableRecord
  2
PHANTOM
 70
     0
  3
Phantom ______  __  __  ______  __  __  ______
 72
    65
 73
     6
 40
63.5
 49
31.75
 74
     0
 49
-6.349999999999999
 74
     0
 49
6.349999999999999
 74
     0
 49
-6.349999999999999
 74
     0
 49
6.349999999999999
 74
     0
 49
-6.349999999999999
 74
     0
  0
ENDTAB
  0
TABLE
  2
LAYER
  5
2
330
0
100
AcDbSymbolTable
 70
    22
  0
LAYER
  5
10
330
2
100
AcDbSymbolTableRecord
100
AcDbLayerTableRecord
  2
0
 70
     0
 62
     7
  6
CONTINUOUS
  0
LAYER
  5
75
330
2
100
AcDbSymbolTableRecord
100
AcDbLayerTableRecord
  2
VIEWPORT
 70
     0
 62
     1
  6
CONTINUOUS
  0
LAYER
  5
504
330
2
100
AcDbSymbolTableRecord
100
AcDbLayerTableRecord
  2
DEFPOINTS
 70
     0
 62
     7
  6
CONTINUOUS
  0
LAYER
  5
505
330
2
100
AcDbSymbolTableRecord
100
AcDbLayerTableRecord
  2
1C1
 70
     0
 62
   254
  6
CONTINUOUS
  0
LAYER
  5
506
330
2
100
AcDbSymbolTableRecord
100
AcDbLayerTableRecord
  2
1C2
 70
     0
 62
   254
  6
CONTINUOUS
  0
LAYER
  5
507
330
2
100
AcDbSymbolTableRecord
100
AcDbLayerTableRecord
  2
2C1
 70
     0
 62
   144
  6
CONTINUOUS
  0
LAYER
  5
508
330
2
100
AcDbSymbolTableRecord
100
AcDbLayerTableRecord
  2
2C2
 70
     0
 62
   144
  6
CONTINUOUS
  0
LAYER
  5
509
330
2
100
AcDbSymbolTableRecord
100
AcDbLayerTableRecord
  2
2H1
 70
     0
 62
   144
  6
HIDDEN
  0
LAYER
  5
50A
330
2
100
AcDbSymbolTableRecord
100
AcDbLayerTableRecord
  2
2H2
 70
     0
 62
   144
  6
HIDDEN2
  0
LAYER
  5
50B
330
2
100
AcDbSymbolTableRecord
100
AcDbLayerTableRecord
  2
2P1
 70
     0
 62
   144
  6
PHANTOM
  0
LAYER
  5
50C
330
2
100
AcDbSymbolTableRecord
100
AcDbLayerTableRecord
  2
3C1
 70
     0
 62
     7
  6
CONTINUOUS
  0
LAYER
  5
50D
330
2
100
AcDbSymbolTableRecord
100
AcDbLayerTableRecord
  2
3C2
 70
     0
 62
     7
  6
CONTINUOUS
  0
LAYER
  5
50E
330
2
100
AcDbSymbolTableRecord
100
AcDbLayerTableRecord
  2
3C3
 70
     0
 62
     7
  6
CONTINUOUS
  0
LAYER
  5
50F
330
2
100
AcDbSymbolTableRecord
100
AcDbLayerTableRecord
  2
4H1
 70
     0
 62
     6
  6
HIDDEN
  0
LAYER
  5
510
330
2
100
AcDbSymbolTableRecord
100
AcDbLayerTableRecord
  2
4H2
 70
     0
 62
     6
  6
HIDDEN2
  0
LAYER
  5
511
330
2
100
AcDbSymbolTableRecord
100
AcDbLayerTableRecord
  2
5C1
 70
     0
 62
    55
  6
CONTINUOUS
  0
LAYER
  5
512
330
2
100
AcDbSymbolTableRecord
100
AcDbLayerTableRecord
  2
5C2
 70
     0
 62
    55
  6
CONTINUOUS
  0
LAYER
  5
513
330
2
100
AcDbSymbolTableRecord
100
AcDbLayerTableRecord
  2
8C1
 70
     0
 62
    92
  6
CONTINUOUS
  0
LAYER
  5
514
330
2
100
AcDbSymbolTableRecord
100
AcDbLayerTableRecord
  2
HOJO
 70
     0
 62
     5
  6
CONTINUOUS
  0
LAYER
  5
515
330
2
100
AcDbSymbolTableRecord
100
AcDbLayerTableRecord
  2
KIJUN
 70
     0
 62
     1
  6
CENTER
  0
LAYER
  5
516
330
2
100
AcDbSymbolTableRecord
100
AcDbLayerTableRecord
  2
MOJI
 70
     0
 62
     7
  6
CONTINUOUS
  0
LAYER
  5
517
330
2
100
AcDbSymbolTableRecord
100
AcDbLayerTableRecord
  2
SUNPO
 70
     0
 62
   144
  6
CONTINUOUS
  0
ENDTAB
  0
TABLE
  2
STYLE
  5
3
330
0
100
AcDbSymbolTable
 70
     6
  0
STYLE
  5
11
330
3
100
AcDbSymbolTableRecord
100
AcDbTextStyleTableRecord
  2
STANDARD
 70
     0
 40
0.0
 41
1.0
 50
0.0
 71
     0
 42
2.5
  3
txt
  4

  0
STYLE
  5
2C
330
3
100
AcDbSymbolTableRecord
100
AcDbTextStyleTableRecord
  2

 70
     1
 40
0.0
 41
1.0
 50
0.0
 71
     0
 42
2.5
  3
ltypeshp.shx
  4

  0
STYLE
  5
18E
330
3
100
AcDbSymbolTableRecord
100
AcDbTextStyleTableRecord
  2
ADD
 70
     0
 40
0.0
 41
1.0
 50
0.0
 71
     0
 42
50.0
  3
romans.shx
  4
bigfont.shx
  0
STYLE
  5
191
330
3
100
AcDbSymbolTableRecord
100
AcDbTextStyleTableRecord
  2
MSG
 70
     0
 40
0.0
 41
1.0
 50
0.0
 71
     0
 42
2.5
  3
MS Gothic.ttf
  4

1001
ACAD
1000
MS Gothic
1071
    32817
  0
STYLE
  5
5C8
330
3
100
AcDbSymbolTableRecord
100
AcDbTextStyleTableRecord
  2
STANDARD15
 70
     0
 40
0.0
 41
1.0
 50
15.0
 71
     0
 42
2.5
  3
ROMANS
  4
bigfont
  0
STYLE
  5
5C9
330
3
100
AcDbSymbolTableRecord
100
AcDbTextStyleTableRecord
  2
ROMANS15
 70
     0
 40
0.0
 41
1.0
 50
15.0
 71
     0
 42
2.5
  3
romans
  4

  0
ENDTAB
  0
TABLE
  2
VIEW
  5
6
330
0
100
AcDbSymbolTable
 70
     1
  0
VIEW
  5
54D
330
6
100
AcDbSymbolTableRecord
100
AcDbViewTableRecord
  2
ALL
 70
     0
 40
594.0
 10
420.5
 20
297.0
 41
865.125
 11
0.0
 21
0.0
 31
1.0
 12
0.0
 22
0.0
 32
0.0
 42
50.0
 43
0.0
 44
0.0
 50
0.0
 71
     0
  0
ENDTAB
  0
TABLE
  2
UCS
  5
7
330
0
100
AcDbSymbolTable
 70
     0
  0
ENDTAB
  0
TABLE
  2
APPID
  5
9
330
0
100
AcDbSymbolTable
 70
     4
  0
APPID
  5
12
330
9
100
AcDbSymbolTableRecord
100
AcDbRegAppTableRecord
  2
ACAD
 70
     0
  0
APPID
  5
5CB
330
9
100
AcDbSymbolTableRecord
100
AcDbRegAppTableRecord
  2
ARAIGUMI_YOHEKI
 70
     0
  0
APPID
  5
5CC
330
9
100
AcDbSymbolTableRecord
100
AcDbRegAppTableRecord
  2
CONTENTTABDATA
 70
     0
  0
APPID
  5
5CD
330
9
100
AcDbSymbolTableRecord
100
AcDbRegAppTableRecord
  2
CONTENTCURRENTTAB
 70
     0
  0
ENDTAB
  0
TABLE
  2
DIMSTYLE
  5
A
330
0
100
AcDbSymbolTable
 70
    10
  0
DIMSTYLE
105
27
330
A
100
AcDbSymbolTableRecord
100
AcDbDimStyleTableRecord
  2
ISO-25
 70
     0
  3

  4

  5

  6

  7

 40
1.0
 41
2.5
 42
0.625
 43
3.75
 44
1.25
 45
0.0
 46
0.0
 47
0.0
 48
0.0
140
2.5
141
2.5
142
0.0
143
0.03937007874016
144
1.0
145
0.0
146
1.0
147
0.625
 71
     0
 72
     0
 73
     0
 74
     0
 75
     0
 76
     0
 77
     1
 78
     8
170
     0
171
     3
172
     1
173
     0
174
     0
175
     0
176
     0
177
     0
178
     0
270
     2
271
     2
272
     2
273
     2
274
     3
340
11
275
     0
280
     0
281
     0
282
     0
283
     0
284
     8
285
     0
286
     0
287
     3
288
     0
  0
DIMSTYLE
105
197
330
A
100
AcDbSymbolTableRecord
100
AcDbDimStyleTableRecord
  2
ADD
 70
     0
  3

  4

  5

  6

  7

 40
1.0
 41
2.5
 42
1.0
 43
7.0
 44
0.5
 45
0.0
 46
0.0
 47
0.0
 48
0.0
140
2.5
141
2.5
142
0.0
143
0.03937007874016
144
1.0
145
0.7
146
1.0
147
0.625
 71
     0
 72
     0
 73
     0
 74
     0
 75
     0
 76
     0
 77
     1
 78
     8
170
     0
171
     3
172
     1
173
     0
174
     1
175
     0
176
   144
177
   144
178
     7
270
     2
271
     1
272
     1
273
     2
274
     3
340
18E
275
     0
280
     0
281
     0
282
     0
283
     2
284
     8
285
     0
286
     0
287
     5
288
     0
  0
DIMSTYLE
105
3E6
330
A
100
AcDbSymbolTableRecord
100
AcDbDimStyleTableRecord
  2
ADD$2
 70
     0
  3

  4

  5

  6

  7

 40
1.0
 41
2.5
 42
1.0
 43
7.0
 44
0.5
 45
0.0
 46
0.0
 47
0.0
 48
0.0
140
2.5
141
2.5
142
0.0
143
0.03937007874016
144
1.0
145
0.7
146
1.0
147
0.625
 71
     0
 72
     0
 73
     0
 74
     0
 75
     0
 76
     0
 77
     1
 78
     8
170
     0
171
     3
172
     1
173
     0
174
     1
175
     0
176
   144
177
   144
178
     7
270
     2
271
     1
272
     1
273
     2
274
     3
340
18E
275
     0
280
     0
281
     0
282
     0
283
     2
284
     8
285
     0
286
     0
287
     5
288
     0
  0
DIMSTYLE
105
3E7
102
{ACAD_REACTORS
330
209E
330
2076
330
206C
330
16C3
102
}
330
A
100
AcDbSymbolTableRecord
100
AcDbDimStyleTableRecord
  2
ADD$4
 70
     0
  3

  4

  5

  6

  7

 40
1.0
 41
2.5
 42
1.0
 43
7.0
 44
0.5
 45
0.0
 46
0.0
 47
0.0
 48
0.0
140
2.5
141
2.5
142
0.0
143
0.03937007874016
144
1.0
145
0.0
146
1.0
147
0.625
 71
     0
 72
     0
 73
     0
 74
     0
 75
     0
 76
     0
 77
     1
 78
     8
170
     0
171
     3
172
     1
173
     0
174
     1
175
     0
176
   144
177
   144
178
     7
270
     2
271
     1
272
     1
273
     2
274
     3
340
18E
275
     0
280
     0
281
     0
282
     0
283
     2
284
     8
285
     0
286
     0
287
     5
288
     0
  0
DIMSTYLE
105
3E8
330
A
100
AcDbSymbolTableRecord
100
AcDbDimStyleTableRecord
  2
ADD$3
 70
     0
  3

  4

  5

  6

  7

 40
1.0
 41
2.5
 42
1.0
 43
7.0
 44
0.5
 45
0.0
 46
0.0
 47
0.0
 48
0.0
140
2.5
141
2.5
142
0.0
143
0.03937007874016
144
1.0
145
0.0
146
1.0
147
0.625
 71
     0
 72
     0
 73
     0
 74
     0
 75
     0
 76
     0
 77
     1
 78
     8
170
     0
171
     3
172
     1
173
     0
174
     1
175
     0
176
   144
177
   144
178
     7
270
     2
271
     1
272
     1
273
     2
274
     3
340
18E
275
     0
280
     0
281
     0
282
     0
283
     2
284
     8
285
     0
286
     0
287
     5
288
     0
  0
DIMSTYLE
105
3E9
330
A
100
AcDbSymbolTableRecord
100
AcDbDimStyleTableRecord
  2
ADD$6
 70
     0
  3

  4

  5

  6

  7

 40
1.0
 41
2.5
 42
1.0
 43
7.0
 44
0.5
 45
0.0
 46
0.0
 47
0.0
 48
0.0
140
2.5
141
2.5
142
0.0
143
0.03937007874016
144
1.0
145
0.0
146
1.0
147
0.625
 71
     0
 72
     0
 73
     0
 74
     0
 75
     0
 76
     0
 77
     1
 78
     8
170
     0
171
     3
172
     1
173
     0
174
     1
175
     0
176
   144
177
   144
178
     7
270
     2
271
     1
272
     1
273
     2
274
     3
340
18E
275
     0
280
     0
281
     0
282
     0
283
     2
284
     8
285
     0
286
     0
287
     5
288
     0
  0
DIMSTYLE
105
3EA
330
A
100
AcDbSymbolTableRecord
100
AcDbDimStyleTableRecord
  2
ADD$7
 70
     0
  3

  4

  5

  6

  7

 40
1.0
 41
2.5
 42
1.0
 43
7.0
 44
0.5
 45
0.0
 46
0.0
 47
0.0
 48
0.0
140
2.5
141
2.5
142
0.0
143
0.03937007874016
144
1.0
145
0.0
146
1.0
147
0.625
 71
     0
 72
     0
 73
     0
 74
     0
 75
     0
 76
     0
 77
     0
 78
     8
170
     0
171
     3
172
     1
173
     0
174
     1
175
     0
176
   144
177
   144
178
     7
270
     2
271
     1
272
     1
273
     2
274
     3
340
18E
275
     0
280
     0
281
     0
282
     0
283
     2
284
     8
285
     0
286
     0
287
     5
288
     0
  0
DIMSTYLE
105
518
330
A
100
AcDbSymbolTableRecord
100
AcDbDimStyleTableRecord
  2
STANDARD
 70
     0
  3

  4

  5

  6

  7

 40
1.0
 41
0.18
 42
0.0625
 43
0.38
 44
0.18
 45
0.0
 46
0.0
 47
0.0
 48
0.0
140
0.18
141
0.09
142
0.0
143
25.4
144
1.0
145
0.0
146
1.0
147
0.09
 71
     0
 72
     0
 73
     1
 74
     1
 75
     0
 76
     0
 77
     0
 78
     0
170
     0
171
     2
172
     0
173
     0
174
     0
175
     0
176
     0
177
     0
178
     0
270
     2
271
     4
272
     4
273
     2
274
     2
340
11
275
     0
280
     0
281
     0
282
     0
283
     1
284
     0
285
     0
286
     0
287
     3
288
     0
  0
DIMSTYLE
105
550
102
{ACAD_REACTORS
330
21A5
330
1AE2
330
1AD3
330
1AC4
330
1A66
330
19B1
330
199E
330
198F
330
1971
330
1904
330
18F5
330
18E6
330
18D9
330
188B
330
187E
330
1871
330
182C
330
181F
330
1812
330
1771
330
1655
330
1614
330
15E1
330
1549
330
1289
330
127C
102
}
330
A
100
AcDbSymbolTableRecord
100
AcDbDimStyleTableRecord
  2
ADD$0
 70
     0
  3

  4

  5

  6

  7

 40
1.0
 41
2.2
 42
1.0
 43
7.0
 44
0.5
 45
0.0
 46
0.0
 47
0.0
 48
0.0
140
2.5
141
2.5
142
0.0
143
0.03937007874016
144
1.0
145
0.7
146
1.0
147
0.625
 71
     0
 72
     0
 73
     0
 74
     0
 75
     0
 76
     0
 77
     1
 78
     8
170
     0
171
     3
172
     1
173
     0
174
     1
175
     0
176
   144
177
   144
178
     7
270
     2
271
     1
272
     1
273
     2
274
     3
340
18E
275
     0
280
     0
281
     0
282
     0
283
     2
284
     8
285
     0
286
     0
287
     5
288
     0
  0
DIMSTYLE
105
59B
330
A
100
AcDbSymbolTableRecord
100
AcDbDimStyleTableRecord
  2
ADD_M
 70
     0
  3

  4

  5

  6

  7

 40
1.0
 41
2.5
 42
1.0
 43
7.0
 44
0.5
 45
0.0
 46
0.0
 47
0.0
 48
0.0
140
2.5
141
2.5
142
0.0
143
0.03937007874016
144
1.0
145
0.7
146
1.0
147
0.625
 71
     0
 72
     0
 73
     0
 74
     0
 75
     0
 76
     0
 77
     1
 78
     8
170
     0
171
     3
172
     1
173
     0
174
     1
175
     0
176
   144
177
   144
178
     7
270
     2
271
     1
272
     1
273
     2
274
     3
340
18E
275
     0
280
     0
281
     0
282
     0
283
     2
284
     8
285
     0
286
     0
287
     5
288
     0
  0
ENDTAB
  0
TABLE
  2
BLOCK_RECORD
  5
1
330
0
100
AcDbSymbolTable
 70
    35
  0
BLOCK_RECORD
  5
1F
102
{ACAD_XDICTIONARY
360
19D3
102
}
330
1
100
AcDbSymbolTableRecord
100
AcDbBlockTableRecord
  2
*MODEL_SPACE
  0
BLOCK_RECORD
  5
1B
102
{ACAD_XDICTIONARY
360
19D5
102
}
330
1
100
AcDbSymbolTableRecord
100
AcDbBlockTableRecord
  2
*PAPER_SPACE
  0
BLOCK_RECORD
  5
192
330
1
100
AcDbSymbolTableRecord
100
AcDbBlockTableRecord
  2
_DOT
  0
BLOCK_RECORD
  5
5CE
330
1
100
AcDbSymbolTableRecord
100
AcDbBlockTableRecord
  2
A4
  0
BLOCK_RECORD
  5
636
330
1
100
AcDbSymbolTableRecord
100
AcDbBlockTableRecord
  2
_OPEN90
  0
BLOCK_RECORD
  5
63C
330
1
100
AcDbSymbolTableRecord
100
AcDbBlockTableRecord
  2
_OPEN30
  0
BLOCK_RECORD
  5
FDC
330
1
100
AcDbSymbolTableRecord
100
AcDbBlockTableRecord
  2
_DATUMFILLED
  0
BLOCK_RECORD
  5
127D
330
1
100
AcDbSymbolTableRecord
100
AcDbBlockTableRecord
  2
*D5
  0
BLOCK_RECORD
  5
128A
330
1
100
AcDbSymbolTableRecord
100
AcDbBlockTableRecord
  2
*D6
  0
BLOCK_RECORD
  5
154A
330
1
100
AcDbSymbolTableRecord
100
AcDbBlockTableRecord
  2
*D7
  0
BLOCK_RECORD
  5
15E2
330
1
100
AcDbSymbolTableRecord
100
AcDbBlockTableRecord
  2
*D8
  0
BLOCK_RECORD
  5
1615
330
1
100
AcDbSymbolTableRecord
100
AcDbBlockTableRecord
  2
*D9
  0
BLOCK_RECORD
  5
1656
330
1
100
AcDbSymbolTableRecord
100
AcDbBlockTableRecord
  2
*D10
  0
BLOCK_RECORD
  5
16C4
330
1
100
AcDbSymbolTableRecord
100
AcDbBlockTableRecord
  2
*D11
  0
BLOCK_RECORD
  5
1772
330
1
100
AcDbSymbolTableRecord
100
AcDbBlockTableRecord
  2
*D12
  0
BLOCK_RECORD
  5
1813
330
1
100
AcDbSymbolTableRecord
100
AcDbBlockTableRecord
  2
*D13
  0
BLOCK_RECORD
  5
1820
330
1
100
AcDbSymbolTableRecord
100
AcDbBlockTableRecord
  2
*D14
  0
BLOCK_RECORD
  5
182D
330
1
100
AcDbSymbolTableRecord
100
AcDbBlockTableRecord
  2
*D15
  0
BLOCK_RECORD
  5
1872
330
1
100
AcDbSymbolTableRecord
100
AcDbBlockTableRecord
  2
*D16
  0
BLOCK_RECORD
  5
187F
330
1
100
AcDbSymbolTableRecord
100
AcDbBlockTableRecord
  2
*D17
  0
BLOCK_RECORD
  5
188C
330
1
100
AcDbSymbolTableRecord
100
AcDbBlockTableRecord
  2
*D18
  0
BLOCK_RECORD
  5
18DA
330
1
100
AcDbSymbolTableRecord
100
AcDbBlockTableRecord
  2
*D19
  0
BLOCK_RECORD
  5
18E7
330
1
100
AcDbSymbolTableRecord
100
AcDbBlockTableRecord
  2
*D20
  0
BLOCK_RECORD
  5
18F6
330
1
100
AcDbSymbolTableRecord
100
AcDbBlockTableRecord
  2
*D21
  0
BLOCK_RECORD
  5
1905
330
1
100
AcDbSymbolTableRecord
100
AcDbBlockTableRecord
  2
*D22
  0
BLOCK_RECORD
  5
1972
330
1
100
AcDbSymbolTableRecord
100
AcDbBlockTableRecord
  2
*D23
  0
BLOCK_RECORD
  5
1990
330
1
100
AcDbSymbolTableRecord
100
AcDbBlockTableRecord
  2
*D24
  0
BLOCK_RECORD
  5
199F
330
1
100
AcDbSymbolTableRecord
100
AcDbBlockTableRecord
  2
*D25
  0
BLOCK_RECORD
  5
19B2
330
1
100
AcDbSymbolTableRecord
100
AcDbBlockTableRecord
  2
*D26
  0
BLOCK_RECORD
  5
1A67
330
1
100
AcDbSymbolTableRecord
100
AcDbBlockTableRecord
  2
*D27
  0
BLOCK_RECORD
  5
1AC5
330
1
100
AcDbSymbolTableRecord
100
AcDbBlockTableRecord
  2
*D28
  0
BLOCK_RECORD
  5
1AD4
330
1
100
AcDbSymbolTableRecord
100
AcDbBlockTableRecord
  2
*D29
  0
BLOCK_RECORD
  5
1AE3
330
1
100
AcDbSymbolTableRecord
100
AcDbBlockTableRecord
  2
*D30
  0
BLOCK_RECORD
  5
206D
330
1
100
AcDbSymbolTableRecord
100
AcDbBlockTableRecord
  2
*D31
  0
BLOCK_RECORD
  5
2077
330
1
100
AcDbSymbolTableRecord
100
AcDbBlockTableRecord
  2
*D32
  0
BLOCK_RECORD
  5
209F
330
1
100
AcDbSymbolTableRecord
100
AcDbBlockTableRecord
  2
*D33
  0
BLOCK_RECORD
  5
21A6
330
1
100
AcDbSymbolTableRecord
100
AcDbBlockTableRecord
  2
*D34
  0
ENDTAB
  0
ENDSEC
  0
SECTION
  2
BLOCKS
  0
BLOCK
  5
20
330
1F
100
AcDbEntity
  8
0
100
AcDbBlockBegin
  2
*MODEL_SPACE
 70
     0
 10
0.0
 20
0.0
 30
0.0
  3
*MODEL_SPACE
  1

  0
ENDBLK
  5
21
330
1F
100
AcDbEntity
  8
0
100
AcDbBlockEnd
  0
BLOCK
  5
1C
330
1B
100
AcDbEntity
 67
     1
  8
0
100
AcDbBlockBegin
  2
*PAPER_SPACE
 70
     0
 10
0.0
 20
0.0
 30
0.0
  3
*PAPER_SPACE
  1

  0
ENDBLK
  5
1D
330
1B
100
AcDbEntity
 67
     1
  8
0
100
AcDbBlockEnd
  0
BLOCK
  5
195
330
192
100
AcDbEntity
  8
0
100
AcDbBlockBegin
  2
_DOT
 70
     0
 10
0.0
 20
0.0
 30
0.0
  3
_DOT
  1

  0
POLYLINE
  5
193
330
192
100
AcDbEntity
  8
0
 62
     0
100
AcDb2dPolyline
 66
     1
 10
0.0
 20
0.0
 30
0.0
 70
     1
 40
0.5
 41
0.5
  0
VERTEX
  5
24BE
330
193
100
AcDbEntity
  8
0
 62
     0
100
AcDbVertex
100
AcDb2dVertex
 10
-0.25
 20
0.0
 30
0.0
 42
1.0
  0
VERTEX
  5
24BF
330
193
100
AcDbEntity
  8
0
 62
     0
100
AcDbVertex
100
AcDb2dVertex
 10
0.25
 20
0.0
 30
0.0
 42
1.0
  0
SEQEND
  5
24C0
330
193
100
AcDbEntity
  8
0
 62
     0
  0
LINE
  5
194
330
192
100
AcDbEntity
  8
0
 62
     0
100
AcDbLine
 10
-0.5
 20
0.0
 30
0.0
 11
-1.0
 21
0.0
 31
0.0
  0
ENDBLK
  5
196
330
192
100
AcDbEntity
  8
0
100
AcDbBlockEnd
  0
BLOCK
  5
5D1
330
5CE
100
AcDbEntity
  8
0
100
AcDbBlockBegin
  2
A4
 70
     0
 10
0.0
 20
0.0
 30
0.0
  3
A4
  1

  0
POLYLINE
  5
5CF
330
5CE
100
AcDbEntity
  8
HOJO
100
AcDb2dPolyline
 66
     1
 10
0.0
 20
0.0
 30
0.0
 70
     1
  0
VERTEX
  5
24C1
330
5CF
100
AcDbEntity
  8
HOJO
100
AcDbVertex
100
AcDb2dVertex
 10
0.0
 20
0.0
 30
0.0
  0
VERTEX
  5
24C2
330
5CF
100
AcDbEntity
  8
HOJO
100
AcDbVertex
100
AcDb2dVertex
 10
297.0
 20
0.0
 30
0.0
  0
VERTEX
  5
24C3
330
5CF
100
AcDbEntity
  8
HOJO
100
AcDbVertex
100
AcDb2dVertex
 10
297.0
 20
210.0
 30
0.0
  0
VERTEX
  5
24C4
330
5CF
100
AcDbEntity
  8
HOJO
100
AcDbVertex
100
AcDb2dVertex
 10
0.0
 20
210.0
 30
0.0
  0
SEQEND
  5
24C5
330
5CF
100
AcDbEntity
  8
HOJO
  0
POLYLINE
  5
5D0
330
5CE
100
AcDbEntity
  8
HOJO
100
AcDb2dPolyline
 66
     1
 10
0.0
 20
0.0
 30
0.0
 70
     1
  0
VERTEX
  5
24C6
330
5D0
100
AcDbEntity
  8
HOJO
100
AcDbVertex
100
AcDb2dVertex
 10
18.0
 20
13.0
 30
0.0
  0
VERTEX
  5
24C7
330
5D0
100
AcDbEntity
  8
HOJO
100
AcDbVertex
100
AcDb2dVertex
 10
279.0
 20
13.0
 30
0.0
  0
VERTEX
  5
24C8
330
5D0
100
AcDbEntity
  8
HOJO
100
AcDbVertex
100
AcDb2dVertex
 10
279.0
 20
197.0
 30
0.0
  0
VERTEX
  5
24C9
330
5D0
100
AcDbEntity
  8
HOJO
100
AcDbVertex
100
AcDb2dVertex
 10
18.0
 20
197.0
 30
0.0
  0
SEQEND
  5
24CA
330
5D0
100
AcDbEntity
  8
HOJO
  0
ENDBLK
  5
5D2
330
5CE
100
AcDbEntity
  8
0
100
AcDbBlockEnd
  0
BLOCK
  5
63A
330
636
100
AcDbEntity
  8
0
100
AcDbBlockBegin
  2
_OPEN90
 70
     0
 10
0.0
 20
0.0
 30
0.0
  3
_OPEN90
  1

  0
LINE
  5
637
330
636
100
AcDbEntity
  8
SUNPO
 62
     0
100
AcDbLine
 10
-0.5
 20
0.5
 30
0.0
 11
0.0
 21
0.0
 31
0.0
  0
LINE
  5
638
330
636
100
AcDbEntity
  8
SUNPO
 62
     0
100
AcDbLine
 10
0.0
 20
0.0
 30
0.0
 11
-0.5
 21
-0.5
 31
0.0
  0
LINE
  5
639
330
636
100
AcDbEntity
  8
SUNPO
 62
     0
100
AcDbLine
 10
0.0
 20
0.0
 30
0.0
 11
-1.0
 21
0.0
 31
0.0
  0
ENDBLK
  5
63B
330
636
100
AcDbEntity
  8
0
100
AcDbBlockEnd
  0
BLOCK
  5
640
330
63C
100
AcDbEntity
  8
0
100
AcDbBlockBegin
  2
_OPEN30
 70
     0
 10
0.0
 20
0.0
 30
0.0
  3
_OPEN30
  1

  0
LINE
  5
63D
330
63C
100
AcDbEntity
  8
SUNPO
 62
     0
100
AcDbLine
 10
-1.0
 20
0.26794919
 30
0.0
 11
0.0
 21
0.0
 31
0.0
  0
LINE
  5
63E
330
63C
100
AcDbEntity
  8
SUNPO
 62
     0
100
AcDbLine
 10
0.0
 20
0.0
 30
0.0
 11
-1.0
 21
-0.26794919
 31
0.0
  0
LINE
  5
63F
330
63C
100
AcDbEntity
  8
SUNPO
 62
     0
100
AcDbLine
 10
0.0
 20
0.0
 30
0.0
 11
-1.0
 21
0.0
 31
0.0
  0
ENDBLK
  5
641
330
63C
100
AcDbEntity
  8
0
100
AcDbBlockEnd
  0
BLOCK
  5
FDE
330
FDC
100
AcDbEntity
  8
0
100
AcDbBlockBegin
  2
_DATUMFILLED
 70
     0
 10
0.0
 20
0.0
 30
0.0
  3
_DATUMFILLED
  1

  0
SOLID
  5
FDD
330
FDC
100
AcDbEntity
  8
MOJI
 62
     0
100
AcDbTrace
 10
0.0
 20
0.5773502700000001
 30
0.0
 11
-1.0
 21
0.0
 31
0.0
 12
0.0
 22
-0.5773502700000001
 32
0.0
 13
0.0
 23
-0.5773502700000001
 33
0.0
  0
ENDBLK
  5
FDF
330
FDC
100
AcDbEntity
  8
0
100
AcDbBlockEnd
  0
BLOCK
  5
1287
330
127D
100
AcDbEntity
  8
0
100
AcDbBlockBegin
  2
*D5
 70
     1
 10
0.0
 20
0.0
 30
0.0
  3
*D5
  1

  0
LINE
  5
14C8
330
127D
100
AcDbEntity
  8
SUNPO
 62
   144
100
AcDbLine
 10
1422.5
 20
3052.321101437184
 30
0.0
 11
1422.5
 21
3160.0
 31
0.0
  0
LINE
  5
14C9
330
127D
100
AcDbEntity
  8
SUNPO
 62
   144
100
AcDbLine
 10
1577.499999999999
 20
3052.321101437183
 30
0.0
 11
1577.499999999999
 21
3160.0
 31
0.0
  0
LINE
  5
14CA
330
127D
100
AcDbEntity
  8
SUNPO
 62
   144
100
AcDbLine
 10
1450.5
 20
3150.0
 30
0.0
 11
1549.499999999999
 21
3150.0
 31
0.0
  0
SOLID
  5
14CB
330
127D
100
AcDbEntity
  8
SUNPO
 62
   144
100
AcDbTrace
 10
1450.5
 20
3154.666666666666
 30
0.0
 11
1450.5
 21
3145.333333333333
 31
0.0
 12
1422.5
 22
3150.0
 32
0.0
 13
1422.5
 23
3150.0
 33
0.0
  0
SOLID
  5
14CC
330
127D
100
AcDbEntity
  8
SUNPO
 62
   144
100
AcDbTrace
 10
1549.499999999999
 20
3154.666666666666
 30
0.0
 11
1549.499999999999
 21
3145.333333333333
 31
0.0
 12
1577.499999999999
 22
3150.0
 32
0.0
 13
1577.499999999999
 23
3150.0
 33
0.0
  0
MTEXT
  5
14CD
330
127D
100
AcDbEntity
  8
SUNPO
 62
     7
100
AcDbMText
 10
1500.0
 20
3181.5
 30
0.0
 40
38.0
 41
0.0
 71
     5
 72
     1
  1
\A2;155
  7
ADD
1001
ACAD
1000
MTEXTBEGIN
1070
    73
1070
     1
1070
    44
1040
1.0
1070
    74
1070
     0
1000
MTEXTEND
1000
MTEXTBEGIN
1070
    73
1070
     1
1070
    44
1040
1.0
1070
    74
1070
     0
1000
MTEXTEND
1000
MTEXTBEGIN
1070
    73
1070
     1
1070
    44
1040
1.0
1070
    74
1070
     0
1000
MTEXTEND
1000
MTEXTBEGIN
1070
    73
1070
     1
1070
    44
1040
1.0
1070
    74
1070
     0
1000
MTEXTEND
1000
MTEXTBEGIN
1070
    73
1070
     1
1070
    44
1040
1.0
1070
    74
1070
     0
1000
MTEXTEND
1000
MTEXTBEGIN
1070
    73
1070
     1
1070
    44
1040
1.0
1070
    74
1070
     0
1000
MTEXTEND
1000
MTEXTBEGIN
1070
    73
1070
     1
1070
    44
1040
1.0
1070
    74
1070
     0
1000
MTEXTEND
1000
MTEXTBEGIN
1070
    73
1070
     1
1070
    44
1040
1.0
1070
    74
1070
     0
1000
MTEXTEND
1000
MTEXTBEGIN
1070
    73
1070
     1
1070
    44
1040
1.0
1070
    74
1070
     0
1000
MTEXTEND
1000
MTEXTBEGIN
1070
    73
1070
     1
1070
    44
1040
1.0
1070
    74
1070
     0
1000
MTEXTEND
1000
MTEXTBEGIN
1070
    73
1070
     1
1070
    44
1040
1.0
1070
    74
1070
     0
1000
MTEXTEND
1000
MTEXTBEGIN
1070
    73
1070
     1
1070
    44
1040
1.0
1070
    74
1070
     0
1000
MTEXTEND
1000
MTEXTBEGIN
1070
    73
1070
     1
1070
    44
1040
1.0
1070
    74
1070
     0
1000
MTEXTEND
1000
MTEXTBEGIN
1070
    73
1070
     1
1070
    44
1040
1.0
1070
    74
1070
     0
1000
MTEXTEND
1000
MTEXTBEGIN
1070
    73
1070
     1
1070
    44
1040
1.0
1070
    74
1070
     0
1000
MTEXTEND
1000
MTEXTBEGIN
1070
    73
1070
     1
1070
    44
1040
1.0
1070
    74
1070
     0
1000
MTEXTEND
1000
MTEXTBEGIN
1070
    73
1070
     1
1070
    44
1040
1.0
1070
    74
1070
     0
1000
MTEXTEND
  0
POINT
  5
14CE
330
127D
100
AcDbEntity
  8
DEFPOINTS
 62
     0
100
AcDbPoint
 10
1422.5
 20
3032.321101437183
 30
0.0
  0
POINT
  5
14CF
330
127D
100
AcDbEntity
  8
DEFPOINTS
 62
     0
100
AcDbPoint
 10
1577.499999999999
 20
3032.321101437183
 30
0.0
  0
POINT
  5
14D0
330
127D
100
AcDbEntity
  8
DEFPOINTS
 62
     0
100
AcDbPoint
 10
1577.499999999999
 20
3150.0
 30
0.0
  0
ENDBLK
  5
1288
330
127D
100
AcDbEntity
  8
0
100
AcDbBlockEnd
  0
BLOCK
  5
1294
330
128A
100
AcDbEntity
  8
0
100
AcDbBlockBegin
  2
*D6
 70
     1
 10
0.0
 20
0.0
 30
0.0
  3
*D6
  1

  0
LINE
  5
14BF
330
128A
100
AcDbEntity
  8
SUNPO
 62
   144
100
AcDbLine
 10
1404.0
 20
2869.999999999999
 30
0.0
 11
1404.0
 21
3260.0
 31
0.0
  0
LINE
  5
14C0
330
128A
100
AcDbEntity
  8
SUNPO
 62
   144
100
AcDbLine
 10
1596.0
 20
2869.999999999999
 30
0.0
 11
1596.0
 21
3260.0
 31
0.0
  0
LINE
  5
14C1
330
128A
100
AcDbEntity
  8
SUNPO
 62
   144
100
AcDbLine
 10
1432.0
 20
3250.0
 30
0.0
 11
1568.0
 21
3250.0
 31
0.0
  0
SOLID
  5
14C2
330
128A
100
AcDbEntity
  8
SUNPO
 62
   144
100
AcDbTrace
 10
1432.0
 20
3254.666666666667
 30
0.0
 11
1432.0
 21
3245.333333333333
 31
0.0
 12
1404.0
 22
3250.0
 32
0.0
 13
1404.0
 23
3250.0
 33
0.0
  0
SOLID
  5
14C3
330
128A
100
AcDbEntity
  8
SUNPO
 62
   144
100
AcDbTrace
 10
1568.0
 20
3254.666666666667
 30
0.0
 11
1568.0
 21
3245.333333333333
 31
0.0
 12
1596.0
 22
3250.0
 32
0.0
 13
1596.0
 23
3250.0
 33
0.0
  0
MTEXT
  5
14C4
330
128A
100
AcDbEntity
  8
SUNPO
 62
     7
100
AcDbMText
 10
1500.0
 20
3281.499999999999
 30
0.0
 40
38.0
 41
0.0
 71
     5
 72
     1
  1
\A2;192
  7
ADD
1001
ACAD
1000
MTEXTBEGIN
1070
    73
1070
     1
1070
    44
1040
1.0
1070
    74
1070
     0
1000
MTEXTEND
1000
MTEXTBEGIN
1070
    73
1070
     1
1070
    44
1040
1.0
1070
    74
1070
     0
1000
MTEXTEND
1000
MTEXTBEGIN
1070
    73
1070
     1
1070
    44
1040
1.0
1070
    74
1070
     0
1000
MTEXTEND
1000
MTEXTBEGIN
1070
    73
1070
     1
1070
    44
1040
1.0
1070
    74
1070
     0
1000
MTEXTEND
1000
MTEXTBEGIN
1070
    73
1070
     1
1070
    44
1040
1.0
1070
    74
1070
     0
1000
MTEXTEND
1000
MTEXTBEGIN
1070
    73
1070
     1
1070
    44
1040
1.0
1070
    74
1070
     0
1000
MTEXTEND
1000
MTEXTBEGIN
1070
    73
1070
     1
1070
    44
1040
1.0
1070
    74
1070
     0
1000
MTEXTEND
1000
MTEXTBEGIN
1070
    73
1070
     1
1070
    44
1040
1.0
1070
    74
1070
     0
1000
MTEXTEND
1000
MTEXTBEGIN
1070
    73
1070
     1
1070
    44
1040
1.0
1070
    74
1070
     0
1000
MTEXTEND
1000
MTEXTBEGIN
1070
    73
1070
     1
1070
    44
1040
1.0
1070
    74
1070
     0
1000
MTEXTEND
1000
MTEXTBEGIN
1070
    73
1070
     1
1070
    44
1040
1.0
1070
    74
1070
     0
1000
MTEXTEND
1000
MTEXTBEGIN
1070
    73
1070
     1
1070
    44
1040
1.0
1070
    74
1070
     0
1000
MTEXTEND
1000
MTEXTBEGIN
1070
    73
1070
     1
1070
    44
1040
1.0
1070
    74
1070
     0
1000
MTEXTEND
1000
MTEXTBEGIN
1070
    73
1070
     1
1070
    44
1040
1.0
1070
    74
1070
     0
1000
MTEXTEND
1000
MTEXTBEGIN
1070
    73
1070
     1
1070
    44
1040
1.0
1070
    74
1070
     0
1000
MTEXTEND
1000
MTEXTBEGIN
1070
    73
1070
     1
1070
    44
1040
1.0
1070
    74
1070
     0
1000
MTEXTEND
1000
MTEXTBEGIN
1070
    73
1070
     1
1070
    44
1040
1.0
1070
    74
1070
     0
1000
MTEXTEND
  0
POINT
  5
14C5
330
128A
100
AcDbEntity
  8
DEFPOINTS
 62
     0
100
AcDbPoint
 10
1404.0
 20
2849.999999999999
 30
0.0
  0
POINT
  5
14C6
330
128A
100
AcDbEntity
  8
DEFPOINTS
 62
     0
100
AcDbPoint
 10
1596.0
 20
2849.999999999999
 30
0.0
  0
POINT
  5
14C7
330
128A
100
AcDbEntity
  8
DEFPOINTS
 62
     0
100
AcDbPoint
 10
1596.0
 20
3250.0
 30
0.0
  0
ENDBLK
  5
1295
330
128A
100
AcDbEntity
  8
0
100
AcDbBlockEnd
  0
BLOCK
  5
1556
330
154A
100
AcDbEntity
  8
0
100
AcDbBlockBegin
  2
*D7
 70
     1
 10
0.0
 20
0.0
 30
0.0
  3
*D7
  1

  0
LINE
  5
154B
330
154A
100
AcDbEntity
  8
SUNPO
 62
   144
100
AcDbLine
 10
2630.0
 20
2900.0
 30
0.0
 11
2540.0
 21
2900.0
 31
0.0
  0
LINE
  5
154C
330
154A
100
AcDbEntity
  8
SUNPO
 62
   144
100
AcDbLine
 10
2630.0
 20
2850.0
 30
0.0
 11
2540.0
 21
2850.0
 31
0.0
  0
LINE
  5
154D
330
154A
100
AcDbEntity
  8
SUNPO
 62
   144
100
AcDbLine
 10
2550.0
 20
2928.0
 30
0.0
 11
2550.0
 21
2956.0
 31
0.0
  0
LINE
  5
154E
330
154A
100
AcDbEntity
  8
SUNPO
 62
   144
100
AcDbLine
 10
2550.0
 20
2822.0
 30
0.0
 11
2550.0
 21
2794.0
 31
0.0
  0
LINE
  5
154F
330
154A
100
AcDbEntity
  8
SUNPO
 62
   144
100
AcDbLine
 10
2550.0
 20
2900.0
 30
0.0
 11
2550.0
 21
2850.0
 31
0.0
  0
SOLID
  5
1550
330
154A
100
AcDbEntity
  8
SUNPO
 62
   144
100
AcDbTrace
 10
2545.333333333333
 20
2928.0
 30
0.0
 11
2554.666666666666
 21
2928.0
 31
0.0
 12
2550.0
 22
2900.0
 32
0.0
 13
2550.0
 23
2900.0
 33
0.0
  0
SOLID
  5
1551
330
154A
100
AcDbEntity
  8
SUNPO
 62
   144
100
AcDbTrace
 10
2545.333333333333
 20
2822.0
 30
0.0
 11
2554.666666666666
 21
2822.0
 31
0.0
 12
2550.0
 22
2850.0
 32
0.0
 13
2550.0
 23
2850.0
 33
0.0
  0
MTEXT
  5
1552
330
154A
100
AcDbEntity
  8
SUNPO
 62
     7
100
AcDbMText
 10
2518.499999999999
 20
2875.0
 30
0.0
 40
38.0
 41
0.0
 71
     5
 72
     1
  1
\A2;50
  7
ADD
 11
0.0000000000000001
 21
1.0
 31
0.0
1001
ACAD
1000
MTEXTBEGIN
1070
    73
1070
     1
1070
    44
1040
1.0
1070
    74
1070
     0
1000
MTEXTEND
1000
MTEXTBEGIN
1070
    73
1070
     1
1070
    44
1040
1.0
1070
    74
1070
     0
1000
MTEXTEND
1000
MTEXTBEGIN
1070
    73
1070
     1
1070
    44
1040
1.0
1070
    74
1070
     0
1000
MTEXTEND
1000
MTEXTBEGIN
1070
    73
1070
     1
1070
    44
1040
1.0
1070
    74
1070
     0
1000
MTEXTEND
1000
MTEXTBEGIN
1070
    73
1070
     1
1070
    44
1040
1.0
1070
    74
1070
     0
1000
MTEXTEND
1000
MTEXTBEGIN
1070
    73
1070
     1
1070
    44
1040
1.0
1070
    74
1070
     0
1000
MTEXTEND
1000
MTEXTBEGIN
1070
    73
1070
     1
1070
    44
1040
1.0
1070
    74
1070
     0
1000
MTEXTEND
1000
MTEXTBEGIN
1070
    73
1070
     1
1070
    44
1040
1.0
1070
    74
1070
     0
1000
MTEXTEND
1000
MTEXTBEGIN
1070
    73
1070
     1
1070
    44
1040
1.0
1070
    74
1070
     0
1000
MTEXTEND
1000
MTEXTBEGIN
1070
    73
1070
     1
1070
    44
1040
1.0
1070
    74
1070
     0
1000
MTEXTEND
1000
MTEXTBEGIN
1070
    73
1070
     1
1070
    44
1040
1.0
1070
    74
1070
     0
1000
MTEXTEND
1000
MTEXTBEGIN
1070
    73
1070
     1
1070
    44
1040
1.0
1070
    74
1070
     0
1000
MTEXTEND
1000
MTEXTBEGIN
1070
    73
1070
     1
1070
    44
1040
1.0
1070
    74
1070
     0
1000
MTEXTEND
1000
MTEXTBEGIN
1070
    73
1070
     1
1070
    44
1040
1.0
1070
    74
1070
     0
1000
MTEXTEND
1000
MTEXTBEGIN
1070
    73
1070
     1
1070
    44
1040
1.0
1070
    74
1070
     0
1000
MTEXTEND
1000
MTEXTBEGIN
1070
    73
1070
     1
1070
    44
1040
1.0
1070
    74
1070
     0
1000
MTEXTEND
1000
MTEXTBEGIN
1070
    73
1070
     1
1070
    44
1040
1.0
1070
    74
1070
     0
1000
MTEXTEND
  0
POINT
  5
1553
330
154A
100
AcDbEntity
  8
DEFPOINTS
 62
     0
100
AcDbPoint
 10
2650.0
 20
2900.0
 30
0.0
  0
POINT
  5
1554
330
154A
100
AcDbEntity
  8
DEFPOINTS
 62
     0
100
AcDbPoint
 10
2650.0
 20
2850.0
 30
0.0
  0
POINT
  5
1555
330
154A
100
AcDbEntity
  8
DEFPOINTS
 62
     0
100
AcDbPoint
 10
2550.0
 20
2850.0
 30
0.0
  0
ENDBLK
  5
1557
330
154A
100
AcDbEntity
  8
0
100
AcDbBlockEnd
  0
BLOCK
  5
15EE
330
15E2
100
AcDbEntity
  8
0
100
AcDbBlockBegin
  2
*D8
 70
     1
 10
0.0
 20
0.0
 30
0.0
  3
*D8
  1

  0
LINE
  5
15E3
330
15E2
100
AcDbEntity
  8
SUNPO
 62
   144
100
AcDbLine
 10
2769.999999999999
 20
2890.0
 30
0.0
 11
2910.0
 21
2890.0
 31
0.0
  0
LINE
  5
15E4
330
15E2
100
AcDbEntity
  8
SUNPO
 62
   144
100
AcDbLine
 10
2770.0
 20
2850.0
 30
0.0
 11
2910.0
 21
2850.0
 31
0.0
  0
LINE
  5
15E5
330
15E2
100
AcDbEntity
  8
SUNPO
 62
   144
100
AcDbLine
 10
2900.0
 20
2918.0
 30
0.0
 11
2900.0
 21
2946.0
 31
0.0
  0
LINE
  5
15E6
330
15E2
100
AcDbEntity
  8
SUNPO
 62
   144
100
AcDbLine
 10
2900.0
 20
2822.0
 30
0.0
 11
2900.0
 21
2794.0
 31
0.0
  0
LINE
  5
15E7
330
15E2
100
AcDbEntity
  8
SUNPO
 62
   144
100
AcDbLine
 10
2900.0
 20
2890.0
 30
0.0
 11
2900.0
 21
2850.0
 31
0.0
  0
SOLID
  5
15E8
330
15E2
100
AcDbEntity
  8
SUNPO
 62
   144
100
AcDbTrace
 10
2895.333333333333
 20
2918.0
 30
0.0
 11
2904.666666666667
 21
2918.0
 31
0.0
 12
2900.0
 22
2890.0
 32
0.0
 13
2900.0
 23
2890.0
 33
0.0
  0
SOLID
  5
15E9
330
15E2
100
AcDbEntity
  8
SUNPO
 62
   144
100
AcDbTrace
 10
2895.333333333333
 20
2822.0
 30
0.0
 11
2904.666666666667
 21
2822.0
 31
0.0
 12
2900.0
 22
2850.0
 32
0.0
 13
2900.0
 23
2850.0
 33
0.0
  0
MTEXT
  5
15EA
330
15E2
100
AcDbEntity
  8
SUNPO
 62
     7
100
AcDbMText
 10
2868.499999999999
 20
2870.0
 30
0.0
 40
38.0
 41
0.0
 71
     5
 72
     1
  1
\A2;40
  7
ADD
 11
0.0000000000000001
 21
1.0
 31
0.0
1001
ACAD
1000
MTEXTBEGIN
1070
    73
1070
     1
1070
    44
1040
1.0
1070
    74
1070
     0
1000
MTEXTEND
1000
MTEXTBEGIN
1070
    73
1070
     1
1070
    44
1040
1.0
1070
    74
1070
     0
1000
MTEXTEND
1000
MTEXTBEGIN
1070
    73
1070
     1
1070
    44
1040
1.0
1070
    74
1070
     0
1000
MTEXTEND
1000
MTEXTBEGIN
1070
    73
1070
     1
1070
    44
1040
1.0
1070
    74
1070
     0
1000
MTEXTEND
1000
MTEXTBEGIN
1070
    73
1070
     1
1070
    44
1040
1.0
1070
    74
1070
     0
1000
MTEXTEND
1000
MTEXTBEGIN
1070
    73
1070
     1
1070
    44
1040
1.0
1070
    74
1070
     0
1000
MTEXTEND
1000
MTEXTBEGIN
1070
    73
1070
     1
1070
    44
1040
1.0
1070
    74
1070
     0
1000
MTEXTEND
1000
MTEXTBEGIN
1070
    73
1070
     1
1070
    44
1040
1.0
1070
    74
1070
     0
1000
MTEXTEND
1000
MTEXTBEGIN
1070
    73
1070
     1
1070
    44
1040
1.0
1070
    74
1070
     0
1000
MTEXTEND
1000
MTEXTBEGIN
1070
    73
1070
     1
1070
    44
1040
1.0
1070
    74
1070
     0
1000
MTEXTEND
1000
MTEXTBEGIN
1070
    73
1070
     1
1070
    44
1040
1.0
1070
    74
1070
     0
1000
MTEXTEND
1000
MTEXTBEGIN
1070
    73
1070
     1
1070
    44
1040
1.0
1070
    74
1070
     0
1000
MTEXTEND
1000
MTEXTBEGIN
1070
    73
1070
     1
1070
    44
1040
1.0
1070
    74
1070
     0
1000
MTEXTEND
1000
MTEXTBEGIN
1070
    73
1070
     1
1070
    44
1040
1.0
1070
    74
1070
     0
1000
MTEXTEND
1000
MTEXTBEGIN
1070
    73
1070
     1
1070
    44
1040
1.0
1070
    74
1070
     0
1000
MTEXTEND
1000
MTEXTBEGIN
1070
    73
1070
     1
1070
    44
1040
1.0
1070
    74
1070
     0
1000
MTEXTEND
1000
MTEXTBEGIN
1070
    73
1070
     1
1070
    44
1040
1.0
1070
    74
1070
     0
1000
MTEXTEND
  0
POINT
  5
15EB
330
15E2
100
AcDbEntity
  8
DEFPOINTS
 62
     0
100
AcDbPoint
 10
2750.0
 20
2890.0
 30
0.0
  0
POINT
  5
15EC
330
15E2
100
AcDbEntity
  8
DEFPOINTS
 62
     0
100
AcDbPoint
 10
2750.0
 20
2850.0
 30
0.0
  0
POINT
  5
15ED
330
15E2
100
AcDbEntity
  8
DEFPOINTS
 62
     0
100
AcDbPoint
 10
2900.0
 20
2850.0
 30
0.0
  0
ENDBLK
  5
15EF
330
15E2
100
AcDbEntity
  8
0
100
AcDbBlockEnd
  0
BLOCK
  5
1621
330
1615
100
AcDbEntity
  8
0
100
AcDbBlockBegin
  2
*D9
 70
     1
 10
0.0
 20
0.0
 30
0.0
  3
*D9
  1

  0
LINE
  5
1616
330
1615
100
AcDbEntity
  8
SUNPO
 62
   144
100
AcDbLine
 10
2649.999999999999
 20
3070.0
 30
0.0
 11
2649.999999999999
 21
3160.0
 31
0.0
  0
LINE
  5
1617
330
1615
100
AcDbEntity
  8
SUNPO
 62
   144
100
AcDbLine
 10
2750.0
 20
3070.0
 30
0.0
 11
2750.0
 21
3160.0
 31
0.0
  0
LINE
  5
1618
330
1615
100
AcDbEntity
  8
SUNPO
 62
   144
100
AcDbLine
 10
2621.999999999999
 20
3150.0
 30
0.0
 11
2593.999999999999
 21
3150.0
 31
0.0
  0
LINE
  5
1619
330
1615
100
AcDbEntity
  8
SUNPO
 62
   144
100
AcDbLine
 10
2778.0
 20
3150.0
 30
0.0
 11
2805.999999999999
 21
3150.0
 31
0.0
  0
LINE
  5
161A
330
1615
100
AcDbEntity
  8
SUNPO
 62
   144
100
AcDbLine
 10
2649.999999999999
 20
3150.0
 30
0.0
 11
2750.0
 21
3150.0
 31
0.0
  0
SOLID
  5
161B
330
1615
100
AcDbEntity
  8
SUNPO
 62
   144
100
AcDbTrace
 10
2621.999999999999
 20
3154.666666666666
 30
0.0
 11
2621.999999999999
 21
3145.333333333333
 31
0.0
 12
2649.999999999999
 22
3150.0
 32
0.0
 13
2649.999999999999
 23
3150.0
 33
0.0
  0
SOLID
  5
161C
330
1615
100
AcDbEntity
  8
SUNPO
 62
   144
100
AcDbTrace
 10
2778.0
 20
3154.666666666666
 30
0.0
 11
2778.0
 21
3145.333333333333
 31
0.0
 12
2750.0
 22
3150.0
 32
0.0
 13
2750.0
 23
3150.0
 33
0.0
  0
MTEXT
  5
161D
330
1615
100
AcDbEntity
  8
SUNPO
 62
     7
100
AcDbMText
 10
2699.999999999999
 20
3181.5
 30
0.0
 40
38.0
 41
0.0
 71
     5
 72
     1
  1
\A2;100
  7
ADD
1001
ACAD
1000
MTEXTBEGIN
1070
    73
1070
     1
1070
    44
1040
1.0
1070
    74
1070
     0
1000
MTEXTEND
1000
MTEXTBEGIN
1070
    73
1070
     1
1070
    44
1040
1.0
1070
    74
1070
     0
1000
MTEXTEND
1000
MTEXTBEGIN
1070
    73
1070
     1
1070
    44
1040
1.0
1070
    74
1070
     0
1000
MTEXTEND
1000
MTEXTBEGIN
1070
    73
1070
     1
1070
    44
1040
1.0
1070
    74
1070
     0
1000
MTEXTEND
1000
MTEXTBEGIN
1070
    73
1070
     1
1070
    44
1040
1.0
1070
    74
1070
     0
1000
MTEXTEND
1000
MTEXTBEGIN
1070
    73
1070
     1
1070
    44
1040
1.0
1070
    74
1070
     0
1000
MTEXTEND
1000
MTEXTBEGIN
1070
    73
1070
     1
1070
    44
1040
1.0
1070
    74
1070
     0
1000
MTEXTEND
1000
MTEXTBEGIN
1070
    73
1070
     1
1070
    44
1040
1.0
1070
    74
1070
     0
1000
MTEXTEND
1000
MTEXTBEGIN
1070
    73
1070
     1
1070
    44
1040
1.0
1070
    74
1070
     0
1000
MTEXTEND
1000
MTEXTBEGIN
1070
    73
1070
     1
1070
    44
1040
1.0
1070
    74
1070
     0
1000
MTEXTEND
1000
MTEXTBEGIN
1070
    73
1070
     1
1070
    44
1040
1.0
1070
    74
1070
     0
1000
MTEXTEND
1000
MTEXTBEGIN
1070
    73
1070
     1
1070
    44
1040
1.0
1070
    74
1070
     0
1000
MTEXTEND
1000
MTEXTBEGIN
1070
    73
1070
     1
1070
    44
1040
1.0
1070
    74
1070
     0
1000
MTEXTEND
1000
MTEXTBEGIN
1070
    73
1070
     1
1070
    44
1040
1.0
1070
    74
1070
     0
1000
MTEXTEND
1000
MTEXTBEGIN
1070
    73
1070
     1
1070
    44
1040
1.0
1070
    74
1070
     0
1000
MTEXTEND
1000
MTEXTBEGIN
1070
    73
1070
     1
1070
    44
1040
1.0
1070
    74
1070
     0
1000
MTEXTEND
1000
MTEXTBEGIN
1070
    73
1070
     1
1070
    44
1040
1.0
1070
    74
1070
     0
1000
MTEXTEND
  0
POINT
  5
161E
330
1615
100
AcDbEntity
  8
DEFPOINTS
 62
     0
100
AcDbPoint
 10
2649.999999999999
 20
3050.0
 30
0.0
  0
POINT
  5
161F
330
1615
100
AcDbEntity
  8
DEFPOINTS
 62
     0
100
AcDbPoint
 10
2750.0
 20
3050.0
 30
0.0
  0
POINT
  5
1620
330
1615
100
AcDbEntity
  8
DEFPOINTS
 62
     0
100
AcDbPoint
 10
2750.0
 20
3150.0
 30
0.0
  0
ENDBLK
  5
1622
330
1615
100
AcDbEntity
  8
0
100
AcDbBlockEnd
  0
BLOCK
  5
1660
330
1656
100
AcDbEntity
  8
0
100
AcDbBlockBegin
  2
*D10
 70
     1
 10
0.0
 20
0.0
 30
0.0
  3
*D10
  1

  0
LINE
  5
1657
330
1656
100
AcDbEntity
  8
SUNPO
 62
   144
100
AcDbLine
 10
2629.999999999999
 20
1680.0
 30
0.0
 11
2540.0
 21
1680.0
 31
0.0
  0
LINE
  5
1658
330
1656
100
AcDbEntity
  8
SUNPO
 62
   144
100
AcDbLine
 10
2629.999999999999
 20
1480.0
 30
0.0
 11
2540.0
 21
1480.0
 31
0.0
  0
LINE
  5
1659
330
1656
100
AcDbEntity
  8
SUNPO
 62
   144
100
AcDbLine
 10
2550.0
 20
1652.0
 30
0.0
 11
2550.0
 21
1508.0
 31
0.0
  0
SOLID
  5
165A
330
1656
100
AcDbEntity
  8
SUNPO
 62
   144
100
AcDbTrace
 10
2545.333333333333
 20
1652.0
 30
0.0
 11
2554.666666666666
 21
1652.0
 31
0.0
 12
2550.0
 22
1680.0
 32
0.0
 13
2550.0
 23
1680.0
 33
0.0
  0
SOLID
  5
165B
330
1656
100
AcDbEntity
  8
SUNPO
 62
   144
100
AcDbTrace
 10
2545.333333333333
 20
1508.0
 30
0.0
 11
2554.666666666666
 21
1508.0
 31
0.0
 12
2550.0
 22
1480.0
 32
0.0
 13
2550.0
 23
1480.0
 33
0.0
  0
MTEXT
  5
165C
330
1656
100
AcDbEntity
  8
SUNPO
 62
     7
100
AcDbMText
 10
2518.499999999999
 20
1580.0
 30
0.0
 40
38.0
 41
0.0
 71
     5
 72
     1
  1
\A2;200
  7
ADD
 11
0.0000000000000001
 21
1.0
 31
0.0
1001
ACAD
1000
MTEXTBEGIN
1070
    73
1070
     1
1070
    44
1040
1.0
1070
    74
1070
     0
1000
MTEXTEND
1000
MTEXTBEGIN
1070
    73
1070
     1
1070
    44
1040
1.0
1070
    74
1070
     0
1000
MTEXTEND
1000
MTEXTBEGIN
1070
    73
1070
     1
1070
    44
1040
1.0
1070
    74
1070
     0
1000
MTEXTEND
1000
MTEXTBEGIN
1070
    73
1070
     1
1070
    44
1040
1.0
1070
    74
1070
     0
1000
MTEXTEND
1000
MTEXTBEGIN
1070
    73
1070
     1
1070
    44
1040
1.0
1070
    74
1070
     0
1000
MTEXTEND
1000
MTEXTBEGIN
1070
    73
1070
     1
1070
    44
1040
1.0
1070
    74
1070
     0
1000
MTEXTEND
1000
MTEXTBEGIN
1070
    73
1070
     1
1070
    44
1040
1.0
1070
    74
1070
     0
1000
MTEXTEND
1000
MTEXTBEGIN
1070
    73
1070
     1
1070
    44
1040
1.0
1070
    74
1070
     0
1000
MTEXTEND
1000
MTEXTBEGIN
1070
    73
1070
     1
1070
    44
1040
1.0
1070
    74
1070
     0
1000
MTEXTEND
1000
MTEXTBEGIN
1070
    73
1070
     1
1070
    44
1040
1.0
1070
    74
1070
     0
1000
MTEXTEND
1000
MTEXTBEGIN
1070
    73
1070
     1
1070
    44
1040
1.0
1070
    74
1070
     0
1000
MTEXTEND
1000
MTEXTBEGIN
1070
    73
1070
     1
1070
    44
1040
1.0
1070
    74
1070
     0
1000
MTEXTEND
1000
MTEXTBEGIN
1070
    73
1070
     1
1070
    44
1040
1.0
1070
    74
1070
     0
1000
MTEXTEND
1000
MTEXTBEGIN
1070
    73
1070
     1
1070
    44
1040
1.0
1070
    74
1070
     0
1000
MTEXTEND
1000
MTEXTBEGIN
1070
    73
1070
     1
1070
    44
1040
1.0
1070
    74
1070
     0
1000
MTEXTEND
1000
MTEXTBEGIN
1070
    73
1070
     1
1070
    44
1040
1.0
1070
    74
1070
     0
1000
MTEXTEND
1000
MTEXTBEGIN
1070
    73
1070
     1
1070
    44
1040
1.0
1070
    74
1070
     0
1000
MTEXTEND
  0
POINT
  5
165D
330
1656
100
AcDbEntity
  8
DEFPOINTS
 62
     0
100
AcDbPoint
 10
2649.999999999999
 20
1680.0
 30
0.0
  0
POINT
  5
165E
330
1656
100
AcDbEntity
  8
DEFPOINTS
 62
     0
100
AcDbPoint
 10
2649.999999999999
 20
1480.0
 30
0.0
  0
POINT
  5
165F
330
1656
100
AcDbEntity
  8
DEFPOINTS
 62
     0
100
AcDbPoint
 10
2550.0
 20
1480.0
 30
0.0
  0
ENDBLK
  5
1661
330
1656
100
AcDbEntity
  8
0
100
AcDbBlockEnd
  0
BLOCK
  5
16CB
330
16C4
100
AcDbEntity
  8
0
100
AcDbBlockBegin
  2
*D11
 70
     1
 10
0.0
 20
0.0
 30
0.0
  3
*D11
  1

  0
LINE
  5
16C5
330
16C4
100
AcDbEntity
  8
SUNPO
 62
   144
100
AcDbLine
 10
2864.126015137951
 20
3008.981392709498
 30
0.0
 11
2757.918996215326
 21
2902.047464277329
 31
0.0
  0
MTEXT
  5
16C6
330
16C4
100
AcDbEntity
  8
SUNPO
 62
     7
100
AcDbMText
 10
2798.538483529837
 20
2987.64539783824
 30
0.0
 40
38.0
 41
0.0
 71
     5
 72
     1
  1
\A2;R40
  7
ADD
 11
0.7046911208136307
 21
0.7095142170854852
 31
0.0
1001
ACAD
1000
MTEXTBEGIN
1070
    73
1070
     1
1070
    44
1040
1.0
1070
    74
1070
     0
1000
MTEXTEND
1000
MTEXTBEGIN
1070
    73
1070
     1
1070
    44
1040
1.0
1070
    74
1070
     0
1000
MTEXTEND
1000
MTEXTBEGIN
1070
    73
1070
     1
1070
    44
1040
1.0
1070
    74
1070
     0
1000
MTEXTEND
1000
MTEXTBEGIN
1070
    73
1070
     1
1070
    44
1040
1.0
1070
    74
1070
     0
1000
MTEXTEND
1000
MTEXTBEGIN
1070
    73
1070
     1
1070
    44
1040
1.0
1070
    74
1070
     0
1000
MTEXTEND
1000
MTEXTBEGIN
1070
    73
1070
     1
1070
    44
1040
1.0
1070
    74
1070
     0
1000
MTEXTEND
1000
MTEXTBEGIN
1070
    73
1070
     1
1070
    44
1040
1.0
1070
    74
1070
     0
1000
MTEXTEND
1000
MTEXTBEGIN
1070
    73
1070
     1
1070
    44
1040
1.0
1070
    74
1070
     0
1000
MTEXTEND
1000
MTEXTBEGIN
1070
    73
1070
     1
1070
    44
1040
1.0
1070
    74
1070
     0
1000
MTEXTEND
1000
MTEXTBEGIN
1070
    73
1070
     1
1070
    44
1040
1.0
1070
    74
1070
     0
1000
MTEXTEND
1000
MTEXTBEGIN
1070
    73
1070
     1
1070
    44
1040
1.0
1070
    74
1070
     0
1000
MTEXTEND
1000
MTEXTBEGIN
1070
    73
1070
     1
1070
    44
1040
1.0
1070
    74
1070
     0
1000
MTEXTEND
1000
MTEXTBEGIN
1070
    73
1070
     1
1070
    44
1040
1.0
1070
    74
1070
     0
1000
MTEXTEND
1000
MTEXTBEGIN
1070
    73
1070
     1
1070
    44
1040
1.0
1070
    74
1070
     0
1000
MTEXTEND
1000
MTEXTBEGIN
1070
    73
1070
     1
1070
    44
1040
1.0
1070
    74
1070
     0
1000
MTEXTEND
1000
MTEXTBEGIN
1070
    73
1070
     1
1070
    44
1040
1.0
1070
    74
1070
     0
1000
MTEXTEND
1000
MTEXTBEGIN
1070
    73
1070
     1
1070
    44
1040
1.0
1070
    74
1070
     0
1000
MTEXTEND
  0
LINE
  5
16C7
330
16C4
100
AcDbEntity
  8
SUNPO
 62
   144
100
AcDbLine
 10
2709.999999999999
 20
2853.800497515516
 30
0.0
 11
2738.187644832545
 21
2882.181066198935
 31
0.0
  0
SOLID
  5
16C8
330
16C4
100
AcDbEntity
  8
SUNPO
 62
   144
100
AcDbTrace
 10
2754.607929868927
 20
2905.336022841126
 30
0.0
 11
2761.230062561725
 21
2898.758905713532
 31
0.0
 12
2738.187644832545
 22
2882.181066198935
 32
0.0
 13
2738.187644832545
 23
2882.181066198935
 33
0.0
  0
POINT
  5
16C9
330
16C4
100
AcDbEntity
  8
DEFPOINTS
 62
     0
100
AcDbPoint
 10
2738.187644832545
 20
2882.181066198935
 30
0.0
  0
POINT
  5
16CA
330
16C4
100
AcDbEntity
  8
DEFPOINTS
 62
     0
100
AcDbPoint
 10
2709.999999999999
 20
2853.800497515516
 30
0.0
  0
ENDBLK
  5
16CC
330
16C4
100
AcDbEntity
  8
0
100
AcDbBlockEnd
  0
BLOCK
  5
177C
330
1772
100
AcDbEntity
  8
0
100
AcDbBlockBegin
  2
*D12
 70
     1
 10
0.0
 20
0.0
 30
0.0
  3
*D12
  1

  0
LINE
  5
1773
330
1772
100
AcDbEntity
  8
SUNPO
 62
   144
100
AcDbLine
 10
1480.0
 20
3050.0
 30
0.0
 11
1470.0
 21
3050.0
 31
0.0
  0
LINE
  5
1774
330
1772
100
AcDbEntity
  8
SUNPO
 62
   144
100
AcDbLine
 10
1480.0
 20
2850.0
 30
0.0
 11
1470.0
 21
2850.0
 31
0.0
  0
LINE
  5
1775
330
1772
100
AcDbEntity
  8
SUNPO
 62
   144
100
AcDbLine
 10
1480.0
 20
3022.0
 30
0.0
 11
1480.0
 21
2878.0
 31
0.0
  0
SOLID
  5
1776
330
1772
100
AcDbEntity
  8
SUNPO
 62
   144
100
AcDbTrace
 10
1475.333333333333
 20
3022.0
 30
0.0
 11
1484.666666666666
 21
3022.0
 31
0.0
 12
1480.0
 22
3050.0
 32
0.0
 13
1480.0
 23
3050.0
 33
0.0
  0
SOLID
  5
1777
330
1772
100
AcDbEntity
  8
SUNPO
 62
   144
100
AcDbTrace
 10
1475.333333333333
 20
2878.0
 30
0.0
 11
1484.666666666666
 21
2878.0
 31
0.0
 12
1480.0
 22
2850.0
 32
0.0
 13
1480.0
 23
2850.0
 33
0.0
  0
MTEXT
  5
1778
330
1772
100
AcDbEntity
  8
SUNPO
 62
     7
100
AcDbMText
 10
1449.499999999999
 20
2950.0
 30
0.0
 40
36.0
 41
0.0
 71
     5
 72
     1
  1
\A2;200
  7
ADD
 11
0.0000000000000001
 21
1.0
 31
0.0
1001
ACAD
1000
MTEXTBEGIN
1070
    73
1070
     1
1070
    44
1040
1.0
1070
    74
1070
     0
1000
MTEXTEND
1000
MTEXTBEGIN
1070
    73
1070
     1
1070
    44
1040
1.0
1070
    74
1070
     0
1000
MTEXTEND
1000
MTEXTBEGIN
1070
    73
1070
     1
1070
    44
1040
1.0
1070
    74
1070
     0
1000
MTEXTEND
1000
MTEXTBEGIN
1070
    73
1070
     1
1070
    44
1040
1.0
1070
    74
1070
     0
1000
MTEXTEND
1000
MTEXTBEGIN
1070
    73
1070
     1
1070
    44
1040
1.0
1070
    74
1070
     0
1000
MTEXTEND
1000
MTEXTBEGIN
1070
    73
1070
     1
1070
    44
1040
1.0
1070
    74
1070
     0
1000
MTEXTEND
1000
MTEXTBEGIN
1070
    73
1070
     1
1070
    44
1040
1.0
1070
    74
1070
     0
1000
MTEXTEND
1000
MTEXTBEGIN
1070
    73
1070
     1
1070
    44
1040
1.0
1070
    74
1070
     0
1000
MTEXTEND
1000
MTEXTBEGIN
1070
    73
1070
     1
1070
    44
1040
1.0
1070
    74
1070
     0
1000
MTEXTEND
1000
MTEXTBEGIN
1070
    73
1070
     1
1070
    44
1040
1.0
1070
    74
1070
     0
1000
MTEXTEND
1000
MTEXTBEGIN
1070
    73
1070
     1
1070
    44
1040
1.0
1070
    74
1070
     0
1000
MTEXTEND
1000
MTEXTBEGIN
1070
    73
1070
     1
1070
    44
1040
1.0
1070
    74
1070
     0
1000
MTEXTEND
1000
MTEXTBEGIN
1070
    73
1070
     1
1070
    44
1040
1.0
1070
    74
1070
     0
1000
MTEXTEND
1000
MTEXTBEGIN
1070
    73
1070
     1
1070
    44
1040
1.0
1070
    74
1070
     0
1000
MTEXTEND
1000
MTEXTBEGIN
1070
    73
1070
     1
1070
    44
1040
1.0
1070
    74
1070
     0
1000
MTEXTEND
1000
MTEXTBEGIN
1070
    73
1070
     1
1070
    44
1040
1.0
1070
    74
1070
     0
1000
MTEXTEND
1000
MTEXTBEGIN
1070
    73
1070
     1
1070
    44
1040
1.0
1070
    74
1070
     0
1000
MTEXTEND
  0
POINT
  5
1779
330
1772
100
AcDbEntity
  8
DEFPOINTS
 62
     0
100
AcDbPoint
 10
1500.0
 20
3050.0
 30
0.0
  0
POINT
  5
177A
330
1772
100
AcDbEntity
  8
DEFPOINTS
 62
     0
100
AcDbPoint
 10
1500.0
 20
2850.0
 30
0.0
  0
POINT
  5
177B
330
1772
100
AcDbEntity
  8
DEFPOINTS
 62
     0
100
AcDbPoint
 10
1480.0
 20
2850.0
 30
0.0
  0
ENDBLK
  5
177D
330
1772
100
AcDbEntity
  8
0
100
AcDbBlockEnd
  0
BLOCK
  5
181D
330
1813
100
AcDbEntity
  8
0
100
AcDbBlockBegin
  2
*D13
 70
     1
 10
0.0
 20
0.0
 30
0.0
  3
*D13
  1

  0
LINE
  5
1814
330
1813
100
AcDbEntity
  8
SUNPO
 62
   144
100
AcDbLine
 10
1740.0
 20
2760.0
 30
0.0
 11
1860.0
 21
2760.0
 31
0.0
  0
LINE
  5
1815
330
1813
100
AcDbEntity
  8
SUNPO
 62
   144
100
AcDbLine
 10
1739.999999999999
 20
2360.0
 30
0.0
 11
1860.0
 21
2360.0
 31
0.0
  0
LINE
  5
1816
330
1813
100
AcDbEntity
  8
SUNPO
 62
   144
100
AcDbLine
 10
1850.0
 20
2732.0
 30
0.0
 11
1850.0
 21
2388.0
 31
0.0
  0
SOLID
  5
1817
330
1813
100
AcDbEntity
  8
SUNPO
 62
   144
100
AcDbTrace
 10
1845.333333333333
 20
2732.0
 30
0.0
 11
1854.666666666667
 21
2732.0
 31
0.0
 12
1850.0
 22
2760.0
 32
0.0
 13
1850.0
 23
2760.0
 33
0.0
  0
SOLID
  5
1818
330
1813
100
AcDbEntity
  8
SUNPO
 62
   144
100
AcDbTrace
 10
1845.333333333333
 20
2388.0
 30
0.0
 11
1854.666666666666
 21
2388.0
 31
0.0
 12
1850.0
 22
2360.0
 32
0.0
 13
1850.0
 23
2360.0
 33
0.0
  0
MTEXT
  5
1819
330
1813
100
AcDbEntity
  8
SUNPO
 62
     7
100
AcDbMText
 10
1819.499999999999
 20
2560.0
 30
0.0
 40
36.0
 41
0.0
 71
     5
 72
     1
  1
\A2;400
  7
ADD
 11
0.0000000000000001
 21
1.0
 31
0.0
1001
ACAD
1000
MTEXTBEGIN
1070
    73
1070
     1
1070
    44
1040
1.0
1070
    74
1070
     0
1000
MTEXTEND
1000
MTEXTBEGIN
1070
    73
1070
     1
1070
    44
1040
1.0
1070
    74
1070
     0
1000
MTEXTEND
1000
MTEXTBEGIN
1070
    73
1070
     1
1070
    44
1040
1.0
1070
    74
1070
     0
1000
MTEXTEND
1000
MTEXTBEGIN
1070
    73
1070
     1
1070
    44
1040
1.0
1070
    74
1070
     0
1000
MTEXTEND
1000
MTEXTBEGIN
1070
    73
1070
     1
1070
    44
1040
1.0
1070
    74
1070
     0
1000
MTEXTEND
1000
MTEXTBEGIN
1070
    73
1070
     1
1070
    44
1040
1.0
1070
    74
1070
     0
1000
MTEXTEND
1000
MTEXTBEGIN
1070
    73
1070
     1
1070
    44
1040
1.0
1070
    74
1070
     0
1000
MTEXTEND
1000
MTEXTBEGIN
1070
    73
1070
     1
1070
    44
1040
1.0
1070
    74
1070
     0
1000
MTEXTEND
1000
MTEXTBEGIN
1070
    73
1070
     1
1070
    44
1040
1.0
1070
    74
1070
     0
1000
MTEXTEND
1000
MTEXTBEGIN
1070
    73
1070
     1
1070
    44
1040
1.0
1070
    74
1070
     0
1000
MTEXTEND
1000
MTEXTBEGIN
1070
    73
1070
     1
1070
    44
1040
1.0
1070
    74
1070
     0
1000
MTEXTEND
1000
MTEXTBEGIN
1070
    73
1070
     1
1070
    44
1040
1.0
1070
    74
1070
     0
1000
MTEXTEND
1000
MTEXTBEGIN
1070
    73
1070
     1
1070
    44
1040
1.0
1070
    74
1070
     0
1000
MTEXTEND
1000
MTEXTBEGIN
1070
    73
1070
     1
1070
    44
1040
1.0
1070
    74
1070
     0
1000
MTEXTEND
1000
MTEXTBEGIN
1070
    73
1070
     1
1070
    44
1040
1.0
1070
    74
1070
     0
1000
MTEXTEND
1000
MTEXTBEGIN
1070
    73
1070
     1
1070
    44
1040
1.0
1070
    74
1070
     0
1000
MTEXTEND
1000
MTEXTBEGIN
1070
    73
1070
     1
1070
    44
1040
1.0
1070
    74
1070
     0
1000
MTEXTEND
  0
POINT
  5
181A
330
1813
100
AcDbEntity
  8
DEFPOINTS
 62
     0
100
AcDbPoint
 10
1719.999999999999
 20
2760.0
 30
0.0
  0
POINT
  5
181B
330
1813
100
AcDbEntity
  8
DEFPOINTS
 62
     0
100
AcDbPoint
 10
1719.999999999999
 20
2360.0
 30
0.0
  0
POINT
  5
181C
330
1813
100
AcDbEntity
  8
DEFPOINTS
 62
     0
100
AcDbPoint
 10
1850.0
 20
2360.0
 30
0.0
  0
ENDBLK
  5
181E
330
1813
100
AcDbEntity
  8
0
100
AcDbBlockEnd
  0
BLOCK
  5
182A
330
1820
100
AcDbEntity
  8
0
100
AcDbBlockBegin
  2
*D14
 70
     1
 10
0.0
 20
0.0
 30
0.0
  3
*D14
  1

  0
LINE
  5
1821
330
1820
100
AcDbEntity
  8
SUNPO
 62
   144
100
AcDbLine
 10
1740.0
 20
2857.0
 30
0.0
 11
1860.0
 21
2857.0
 31
0.0
  0
LINE
  5
1822
330
1820
100
AcDbEntity
  8
SUNPO
 62
   144
100
AcDbLine
 10
1740.0
 20
2760.0
 30
0.0
 11
1860.0
 21
2760.0
 31
0.0
  0
LINE
  5
1823
330
1820
100
AcDbEntity
  8
SUNPO
 62
   144
100
AcDbLine
 10
1850.0
 20
2829.0
 30
0.0
 11
1850.0
 21
2788.0
 31
0.0
  0
SOLID
  5
1824
330
1820
100
AcDbEntity
  8
SUNPO
 62
   144
100
AcDbTrace
 10
1845.333333333333
 20
2829.0
 30
0.0
 11
1854.666666666667
 21
2829.0
 31
0.0
 12
1850.0
 22
2857.0
 32
0.0
 13
1850.0
 23
2857.0
 33
0.0
  0
SOLID
  5
1825
330
1820
100
AcDbEntity
  8
SUNPO
 62
   144
100
AcDbTrace
 10
1845.333333333333
 20
2788.0
 30
0.0
 11
1854.666666666667
 21
2788.0
 31
0.0
 12
1850.0
 22
2760.0
 32
0.0
 13
1850.0
 23
2760.0
 33
0.0
  0
MTEXT
  5
1826
330
1820
100
AcDbEntity
  8
SUNPO
 62
     7
100
AcDbMText
 10
1819.499999999999
 20
2808.5
 30
0.0
 40
36.0
 41
0.0
 71
     5
 72
     1
  1
\A2;97
  7
ADD
 11
0.0000000000000001
 21
1.0
 31
0.0
1001
ACAD
1000
MTEXTBEGIN
1070
    73
1070
     1
1070
    44
1040
1.0
1070
    74
1070
     0
1000
MTEXTEND
1000
MTEXTBEGIN
1070
    73
1070
     1
1070
    44
1040
1.0
1070
    74
1070
     0
1000
MTEXTEND
1000
MTEXTBEGIN
1070
    73
1070
     1
1070
    44
1040
1.0
1070
    74
1070
     0
1000
MTEXTEND
1000
MTEXTBEGIN
1070
    73
1070
     1
1070
    44
1040
1.0
1070
    74
1070
     0
1000
MTEXTEND
1000
MTEXTBEGIN
1070
    73
1070
     1
1070
    44
1040
1.0
1070
    74
1070
     0
1000
MTEXTEND
1000
MTEXTBEGIN
1070
    73
1070
     1
1070
    44
1040
1.0
1070
    74
1070
     0
1000
MTEXTEND
1000
MTEXTBEGIN
1070
    73
1070
     1
1070
    44
1040
1.0
1070
    74
1070
     0
1000
MTEXTEND
1000
MTEXTBEGIN
1070
    73
1070
     1
1070
    44
1040
1.0
1070
    74
1070
     0
1000
MTEXTEND
1000
MTEXTBEGIN
1070
    73
1070
     1
1070
    44
1040
1.0
1070
    74
1070
     0
1000
MTEXTEND
1000
MTEXTBEGIN
1070
    73
1070
     1
1070
    44
1040
1.0
1070
    74
1070
     0
1000
MTEXTEND
1000
MTEXTBEGIN
1070
    73
1070
     1
1070
    44
1040
1.0
1070
    74
1070
     0
1000
MTEXTEND
1000
MTEXTBEGIN
1070
    73
1070
     1
1070
    44
1040
1.0
1070
    74
1070
     0
1000
MTEXTEND
1000
MTEXTBEGIN
1070
    73
1070
     1
1070
    44
1040
1.0
1070
    74
1070
     0
1000
MTEXTEND
1000
MTEXTBEGIN
1070
    73
1070
     1
1070
    44
1040
1.0
1070
    74
1070
     0
1000
MTEXTEND
1000
MTEXTBEGIN
1070
    73
1070
     1
1070
    44
1040
1.0
1070
    74
1070
     0
1000
MTEXTEND
1000
MTEXTBEGIN
1070
    73
1070
     1
1070
    44
1040
1.0
1070
    74
1070
     0
1000
MTEXTEND
1000
MTEXTBEGIN
1070
    73
1070
     1
1070
    44
1040
1.0
1070
    74
1070
     0
1000
MTEXTEND
  0
POINT
  5
1827
330
1820
100
AcDbEntity
  8
DEFPOINTS
 62
     0
100
AcDbPoint
 10
1720.0
 20
2857.0
 30
0.0
  0
POINT
  5
1828
330
1820
100
AcDbEntity
  8
DEFPOINTS
 62
     0
100
AcDbPoint
 10
1719.999999999999
 20
2760.0
 30
0.0
  0
POINT
  5
1829
330
1820
100
AcDbEntity
  8
DEFPOINTS
 62
     0
100
AcDbPoint
 10
1850.0
 20
2760.0
 30
0.0
  0
ENDBLK
  5
182B
330
1820
100
AcDbEntity
  8
0
100
AcDbBlockEnd
  0
BLOCK
  5
1837
330
182D
100
AcDbEntity
  8
0
100
AcDbBlockBegin
  2
*D15
 70
     1
 10
0.0
 20
0.0
 30
0.0
  3
*D15
  1

  0
LINE
  5
182E
330
182D
100
AcDbEntity
  8
SUNPO
 62
   144
100
AcDbLine
 10
1739.999999999999
 20
2270.0
 30
0.0
 11
1860.0
 21
2270.0
 31
0.0
  0
LINE
  5
182F
330
182D
100
AcDbEntity
  8
SUNPO
 62
   144
100
AcDbLine
 10
1739.999999999999
 20
2360.0
 30
0.0
 11
1860.0
 21
2360.0
 31
0.0
  0
LINE
  5
1830
330
182D
100
AcDbEntity
  8
SUNPO
 62
   144
100
AcDbLine
 10
1850.0
 20
2298.0
 30
0.0
 11
1850.0
 21
2332.0
 31
0.0
  0
SOLID
  5
1831
330
182D
100
AcDbEntity
  8
SUNPO
 62
   144
100
AcDbTrace
 10
1845.333333333333
 20
2298.0
 30
0.0
 11
1854.666666666666
 21
2298.0
 31
0.0
 12
1850.0
 22
2270.0
 32
0.0
 13
1850.0
 23
2270.0
 33
0.0
  0
SOLID
  5
1832
330
182D
100
AcDbEntity
  8
SUNPO
 62
   144
100
AcDbTrace
 10
1845.333333333333
 20
2332.0
 30
0.0
 11
1854.666666666666
 21
2332.0
 31
0.0
 12
1850.0
 22
2360.0
 32
0.0
 13
1850.0
 23
2360.0
 33
0.0
  0
MTEXT
  5
1833
330
182D
100
AcDbEntity
  8
SUNPO
 62
     7
100
AcDbMText
 10
1819.499999999999
 20
2315.0
 30
0.0
 40
36.0
 41
0.0
 71
     5
 72
     1
  1
\A2;90
  7
ADD
 11
0.0000000000000001
 21
1.0
 31
0.0
1001
ACAD
1000
MTEXTBEGIN
1070
    73
1070
     1
1070
    44
1040
1.0
1070
    74
1070
     0
1000
MTEXTEND
1000
MTEXTBEGIN
1070
    73
1070
     1
1070
    44
1040
1.0
1070
    74
1070
     0
1000
MTEXTEND
1000
MTEXTBEGIN
1070
    73
1070
     1
1070
    44
1040
1.0
1070
    74
1070
     0
1000
MTEXTEND
1000
MTEXTBEGIN
1070
    73
1070
     1
1070
    44
1040
1.0
1070
    74
1070
     0
1000
MTEXTEND
1000
MTEXTBEGIN
1070
    73
1070
     1
1070
    44
1040
1.0
1070
    74
1070
     0
1000
MTEXTEND
1000
MTEXTBEGIN
1070
    73
1070
     1
1070
    44
1040
1.0
1070
    74
1070
     0
1000
MTEXTEND
1000
MTEXTBEGIN
1070
    73
1070
     1
1070
    44
1040
1.0
1070
    74
1070
     0
1000
MTEXTEND
1000
MTEXTBEGIN
1070
    73
1070
     1
1070
    44
1040
1.0
1070
    74
1070
     0
1000
MTEXTEND
1000
MTEXTBEGIN
1070
    73
1070
     1
1070
    44
1040
1.0
1070
    74
1070
     0
1000
MTEXTEND
1000
MTEXTBEGIN
1070
    73
1070
     1
1070
    44
1040
1.0
1070
    74
1070
     0
1000
MTEXTEND
1000
MTEXTBEGIN
1070
    73
1070
     1
1070
    44
1040
1.0
1070
    74
1070
     0
1000
MTEXTEND
1000
MTEXTBEGIN
1070
    73
1070
     1
1070
    44
1040
1.0
1070
    74
1070
     0
1000
MTEXTEND
1000
MTEXTBEGIN
1070
    73
1070
     1
1070
    44
1040
1.0
1070
    74
1070
     0
1000
MTEXTEND
1000
MTEXTBEGIN
1070
    73
1070
     1
1070
    44
1040
1.0
1070
    74
1070
     0
1000
MTEXTEND
1000
MTEXTBEGIN
1070
    73
1070
     1
1070
    44
1040
1.0
1070
    74
1070
     0
1000
MTEXTEND
1000
MTEXTBEGIN
1070
    73
1070
     1
1070
    44
1040
1.0
1070
    74
1070
     0
1000
MTEXTEND
1000
MTEXTBEGIN
1070
    73
1070
     1
1070
    44
1040
1.0
1070
    74
1070
     0
1000
MTEXTEND
  0
POINT
  5
1834
330
182D
100
AcDbEntity
  8
DEFPOINTS
 62
     0
100
AcDbPoint
 10
1719.999999999999
 20
2270.0
 30
0.0
  0
POINT
  5
1835
330
182D
100
AcDbEntity
  8
DEFPOINTS
 62
     0
100
AcDbPoint
 10
1719.999999999999
 20
2360.0
 30
0.0
  0
POINT
  5
1836
330
182D
100
AcDbEntity
  8
DEFPOINTS
 62
     0
100
AcDbPoint
 10
1850.0
 20
2360.0
 30
0.0
  0
ENDBLK
  5
1838
330
182D
100
AcDbEntity
  8
0
100
AcDbBlockEnd
  0
BLOCK
  5
187C
330
1872
100
AcDbEntity
  8
0
100
AcDbBlockBegin
  2
*D16
 70
     1
 10
0.0
 20
0.0
 30
0.0
  3
*D16
  1

  0
LINE
  5
1873
330
1872
100
AcDbEntity
  8
SUNPO
 62
   144
100
AcDbLine
 10
1404.0
 20
2870.0
 30
0.0
 11
1404.0
 21
3260.0
 31
0.0
  0
LINE
  5
1874
330
1872
100
AcDbEntity
  8
SUNPO
 62
   144
100
AcDbLine
 10
1280.0
 20
2877.0
 30
0.0
 11
1280.0
 21
3260.0
 31
0.0
  0
LINE
  5
1875
330
1872
100
AcDbEntity
  8
SUNPO
 62
   144
100
AcDbLine
 10
1376.0
 20
3250.0
 30
0.0
 11
1308.0
 21
3250.0
 31
0.0
  0
SOLID
  5
1876
330
1872
100
AcDbEntity
  8
SUNPO
 62
   144
100
AcDbTrace
 10
1376.0
 20
3254.666666666667
 30
0.0
 11
1376.0
 21
3245.333333333333
 31
0.0
 12
1404.0
 22
3250.0
 32
0.0
 13
1404.0
 23
3250.0
 33
0.0
  0
SOLID
  5
1877
330
1872
100
AcDbEntity
  8
SUNPO
 62
   144
100
AcDbTrace
 10
1308.0
 20
3254.666666666667
 30
0.0
 11
1308.0
 21
3245.333333333333
 31
0.0
 12
1280.0
 22
3250.0
 32
0.0
 13
1280.0
 23
3250.0
 33
0.0
  0
MTEXT
  5
1878
330
1872
100
AcDbEntity
  8
SUNPO
 62
     7
100
AcDbMText
 10
1342.0
 20
3280.499999999999
 30
0.0
 40
36.0
 41
0.0
 71
     5
 72
     1
  1
\A2;124
  7
ADD
1001
ACAD
1000
MTEXTBEGIN
1070
    73
1070
     1
1070
    44
1040
1.0
1070
    74
1070
     0
1000
MTEXTEND
1000
MTEXTBEGIN
1070
    73
1070
     1
1070
    44
1040
1.0
1070
    74
1070
     0
1000
MTEXTEND
1000
MTEXTBEGIN
1070
    73
1070
     1
1070
    44
1040
1.0
1070
    74
1070
     0
1000
MTEXTEND
1000
MTEXTBEGIN
1070
    73
1070
     1
1070
    44
1040
1.0
1070
    74
1070
     0
1000
MTEXTEND
1000
MTEXTBEGIN
1070
    73
1070
     1
1070
    44
1040
1.0
1070
    74
1070
     0
1000
MTEXTEND
1000
MTEXTBEGIN
1070
    73
1070
     1
1070
    44
1040
1.0
1070
    74
1070
     0
1000
MTEXTEND
1000
MTEXTBEGIN
1070
    73
1070
     1
1070
    44
1040
1.0
1070
    74
1070
     0
1000
MTEXTEND
1000
MTEXTBEGIN
1070
    73
1070
     1
1070
    44
1040
1.0
1070
    74
1070
     0
1000
MTEXTEND
1000
MTEXTBEGIN
1070
    73
1070
     1
1070
    44
1040
1.0
1070
    74
1070
     0
1000
MTEXTEND
1000
MTEXTBEGIN
1070
    73
1070
     1
1070
    44
1040
1.0
1070
    74
1070
     0
1000
MTEXTEND
1000
MTEXTBEGIN
1070
    73
1070
     1
1070
    44
1040
1.0
1070
    74
1070
     0
1000
MTEXTEND
1000
MTEXTBEGIN
1070
    73
1070
     1
1070
    44
1040
1.0
1070
    74
1070
     0
1000
MTEXTEND
1000
MTEXTBEGIN
1070
    73
1070
     1
1070
    44
1040
1.0
1070
    74
1070
     0
1000
MTEXTEND
1000
MTEXTBEGIN
1070
    73
1070
     1
1070
    44
1040
1.0
1070
    74
1070
     0
1000
MTEXTEND
1000
MTEXTBEGIN
1070
    73
1070
     1
1070
    44
1040
1.0
1070
    74
1070
     0
1000
MTEXTEND
1000
MTEXTBEGIN
1070
    73
1070
     1
1070
    44
1040
1.0
1070
    74
1070
     0
1000
MTEXTEND
1000
MTEXTBEGIN
1070
    73
1070
     1
1070
    44
1040
1.0
1070
    74
1070
     0
1000
MTEXTEND
  0
POINT
  5
1879
330
1872
100
AcDbEntity
  8
DEFPOINTS
 62
     0
100
AcDbPoint
 10
1404.0
 20
2850.0
 30
0.0
  0
POINT
  5
187A
330
1872
100
AcDbEntity
  8
DEFPOINTS
 62
     0
100
AcDbPoint
 10
1280.0
 20
2857.0
 30
0.0
  0
POINT
  5
187B
330
1872
100
AcDbEntity
  8
DEFPOINTS
 62
     0
100
AcDbPoint
 10
1280.0
 20
3250.0
 30
0.0
  0
ENDBLK
  5
187D
330
1872
100
AcDbEntity
  8
0
100
AcDbBlockEnd
  0
BLOCK
  5
1889
330
187F
100
AcDbEntity
  8
0
100
AcDbBlockBegin
  2
*D17
 70
     1
 10
0.0
 20
0.0
 30
0.0
  3
*D17
  1

  0
LINE
  5
1880
330
187F
100
AcDbEntity
  8
SUNPO
 62
   144
100
AcDbLine
 10
1596.0
 20
2869.999999999999
 30
0.0
 11
1596.0
 21
3260.0
 31
0.0
  0
LINE
  5
1881
330
187F
100
AcDbEntity
  8
SUNPO
 62
   144
100
AcDbLine
 10
1720.0
 20
2877.0
 30
0.0
 11
1720.0
 21
3260.0
 31
0.0
  0
LINE
  5
1882
330
187F
100
AcDbEntity
  8
SUNPO
 62
   144
100
AcDbLine
 10
1624.0
 20
3250.0
 30
0.0
 11
1692.0
 21
3250.0
 31
0.0
  0
SOLID
  5
1883
330
187F
100
AcDbEntity
  8
SUNPO
 62
   144
100
AcDbTrace
 10
1624.0
 20
3254.666666666667
 30
0.0
 11
1624.0
 21
3245.333333333333
 31
0.0
 12
1596.0
 22
3250.0
 32
0.0
 13
1596.0
 23
3250.0
 33
0.0
  0
SOLID
  5
1884
330
187F
100
AcDbEntity
  8
SUNPO
 62
   144
100
AcDbTrace
 10
1692.0
 20
3254.666666666667
 30
0.0
 11
1692.0
 21
3245.333333333333
 31
0.0
 12
1720.0
 22
3250.0
 32
0.0
 13
1720.0
 23
3250.0
 33
0.0
  0
MTEXT
  5
1885
330
187F
100
AcDbEntity
  8
SUNPO
 62
     7
100
AcDbMText
 10
1658.0
 20
3280.499999999999
 30
0.0
 40
36.0
 41
0.0
 71
     5
 72
     1
  1
\A2;124
  7
ADD
1001
ACAD
1000
MTEXTBEGIN
1070
    73
1070
     1
1070
    44
1040
1.0
1070
    74
1070
     0
1000
MTEXTEND
1000
MTEXTBEGIN
1070
    73
1070
     1
1070
    44
1040
1.0
1070
    74
1070
     0
1000
MTEXTEND
1000
MTEXTBEGIN
1070
    73
1070
     1
1070
    44
1040
1.0
1070
    74
1070
     0
1000
MTEXTEND
1000
MTEXTBEGIN
1070
    73
1070
     1
1070
    44
1040
1.0
1070
    74
1070
     0
1000
MTEXTEND
1000
MTEXTBEGIN
1070
    73
1070
     1
1070
    44
1040
1.0
1070
    74
1070
     0
1000
MTEXTEND
1000
MTEXTBEGIN
1070
    73
1070
     1
1070
    44
1040
1.0
1070
    74
1070
     0
1000
MTEXTEND
1000
MTEXTBEGIN
1070
    73
1070
     1
1070
    44
1040
1.0
1070
    74
1070
     0
1000
MTEXTEND
1000
MTEXTBEGIN
1070
    73
1070
     1
1070
    44
1040
1.0
1070
    74
1070
     0
1000
MTEXTEND
1000
MTEXTBEGIN
1070
    73
1070
     1
1070
    44
1040
1.0
1070
    74
1070
     0
1000
MTEXTEND
1000
MTEXTBEGIN
1070
    73
1070
     1
1070
    44
1040
1.0
1070
    74
1070
     0
1000
MTEXTEND
1000
MTEXTBEGIN
1070
    73
1070
     1
1070
    44
1040
1.0
1070
    74
1070
     0
1000
MTEXTEND
1000
MTEXTBEGIN
1070
    73
1070
     1
1070
    44
1040
1.0
1070
    74
1070
     0
1000
MTEXTEND
1000
MTEXTBEGIN
1070
    73
1070
     1
1070
    44
1040
1.0
1070
    74
1070
     0
1000
MTEXTEND
1000
MTEXTBEGIN
1070
    73
1070
     1
1070
    44
1040
1.0
1070
    74
1070
     0
1000
MTEXTEND
1000
MTEXTBEGIN
1070
    73
1070
     1
1070
    44
1040
1.0
1070
    74
1070
     0
1000
MTEXTEND
1000
MTEXTBEGIN
1070
    73
1070
     1
1070
    44
1040
1.0
1070
    74
1070
     0
1000
MTEXTEND
1000
MTEXTBEGIN
1070
    73
1070
     1
1070
    44
1040
1.0
1070
    74
1070
     0
1000
MTEXTEND
  0
POINT
  5
1886
330
187F
100
AcDbEntity
  8
DEFPOINTS
 62
     0
100
AcDbPoint
 10
1596.0
 20
2849.999999999999
 30
0.0
  0
POINT
  5
1887
330
187F
100
AcDbEntity
  8
DEFPOINTS
 62
     0
100
AcDbPoint
 10
1720.0
 20
2857.0
 30
0.0
  0
POINT
  5
1888
330
187F
100
AcDbEntity
  8
DEFPOINTS
 62
     0
100
AcDbPoint
 10
1720.0
 20
3250.0
 30
0.0
  0
ENDBLK
  5
188A
330
187F
100
AcDbEntity
  8
0
100
AcDbBlockEnd
  0
BLOCK
  5
1896
330
188C
100
AcDbEntity
  8
0
100
AcDbBlockBegin
  2
*D18
 70
     1
 10
0.0
 20
0.0
 30
0.0
  3
*D18
  1

  0
LINE
  5
188D
330
188C
100
AcDbEntity
  8
SUNPO
 62
   144
100
AcDbLine
 10
1720.0
 20
2877.0
 30
0.0
 11
1720.0
 21
3360.0
 31
0.0
  0
LINE
  5
188E
330
188C
100
AcDbEntity
  8
SUNPO
 62
   144
100
AcDbLine
 10
1280.0
 20
2877.0
 30
0.0
 11
1280.0
 21
3360.0
 31
0.0
  0
LINE
  5
188F
330
188C
100
AcDbEntity
  8
SUNPO
 62
   144
100
AcDbLine
 10
1692.0
 20
3350.0
 30
0.0
 11
1308.0
 21
3350.0
 31
0.0
  0
SOLID
  5
1890
330
188C
100
AcDbEntity
  8
SUNPO
 62
   144
100
AcDbTrace
 10
1692.0
 20
3354.666666666666
 30
0.0
 11
1692.0
 21
3345.333333333333
 31
0.0
 12
1720.0
 22
3350.0
 32
0.0
 13
1720.0
 23
3350.0
 33
0.0
  0
SOLID
  5
1891
330
188C
100
AcDbEntity
  8
SUNPO
 62
   144
100
AcDbTrace
 10
1308.0
 20
3354.666666666666
 30
0.0
 11
1308.0
 21
3345.333333333333
 31
0.0
 12
1280.0
 22
3350.0
 32
0.0
 13
1280.0
 23
3350.0
 33
0.0
  0
MTEXT
  5
1892
330
188C
100
AcDbEntity
  8
SUNPO
 62
     7
100
AcDbMText
 10
1500.0
 20
3380.5
 30
0.0
 40
36.0
 41
0.0
 71
     5
 72
     1
  1
\A2;440
  7
ADD
1001
ACAD
1000
MTEXTBEGIN
1070
    73
1070
     1
1070
    44
1040
1.0
1070
    74
1070
     0
1000
MTEXTEND
1000
MTEXTBEGIN
1070
    73
1070
     1
1070
    44
1040
1.0
1070
    74
1070
     0
1000
MTEXTEND
1000
MTEXTBEGIN
1070
    73
1070
     1
1070
    44
1040
1.0
1070
    74
1070
     0
1000
MTEXTEND
1000
MTEXTBEGIN
1070
    73
1070
     1
1070
    44
1040
1.0
1070
    74
1070
     0
1000
MTEXTEND
1000
MTEXTBEGIN
1070
    73
1070
     1
1070
    44
1040
1.0
1070
    74
1070
     0
1000
MTEXTEND
1000
MTEXTBEGIN
1070
    73
1070
     1
1070
    44
1040
1.0
1070
    74
1070
     0
1000
MTEXTEND
1000
MTEXTBEGIN
1070
    73
1070
     1
1070
    44
1040
1.0
1070
    74
1070
     0
1000
MTEXTEND
1000
MTEXTBEGIN
1070
    73
1070
     1
1070
    44
1040
1.0
1070
    74
1070
     0
1000
MTEXTEND
1000
MTEXTBEGIN
1070
    73
1070
     1
1070
    44
1040
1.0
1070
    74
1070
     0
1000
MTEXTEND
1000
MTEXTBEGIN
1070
    73
1070
     1
1070
    44
1040
1.0
1070
    74
1070
     0
1000
MTEXTEND
1000
MTEXTBEGIN
1070
    73
1070
     1
1070
    44
1040
1.0
1070
    74
1070
     0
1000
MTEXTEND
1000
MTEXTBEGIN
1070
    73
1070
     1
1070
    44
1040
1.0
1070
    74
1070
     0
1000
MTEXTEND
1000
MTEXTBEGIN
1070
    73
1070
     1
1070
    44
1040
1.0
1070
    74
1070
     0
1000
MTEXTEND
1000
MTEXTBEGIN
1070
    73
1070
     1
1070
    44
1040
1.0
1070
    74
1070
     0
1000
MTEXTEND
1000
MTEXTBEGIN
1070
    73
1070
     1
1070
    44
1040
1.0
1070
    74
1070
     0
1000
MTEXTEND
1000
MTEXTBEGIN
1070
    73
1070
     1
1070
    44
1040
1.0
1070
    74
1070
     0
1000
MTEXTEND
1000
MTEXTBEGIN
1070
    73
1070
     1
1070
    44
1040
1.0
1070
    74
1070
     0
1000
MTEXTEND
  0
POINT
  5
1893
330
188C
100
AcDbEntity
  8
DEFPOINTS
 62
     0
100
AcDbPoint
 10
1720.0
 20
2857.0
 30
0.0
  0
POINT
  5
1894
330
188C
100
AcDbEntity
  8
DEFPOINTS
 62
     0
100
AcDbPoint
 10
1280.0
 20
2857.0
 30
0.0
  0
POINT
  5
1895
330
188C
100
AcDbEntity
  8
DEFPOINTS
 62
     0
100
AcDbPoint
 10
1280.0
 20
3350.0
 30
0.0
  0
ENDBLK
  5
1897
330
188C
100
AcDbEntity
  8
0
100
AcDbBlockEnd
  0
BLOCK
  5
18E4
330
18DA
100
AcDbEntity
  8
0
100
AcDbBlockBegin
  2
*D19
 70
     1
 10
0.0
 20
0.0
 30
0.0
  3
*D19
  1

  0
LINE
  5
18DB
330
18DA
100
AcDbEntity
  8
SUNPO
 62
   144
100
AcDbLine
 10
2629.999999999999
 20
1730.0
 30
0.0
 11
2440.0
 21
1730.0
 31
0.0
  0
LINE
  5
18DC
330
18DA
100
AcDbEntity
  8
SUNPO
 62
   144
100
AcDbLine
 10
2629.999999999999
 20
1430.0
 30
0.0
 11
2440.0
 21
1430.0
 31
0.0
  0
LINE
  5
18DD
330
18DA
100
AcDbEntity
  8
SUNPO
 62
   144
100
AcDbLine
 10
2450.0
 20
1702.0
 30
0.0
 11
2450.0
 21
1458.0
 31
0.0
  0
SOLID
  5
18DE
330
18DA
100
AcDbEntity
  8
SUNPO
 62
   144
100
AcDbTrace
 10
2445.333333333334
 20
1702.0
 30
0.0
 11
2454.666666666666
 21
1702.0
 31
0.0
 12
2450.0
 22
1730.0
 32
0.0
 13
2450.0
 23
1730.0
 33
0.0
  0
SOLID
  5
18DF
330
18DA
100
AcDbEntity
  8
SUNPO
 62
   144
100
AcDbTrace
 10
2445.333333333334
 20
1458.0
 30
0.0
 11
2454.666666666666
 21
1458.0
 31
0.0
 12
2450.0
 22
1430.0
 32
0.0
 13
2450.0
 23
1430.0
 33
0.0
  0
MTEXT
  5
18E0
330
18DA
100
AcDbEntity
  8
SUNPO
 62
     7
100
AcDbMText
 10
2419.499999999999
 20
1580.0
 30
0.0
 40
36.0
 41
0.0
 71
     5
 72
     1
  1
\A2;300
  7
ADD
 11
0.0000000000000001
 21
1.0
 31
0.0
1001
ACAD
1000
MTEXTBEGIN
1070
    73
1070
     1
1070
    44
1040
1.0
1070
    74
1070
     0
1000
MTEXTEND
1000
MTEXTBEGIN
1070
    73
1070
     1
1070
    44
1040
1.0
1070
    74
1070
     0
1000
MTEXTEND
1000
MTEXTBEGIN
1070
    73
1070
     1
1070
    44
1040
1.0
1070
    74
1070
     0
1000
MTEXTEND
1000
MTEXTBEGIN
1070
    73
1070
     1
1070
    44
1040
1.0
1070
    74
1070
     0
1000
MTEXTEND
1000
MTEXTBEGIN
1070
    73
1070
     1
1070
    44
1040
1.0
1070
    74
1070
     0
1000
MTEXTEND
1000
MTEXTBEGIN
1070
    73
1070
     1
1070
    44
1040
1.0
1070
    74
1070
     0
1000
MTEXTEND
1000
MTEXTBEGIN
1070
    73
1070
     1
1070
    44
1040
1.0
1070
    74
1070
     0
1000
MTEXTEND
1000
MTEXTBEGIN
1070
    73
1070
     1
1070
    44
1040
1.0
1070
    74
1070
     0
1000
MTEXTEND
1000
MTEXTBEGIN
1070
    73
1070
     1
1070
    44
1040
1.0
1070
    74
1070
     0
1000
MTEXTEND
1000
MTEXTBEGIN
1070
    73
1070
     1
1070
    44
1040
1.0
1070
    74
1070
     0
1000
MTEXTEND
1000
MTEXTBEGIN
1070
    73
1070
     1
1070
    44
1040
1.0
1070
    74
1070
     0
1000
MTEXTEND
1000
MTEXTBEGIN
1070
    73
1070
     1
1070
    44
1040
1.0
1070
    74
1070
     0
1000
MTEXTEND
1000
MTEXTBEGIN
1070
    73
1070
     1
1070
    44
1040
1.0
1070
    74
1070
     0
1000
MTEXTEND
1000
MTEXTBEGIN
1070
    73
1070
     1
1070
    44
1040
1.0
1070
    74
1070
     0
1000
MTEXTEND
1000
MTEXTBEGIN
1070
    73
1070
     1
1070
    44
1040
1.0
1070
    74
1070
     0
1000
MTEXTEND
1000
MTEXTBEGIN
1070
    73
1070
     1
1070
    44
1040
1.0
1070
    74
1070
     0
1000
MTEXTEND
1000
MTEXTBEGIN
1070
    73
1070
     1
1070
    44
1040
1.0
1070
    74
1070
     0
1000
MTEXTEND
  0
POINT
  5
18E1
330
18DA
100
AcDbEntity
  8
DEFPOINTS
 62
     0
100
AcDbPoint
 10
2649.999999999999
 20
1730.0
 30
0.0
  0
POINT
  5
18E2
330
18DA
100
AcDbEntity
  8
DEFPOINTS
 62
     0
100
AcDbPoint
 10
2649.999999999999
 20
1430.0
 30
0.0
  0
POINT
  5
18E3
330
18DA
100
AcDbEntity
  8
DEFPOINTS
 62
     0
100
AcDbPoint
 10
2450.0
 20
1430.0
 30
0.0
  0
ENDBLK
  5
18E5
330
18DA
100
AcDbEntity
  8
0
100
AcDbBlockEnd
  0
BLOCK
  5
18F3
330
18E7
100
AcDbEntity
  8
0
100
AcDbBlockBegin
  2
*D20
 70
     1
 10
0.0
 20
0.0
 30
0.0
  3
*D20
  1

  0
LINE
  5
18E8
330
18E7
100
AcDbEntity
  8
SUNPO
 62
   144
100
AcDbLine
 10
2629.999999999999
 20
1800.0
 30
0.0
 11
2440.0
 21
1800.0
 31
0.0
  0
LINE
  5
18E9
330
18E7
100
AcDbEntity
  8
SUNPO
 62
   144
100
AcDbLine
 10
2629.999999999999
 20
1730.0
 30
0.0
 11
2440.0
 21
1730.0
 31
0.0
  0
LINE
  5
18EA
330
18E7
100
AcDbEntity
  8
SUNPO
 62
   144
100
AcDbLine
 10
2450.0
 20
1828.0
 30
0.0
 11
2450.0
 21
1856.0
 31
0.0
  0
LINE
  5
18EB
330
18E7
100
AcDbEntity
  8
SUNPO
 62
   144
100
AcDbLine
 10
2450.0
 20
1702.0
 30
0.0
 11
2450.0
 21
1674.0
 31
0.0
  0
LINE
  5
18EC
330
18E7
100
AcDbEntity
  8
SUNPO
 62
   144
100
AcDbLine
 10
2450.0
 20
1800.0
 30
0.0
 11
2450.0
 21
1730.0
 31
0.0
  0
SOLID
  5
18ED
330
18E7
100
AcDbEntity
  8
SUNPO
 62
   144
100
AcDbTrace
 10
2445.333333333334
 20
1828.0
 30
0.0
 11
2454.666666666666
 21
1828.0
 31
0.0
 12
2450.0
 22
1800.0
 32
0.0
 13
2450.0
 23
1800.0
 33
0.0
  0
SOLID
  5
18EE
330
18E7
100
AcDbEntity
  8
SUNPO
 62
   144
100
AcDbTrace
 10
2445.333333333334
 20
1702.0
 30
0.0
 11
2454.666666666666
 21
1702.0
 31
0.0
 12
2450.0
 22
1730.0
 32
0.0
 13
2450.0
 23
1730.0
 33
0.0
  0
MTEXT
  5
18EF
330
18E7
100
AcDbEntity
  8
SUNPO
 62
     7
100
AcDbMText
 10
2419.499999999999
 20
1765.0
 30
0.0
 40
36.0
 41
0.0
 71
     5
 72
     1
  1
\A2;70
  7
ADD
 11
0.0000000000000001
 21
1.0
 31
0.0
1001
ACAD
1000
MTEXTBEGIN
1070
    73
1070
     1
1070
    44
1040
1.0
1070
    74
1070
     0
1000
MTEXTEND
1000
MTEXTBEGIN
1070
    73
1070
     1
1070
    44
1040
1.0
1070
    74
1070
     0
1000
MTEXTEND
1000
MTEXTBEGIN
1070
    73
1070
     1
1070
    44
1040
1.0
1070
    74
1070
     0
1000
MTEXTEND
1000
MTEXTBEGIN
1070
    73
1070
     1
1070
    44
1040
1.0
1070
    74
1070
     0
1000
MTEXTEND
1000
MTEXTBEGIN
1070
    73
1070
     1
1070
    44
1040
1.0
1070
    74
1070
     0
1000
MTEXTEND
1000
MTEXTBEGIN
1070
    73
1070
     1
1070
    44
1040
1.0
1070
    74
1070
     0
1000
MTEXTEND
1000
MTEXTBEGIN
1070
    73
1070
     1
1070
    44
1040
1.0
1070
    74
1070
     0
1000
MTEXTEND
1000
MTEXTBEGIN
1070
    73
1070
     1
1070
    44
1040
1.0
1070
    74
1070
     0
1000
MTEXTEND
1000
MTEXTBEGIN
1070
    73
1070
     1
1070
    44
1040
1.0
1070
    74
1070
     0
1000
MTEXTEND
1000
MTEXTBEGIN
1070
    73
1070
     1
1070
    44
1040
1.0
1070
    74
1070
     0
1000
MTEXTEND
1000
MTEXTBEGIN
1070
    73
1070
     1
1070
    44
1040
1.0
1070
    74
1070
     0
1000
MTEXTEND
1000
MTEXTBEGIN
1070
    73
1070
     1
1070
    44
1040
1.0
1070
    74
1070
     0
1000
MTEXTEND
1000
MTEXTBEGIN
1070
    73
1070
     1
1070
    44
1040
1.0
1070
    74
1070
     0
1000
MTEXTEND
1000
MTEXTBEGIN
1070
    73
1070
     1
1070
    44
1040
1.0
1070
    74
1070
     0
1000
MTEXTEND
1000
MTEXTBEGIN
1070
    73
1070
     1
1070
    44
1040
1.0
1070
    74
1070
     0
1000
MTEXTEND
1000
MTEXTBEGIN
1070
    73
1070
     1
1070
    44
1040
1.0
1070
    74
1070
     0
1000
MTEXTEND
1000
MTEXTBEGIN
1070
    73
1070
     1
1070
    44
1040
1.0
1070
    74
1070
     0
1000
MTEXTEND
  0
POINT
  5
18F0
330
18E7
100
AcDbEntity
  8
DEFPOINTS
 62
     0
100
AcDbPoint
 10
2649.999999999999
 20
1800.0
 30
0.0
  0
POINT
  5
18F1
330
18E7
100
AcDbEntity
  8
DEFPOINTS
 62
     0
100
AcDbPoint
 10
2649.999999999999
 20
1730.0
 30
0.0
  0
POINT
  5
18F2
330
18E7
100
AcDbEntity
  8
DEFPOINTS
 62
     0
100
AcDbPoint
 10
2450.0
 20
1730.0
 30
0.0
  0
ENDBLK
  5
18F4
330
18E7
100
AcDbEntity
  8
0
100
AcDbBlockEnd
  0
BLOCK
  5
1902
330
18F6
100
AcDbEntity
  8
0
100
AcDbBlockBegin
  2
*D21
 70
     1
 10
0.0
 20
0.0
 30
0.0
  3
*D21
  1

  0
LINE
  5
18F7
330
18F6
100
AcDbEntity
  8
SUNPO
 62
   144
100
AcDbLine
 10
2629.999999999999
 20
1360.0
 30
0.0
 11
2442.333333333333
 21
1360.0
 31
0.0
  0
LINE
  5
18F8
330
18F6
100
AcDbEntity
  8
SUNPO
 62
   144
100
AcDbLine
 10
2629.999999999999
 20
1430.0
 30
0.0
 11
2442.333333333333
 21
1430.0
 31
0.0
  0
LINE
  5
18F9
330
18F6
100
AcDbEntity
  8
SUNPO
 62
   144
100
AcDbLine
 10
2452.333333333333
 20
1332.0
 30
0.0
 11
2452.333333333333
 21
1304.0
 31
0.0
  0
LINE
  5
18FA
330
18F6
100
AcDbEntity
  8
SUNPO
 62
   144
100
AcDbLine
 10
2452.333333333333
 20
1458.0
 30
0.0
 11
2452.333333333333
 21
1486.0
 31
0.0
  0
LINE
  5
18FB
330
18F6
100
AcDbEntity
  8
SUNPO
 62
   144
100
AcDbLine
 10
2452.333333333333
 20
1360.0
 30
0.0
 11
2452.333333333333
 21
1430.0
 31
0.0
  0
SOLID
  5
18FC
330
18F6
100
AcDbEntity
  8
SUNPO
 62
   144
100
AcDbTrace
 10
2447.666666666666
 20
1332.0
 30
0.0
 11
2456.999999999999
 21
1332.0
 31
0.0
 12
2452.333333333333
 22
1360.0
 32
0.0
 13
2452.333333333333
 23
1360.0
 33
0.0
  0
SOLID
  5
18FD
330
18F6
100
AcDbEntity
  8
SUNPO
 62
   144
100
AcDbTrace
 10
2447.666666666666
 20
1458.0
 30
0.0
 11
2456.999999999999
 21
1458.0
 31
0.0
 12
2452.333333333333
 22
1430.0
 32
0.0
 13
2452.333333333333
 23
1430.0
 33
0.0
  0
MTEXT
  5
18FE
330
18F6
100
AcDbEntity
  8
SUNPO
 62
     7
100
AcDbMText
 10
2421.833333333332
 20
1395.0
 30
0.0
 40
36.0
 41
0.0
 71
     5
 72
     1
  1
\A2;70
  7
ADD
 11
0.0000000000000001
 21
1.0
 31
0.0
1001
ACAD
1000
MTEXTBEGIN
1070
    73
1070
     1
1070
    44
1040
1.0
1070
    74
1070
     0
1000
MTEXTEND
1000
MTEXTBEGIN
1070
    73
1070
     1
1070
    44
1040
1.0
1070
    74
1070
     0
1000
MTEXTEND
1000
MTEXTBEGIN
1070
    73
1070
     1
1070
    44
1040
1.0
1070
    74
1070
     0
1000
MTEXTEND
1000
MTEXTBEGIN
1070
    73
1070
     1
1070
    44
1040
1.0
1070
    74
1070
     0
1000
MTEXTEND
1000
MTEXTBEGIN
1070
    73
1070
     1
1070
    44
1040
1.0
1070
    74
1070
     0
1000
MTEXTEND
1000
MTEXTBEGIN
1070
    73
1070
     1
1070
    44
1040
1.0
1070
    74
1070
     0
1000
MTEXTEND
1000
MTEXTBEGIN
1070
    73
1070
     1
1070
    44
1040
1.0
1070
    74
1070
     0
1000
MTEXTEND
1000
MTEXTBEGIN
1070
    73
1070
     1
1070
    44
1040
1.0
1070
    74
1070
     0
1000
MTEXTEND
1000
MTEXTBEGIN
1070
    73
1070
     1
1070
    44
1040
1.0
1070
    74
1070
     0
1000
MTEXTEND
1000
MTEXTBEGIN
1070
    73
1070
     1
1070
    44
1040
1.0
1070
    74
1070
     0
1000
MTEXTEND
1000
MTEXTBEGIN
1070
    73
1070
     1
1070
    44
1040
1.0
1070
    74
1070
     0
1000
MTEXTEND
1000
MTEXTBEGIN
1070
    73
1070
     1
1070
    44
1040
1.0
1070
    74
1070
     0
1000
MTEXTEND
1000
MTEXTBEGIN
1070
    73
1070
     1
1070
    44
1040
1.0
1070
    74
1070
     0
1000
MTEXTEND
1000
MTEXTBEGIN
1070
    73
1070
     1
1070
    44
1040
1.0
1070
    74
1070
     0
1000
MTEXTEND
1000
MTEXTBEGIN
1070
    73
1070
     1
1070
    44
1040
1.0
1070
    74
1070
     0
1000
MTEXTEND
1000
MTEXTBEGIN
1070
    73
1070
     1
1070
    44
1040
1.0
1070
    74
1070
     0
1000
MTEXTEND
1000
MTEXTBEGIN
1070
    73
1070
     1
1070
    44
1040
1.0
1070
    74
1070
     0
1000
MTEXTEND
  0
POINT
  5
18FF
330
18F6
100
AcDbEntity
  8
DEFPOINTS
 62
     0
100
AcDbPoint
 10
2649.999999999999
 20
1360.0
 30
0.0
  0
POINT
  5
1900
330
18F6
100
AcDbEntity
  8
DEFPOINTS
 62
     0
100
AcDbPoint
 10
2649.999999999999
 20
1430.0
 30
0.0
  0
POINT
  5
1901
330
18F6
100
AcDbEntity
  8
DEFPOINTS
 62
     0
100
AcDbPoint
 10
2452.333333333333
 20
1430.0
 30
0.0
  0
ENDBLK
  5
1903
330
18F6
100
AcDbEntity
  8
0
100
AcDbBlockEnd
  0
BLOCK
  5
190F
330
1905
100
AcDbEntity
  8
0
100
AcDbBlockBegin
  2
*D22
 70
     1
 10
0.0
 20
0.0
 30
0.0
  3
*D22
  1

  0
LINE
  5
1906
330
1905
100
AcDbEntity
  8
SUNPO
 62
   144
100
AcDbLine
 10
1740.0
 20
2857.0
 30
0.0
 11
1960.0
 21
2857.0
 31
0.0
  0
LINE
  5
1907
330
1905
100
AcDbEntity
  8
SUNPO
 62
   144
100
AcDbLine
 10
1739.999999999999
 20
2270.0
 30
0.0
 11
1960.0
 21
2270.0
 31
0.0
  0
LINE
  5
1908
330
1905
100
AcDbEntity
  8
SUNPO
 62
   144
100
AcDbLine
 10
1950.0
 20
2829.0
 30
0.0
 11
1950.0
 21
2298.0
 31
0.0
  0
SOLID
  5
1909
330
1905
100
AcDbEntity
  8
SUNPO
 62
   144
100
AcDbTrace
 10
1945.333333333333
 20
2829.0
 30
0.0
 11
1954.666666666667
 21
2829.0
 31
0.0
 12
1950.0
 22
2857.0
 32
0.0
 13
1950.0
 23
2857.0
 33
0.0
  0
SOLID
  5
190A
330
1905
100
AcDbEntity
  8
SUNPO
 62
   144
100
AcDbTrace
 10
1945.333333333333
 20
2298.0
 30
0.0
 11
1954.666666666666
 21
2298.0
 31
0.0
 12
1950.0
 22
2270.0
 32
0.0
 13
1950.0
 23
2270.0
 33
0.0
  0
MTEXT
  5
190B
330
1905
100
AcDbEntity
  8
SUNPO
 62
     7
100
AcDbMText
 10
1919.499999999999
 20
2563.5
 30
0.0
 40
36.0
 41
0.0
 71
     5
 72
     1
  1
\A2;587
  7
ADD
 11
0.0000000000000001
 21
1.0
 31
0.0
1001
ACAD
1000
MTEXTBEGIN
1070
    73
1070
     1
1070
    44
1040
1.0
1070
    74
1070
     0
1000
MTEXTEND
1000
MTEXTBEGIN
1070
    73
1070
     1
1070
    44
1040
1.0
1070
    74
1070
     0
1000
MTEXTEND
1000
MTEXTBEGIN
1070
    73
1070
     1
1070
    44
1040
1.0
1070
    74
1070
     0
1000
MTEXTEND
1000
MTEXTBEGIN
1070
    73
1070
     1
1070
    44
1040
1.0
1070
    74
1070
     0
1000
MTEXTEND
1000
MTEXTBEGIN
1070
    73
1070
     1
1070
    44
1040
1.0
1070
    74
1070
     0
1000
MTEXTEND
1000
MTEXTBEGIN
1070
    73
1070
     1
1070
    44
1040
1.0
1070
    74
1070
     0
1000
MTEXTEND
1000
MTEXTBEGIN
1070
    73
1070
     1
1070
    44
1040
1.0
1070
    74
1070
     0
1000
MTEXTEND
1000
MTEXTBEGIN
1070
    73
1070
     1
1070
    44
1040
1.0
1070
    74
1070
     0
1000
MTEXTEND
1000
MTEXTBEGIN
1070
    73
1070
     1
1070
    44
1040
1.0
1070
    74
1070
     0
1000
MTEXTEND
1000
MTEXTBEGIN
1070
    73
1070
     1
1070
    44
1040
1.0
1070
    74
1070
     0
1000
MTEXTEND
1000
MTEXTBEGIN
1070
    73
1070
     1
1070
    44
1040
1.0
1070
    74
1070
     0
1000
MTEXTEND
1000
MTEXTBEGIN
1070
    73
1070
     1
1070
    44
1040
1.0
1070
    74
1070
     0
1000
MTEXTEND
1000
MTEXTBEGIN
1070
    73
1070
     1
1070
    44
1040
1.0
1070
    74
1070
     0
1000
MTEXTEND
1000
MTEXTBEGIN
1070
    73
1070
     1
1070
    44
1040
1.0
1070
    74
1070
     0
1000
MTEXTEND
1000
MTEXTBEGIN
1070
    73
1070
     1
1070
    44
1040
1.0
1070
    74
1070
     0
1000
MTEXTEND
1000
MTEXTBEGIN
1070
    73
1070
     1
1070
    44
1040
1.0
1070
    74
1070
     0
1000
MTEXTEND
1000
MTEXTBEGIN
1070
    73
1070
     1
1070
    44
1040
1.0
1070
    74
1070
     0
1000
MTEXTEND
  0
POINT
  5
190C
330
1905
100
AcDbEntity
  8
DEFPOINTS
 62
     0
100
AcDbPoint
 10
1720.0
 20
2857.0
 30
0.0
  0
POINT
  5
190D
330
1905
100
AcDbEntity
  8
DEFPOINTS
 62
     0
100
AcDbPoint
 10
1719.999999999999
 20
2270.0
 30
0.0
  0
POINT
  5
190E
330
1905
100
AcDbEntity
  8
DEFPOINTS
 62
     0
100
AcDbPoint
 10
1950.0
 20
2270.0
 30
0.0
  0
ENDBLK
  5
1910
330
1905
100
AcDbEntity
  8
0
100
AcDbBlockEnd
  0
BLOCK
  5
197E
330
1972
100
AcDbEntity
  8
0
100
AcDbBlockBegin
  2
*D23
 70
     1
 10
0.0
 20
0.0
 30
0.0
  3
*D23
  1

  0
LINE
  5
1973
330
1972
100
AcDbEntity
  8
SUNPO
 62
   144
100
AcDbLine
 10
4670.0
 20
2900.0
 30
0.0
 11
4810.0
 21
2900.0
 31
0.0
  0
LINE
  5
1974
330
1972
100
AcDbEntity
  8
SUNPO
 62
   144
100
AcDbLine
 10
4670.0
 20
2850.0
 30
0.0
 11
4810.0
 21
2850.0
 31
0.0
  0
LINE
  5
1975
330
1972
100
AcDbEntity
  8
SUNPO
 62
   144
100
AcDbLine
 10
4800.0
 20
2928.0
 30
0.0
 11
4800.0
 21
2956.0
 31
0.0
  0
LINE
  5
1976
330
1972
100
AcDbEntity
  8
SUNPO
 62
   144
100
AcDbLine
 10
4800.0
 20
2822.0
 30
0.0
 11
4800.0
 21
2794.0
 31
0.0
  0
LINE
  5
1977
330
1972
100
AcDbEntity
  8
SUNPO
 62
   144
100
AcDbLine
 10
4800.0
 20
2900.0
 30
0.0
 11
4800.0
 21
2850.0
 31
0.0
  0
SOLID
  5
1978
330
1972
100
AcDbEntity
  8
SUNPO
 62
   144
100
AcDbTrace
 10
4795.333333333333
 20
2928.0
 30
0.0
 11
4804.666666666667
 21
2928.0
 31
0.0
 12
4800.0
 22
2900.0
 32
0.0
 13
4800.0
 23
2900.0
 33
0.0
  0
SOLID
  5
1979
330
1972
100
AcDbEntity
  8
SUNPO
 62
   144
100
AcDbTrace
 10
4795.333333333333
 20
2822.0
 30
0.0
 11
4804.666666666667
 21
2822.0
 31
0.0
 12
4800.0
 22
2850.0
 32
0.0
 13
4800.0
 23
2850.0
 33
0.0
  0
MTEXT
  5
197A
330
1972
100
AcDbEntity
  8
SUNPO
 62
     7
100
AcDbMText
 10
4769.499999999999
 20
2875.0
 30
0.0
 40
36.0
 41
0.0
 71
     5
 72
     1
  1
\A2;50
  7
ADD
 11
0.0000000000000001
 21
1.0
 31
0.0
1001
ACAD
1000
MTEXTBEGIN
1070
    73
1070
     1
1070
    44
1040
1.0
1070
    74
1070
     0
1000
MTEXTEND
1000
MTEXTBEGIN
1070
    73
1070
     1
1070
    44
1040
1.0
1070
    74
1070
     0
1000
MTEXTEND
1000
MTEXTBEGIN
1070
    73
1070
     1
1070
    44
1040
1.0
1070
    74
1070
     0
1000
MTEXTEND
1000
MTEXTBEGIN
1070
    73
1070
     1
1070
    44
1040
1.0
1070
    74
1070
     0
1000
MTEXTEND
1000
MTEXTBEGIN
1070
    73
1070
     1
1070
    44
1040
1.0
1070
    74
1070
     0
1000
MTEXTEND
1000
MTEXTBEGIN
1070
    73
1070
     1
1070
    44
1040
1.0
1070
    74
1070
     0
1000
MTEXTEND
1000
MTEXTBEGIN
1070
    73
1070
     1
1070
    44
1040
1.0
1070
    74
1070
     0
1000
MTEXTEND
1000
MTEXTBEGIN
1070
    73
1070
     1
1070
    44
1040
1.0
1070
    74
1070
     0
1000
MTEXTEND
1000
MTEXTBEGIN
1070
    73
1070
     1
1070
    44
1040
1.0
1070
    74
1070
     0
1000
MTEXTEND
1000
MTEXTBEGIN
1070
    73
1070
     1
1070
    44
1040
1.0
1070
    74
1070
     0
1000
MTEXTEND
1000
MTEXTBEGIN
1070
    73
1070
     1
1070
    44
1040
1.0
1070
    74
1070
     0
1000
MTEXTEND
1000
MTEXTBEGIN
1070
    73
1070
     1
1070
    44
1040
1.0
1070
    74
1070
     0
1000
MTEXTEND
1000
MTEXTBEGIN
1070
    73
1070
     1
1070
    44
1040
1.0
1070
    74
1070
     0
1000
MTEXTEND
1000
MTEXTBEGIN
1070
    73
1070
     1
1070
    44
1040
1.0
1070
    74
1070
     0
1000
MTEXTEND
1000
MTEXTBEGIN
1070
    73
1070
     1
1070
    44
1040
1.0
1070
    74
1070
     0
1000
MTEXTEND
1000
MTEXTBEGIN
1070
    73
1070
     1
1070
    44
1040
1.0
1070
    74
1070
     0
1000
MTEXTEND
1000
MTEXTBEGIN
1070
    73
1070
     1
1070
    44
1040
1.0
1070
    74
1070
     0
1000
MTEXTEND
  0
POINT
  5
197B
330
1972
100
AcDbEntity
  8
DEFPOINTS
 62
     0
100
AcDbPoint
 10
4650.0
 20
2900.0
 30
0.0
  0
POINT
  5
197C
330
1972
100
AcDbEntity
  8
DEFPOINTS
 62
     0
100
AcDbPoint
 10
4650.0
 20
2850.0
 30
0.0
  0
POINT
  5
197D
330
1972
100
AcDbEntity
  8
DEFPOINTS
 62
     0
100
AcDbPoint
 10
4800.0
 20
2850.0
 30
0.0
  0
ENDBLK
  5
197F
330
1972
100
AcDbEntity
  8
0
100
AcDbBlockEnd
  0
BLOCK
  5
199C
330
1990
100
AcDbEntity
  8
0
100
AcDbBlockBegin
  2
*D24
 70
     1
 10
0.0
 20
0.0
 30
0.0
  3
*D24
  1

  0
LINE
  5
1991
330
1990
100
AcDbEntity
  8
SUNPO
 62
   144
100
AcDbLine
 10
4530.0
 20
2890.0
 30
0.0
 11
4440.0
 21
2890.0
 31
0.0
  0
LINE
  5
1992
330
1990
100
AcDbEntity
  8
SUNPO
 62
   144
100
AcDbLine
 10
4530.0
 20
2850.0
 30
0.0
 11
4440.0
 21
2850.0
 31
0.0
  0
LINE
  5
1993
330
1990
100
AcDbEntity
  8
SUNPO
 62
   144
100
AcDbLine
 10
4450.0
 20
2918.0
 30
0.0
 11
4450.0
 21
2946.0
 31
0.0
  0
LINE
  5
1994
330
1990
100
AcDbEntity
  8
SUNPO
 62
   144
100
AcDbLine
 10
4450.0
 20
2822.0
 30
0.0
 11
4450.0
 21
2794.0
 31
0.0
  0
LINE
  5
1995
330
1990
100
AcDbEntity
  8
SUNPO
 62
   144
100
AcDbLine
 10
4450.0
 20
2890.0
 30
0.0
 11
4450.0
 21
2850.0
 31
0.0
  0
SOLID
  5
1996
330
1990
100
AcDbEntity
  8
SUNPO
 62
   144
100
AcDbTrace
 10
4445.333333333333
 20
2918.0
 30
0.0
 11
4454.666666666667
 21
2918.0
 31
0.0
 12
4450.0
 22
2890.0
 32
0.0
 13
4450.0
 23
2890.0
 33
0.0
  0
SOLID
  5
1997
330
1990
100
AcDbEntity
  8
SUNPO
 62
   144
100
AcDbTrace
 10
4445.333333333333
 20
2822.0
 30
0.0
 11
4454.666666666667
 21
2822.0
 31
0.0
 12
4450.0
 22
2850.0
 32
0.0
 13
4450.0
 23
2850.0
 33
0.0
  0
MTEXT
  5
1998
330
1990
100
AcDbEntity
  8
SUNPO
 62
     7
100
AcDbMText
 10
4419.499999999999
 20
2870.0
 30
0.0
 40
36.0
 41
0.0
 71
     5
 72
     1
  1
\A2;40
  7
ADD
 11
0.0000000000000001
 21
1.0
 31
0.0
1001
ACAD
1000
MTEXTBEGIN
1070
    73
1070
     1
1070
    44
1040
1.0
1070
    74
1070
     0
1000
MTEXTEND
1000
MTEXTBEGIN
1070
    73
1070
     1
1070
    44
1040
1.0
1070
    74
1070
     0
1000
MTEXTEND
1000
MTEXTBEGIN
1070
    73
1070
     1
1070
    44
1040
1.0
1070
    74
1070
     0
1000
MTEXTEND
1000
MTEXTBEGIN
1070
    73
1070
     1
1070
    44
1040
1.0
1070
    74
1070
     0
1000
MTEXTEND
1000
MTEXTBEGIN
1070
    73
1070
     1
1070
    44
1040
1.0
1070
    74
1070
     0
1000
MTEXTEND
1000
MTEXTBEGIN
1070
    73
1070
     1
1070
    44
1040
1.0
1070
    74
1070
     0
1000
MTEXTEND
1000
MTEXTBEGIN
1070
    73
1070
     1
1070
    44
1040
1.0
1070
    74
1070
     0
1000
MTEXTEND
1000
MTEXTBEGIN
1070
    73
1070
     1
1070
    44
1040
1.0
1070
    74
1070
     0
1000
MTEXTEND
1000
MTEXTBEGIN
1070
    73
1070
     1
1070
    44
1040
1.0
1070
    74
1070
     0
1000
MTEXTEND
1000
MTEXTBEGIN
1070
    73
1070
     1
1070
    44
1040
1.0
1070
    74
1070
     0
1000
MTEXTEND
1000
MTEXTBEGIN
1070
    73
1070
     1
1070
    44
1040
1.0
1070
    74
1070
     0
1000
MTEXTEND
1000
MTEXTBEGIN
1070
    73
1070
     1
1070
    44
1040
1.0
1070
    74
1070
     0
1000
MTEXTEND
1000
MTEXTBEGIN
1070
    73
1070
     1
1070
    44
1040
1.0
1070
    74
1070
     0
1000
MTEXTEND
1000
MTEXTBEGIN
1070
    73
1070
     1
1070
    44
1040
1.0
1070
    74
1070
     0
1000
MTEXTEND
1000
MTEXTBEGIN
1070
    73
1070
     1
1070
    44
1040
1.0
1070
    74
1070
     0
1000
MTEXTEND
1000
MTEXTBEGIN
1070
    73
1070
     1
1070
    44
1040
1.0
1070
    74
1070
     0
1000
MTEXTEND
1000
MTEXTBEGIN
1070
    73
1070
     1
1070
    44
1040
1.0
1070
    74
1070
     0
1000
MTEXTEND
  0
POINT
  5
1999
330
1990
100
AcDbEntity
  8
DEFPOINTS
 62
     0
100
AcDbPoint
 10
4550.0
 20
2890.0
 30
0.0
  0
POINT
  5
199A
330
1990
100
AcDbEntity
  8
DEFPOINTS
 62
     0
100
AcDbPoint
 10
4550.0
 20
2850.0
 30
0.0
  0
POINT
  5
199B
330
1990
100
AcDbEntity
  8
DEFPOINTS
 62
     0
100
AcDbPoint
 10
4450.0
 20
2850.0
 30
0.0
  0
ENDBLK
  5
199D
330
1990
100
AcDbEntity
  8
0
100
AcDbBlockEnd
  0
BLOCK
  5
19A9
330
199F
100
AcDbEntity
  8
0
100
AcDbBlockBegin
  2
*D25
 70
     1
 10
0.0
 20
0.0
 30
0.0
  3
*D25
  1

  0
LINE
  5
19A0
330
199F
100
AcDbEntity
  8
SUNPO
 62
   144
100
AcDbLine
 10
2650.0
 20
3070.0
 30
0.0
 11
2650.0
 21
3310.0
 31
0.0
  0
LINE
  5
19A1
330
199F
100
AcDbEntity
  8
SUNPO
 62
   144
100
AcDbLine
 10
4650.0
 20
3070.0
 30
0.0
 11
4650.0
 21
3310.0
 31
0.0
  0
LINE
  5
19A2
330
199F
100
AcDbEntity
  8
SUNPO
 62
   144
100
AcDbLine
 10
2678.0
 20
3300.0
 30
0.0
 11
4622.0
 21
3300.0
 31
0.0
  0
SOLID
  5
19A3
330
199F
100
AcDbEntity
  8
SUNPO
 62
   144
100
AcDbTrace
 10
2678.0
 20
3304.666666666666
 30
0.0
 11
2678.0
 21
3295.333333333333
 31
0.0
 12
2650.0
 22
3300.0
 32
0.0
 13
2650.0
 23
3300.0
 33
0.0
  0
SOLID
  5
19A4
330
199F
100
AcDbEntity
  8
SUNPO
 62
   144
100
AcDbTrace
 10
4622.0
 20
3304.666666666666
 30
0.0
 11
4622.0
 21
3295.333333333333
 31
0.0
 12
4650.0
 22
3300.0
 32
0.0
 13
4650.0
 23
3300.0
 33
0.0
  0
MTEXT
  5
19A5
330
199F
100
AcDbEntity
  8
SUNPO
 62
     7
100
AcDbMText
 10
3650.0
 20
3330.5
 30
0.0
 40
36.0
 41
0.0
 71
     5
 72
     1
  1
\A2;2000
  7
ADD
1001
ACAD
1000
MTEXTBEGIN
1070
    73
1070
     1
1070
    44
1040
1.0
1070
    74
1070
     0
1000
MTEXTEND
1000
MTEXTBEGIN
1070
    73
1070
     1
1070
    44
1040
1.0
1070
    74
1070
     0
1000
MTEXTEND
1000
MTEXTBEGIN
1070
    73
1070
     1
1070
    44
1040
1.0
1070
    74
1070
     0
1000
MTEXTEND
1000
MTEXTBEGIN
1070
    73
1070
     1
1070
    44
1040
1.0
1070
    74
1070
     0
1000
MTEXTEND
1000
MTEXTBEGIN
1070
    73
1070
     1
1070
    44
1040
1.0
1070
    74
1070
     0
1000
MTEXTEND
1000
MTEXTBEGIN
1070
    73
1070
     1
1070
    44
1040
1.0
1070
    74
1070
     0
1000
MTEXTEND
1000
MTEXTBEGIN
1070
    73
1070
     1
1070
    44
1040
1.0
1070
    74
1070
     0
1000
MTEXTEND
1000
MTEXTBEGIN
1070
    73
1070
     1
1070
    44
1040
1.0
1070
    74
1070
     0
1000
MTEXTEND
1000
MTEXTBEGIN
1070
    73
1070
     1
1070
    44
1040
1.0
1070
    74
1070
     0
1000
MTEXTEND
1000
MTEXTBEGIN
1070
    73
1070
     1
1070
    44
1040
1.0
1070
    74
1070
     0
1000
MTEXTEND
1000
MTEXTBEGIN
1070
    73
1070
     1
1070
    44
1040
1.0
1070
    74
1070
     0
1000
MTEXTEND
1000
MTEXTBEGIN
1070
    73
1070
     1
1070
    44
1040
1.0
1070
    74
1070
     0
1000
MTEXTEND
1000
MTEXTBEGIN
1070
    73
1070
     1
1070
    44
1040
1.0
1070
    74
1070
     0
1000
MTEXTEND
1000
MTEXTBEGIN
1070
    73
1070
     1
1070
    44
1040
1.0
1070
    74
1070
     0
1000
MTEXTEND
1000
MTEXTBEGIN
1070
    73
1070
     1
1070
    44
1040
1.0
1070
    74
1070
     0
1000
MTEXTEND
1000
MTEXTBEGIN
1070
    73
1070
     1
1070
    44
1040
1.0
1070
    74
1070
     0
1000
MTEXTEND
1000
MTEXTBEGIN
1070
    73
1070
     1
1070
    44
1040
1.0
1070
    74
1070
     0
1000
MTEXTEND
  0
POINT
  5
19A6
330
199F
100
AcDbEntity
  8
DEFPOINTS
 62
     0
100
AcDbPoint
 10
2650.0
 20
3050.0
 30
0.0
  0
POINT
  5
19A7
330
199F
100
AcDbEntity
  8
DEFPOINTS
 62
     0
100
AcDbPoint
 10
4650.0
 20
3050.0
 30
0.0
  0
POINT
  5
19A8
330
199F
100
AcDbEntity
  8
DEFPOINTS
 62
     0
100
AcDbPoint
 10
4650.0
 20
3300.0
 30
0.0
  0
ENDBLK
  5
19AA
330
199F
100
AcDbEntity
  8
0
100
AcDbBlockEnd
  0
BLOCK
  5
19BE
330
19B2
100
AcDbEntity
  8
0
100
AcDbBlockBegin
  2
*D26
 70
     1
 10
0.0
 20
0.0
 30
0.0
  3
*D26
  1

  0
LINE
  5
19B3
330
19B2
100
AcDbEntity
  8
SUNPO
 62
   144
100
AcDbLine
 10
4550.0
 20
3070.0
 30
0.0
 11
4550.0
 21
3160.0
 31
0.0
  0
LINE
  5
19B4
330
19B2
100
AcDbEntity
  8
SUNPO
 62
   144
100
AcDbLine
 10
4650.0
 20
3070.0
 30
0.0
 11
4650.0
 21
3160.0
 31
0.0
  0
LINE
  5
19B5
330
19B2
100
AcDbEntity
  8
SUNPO
 62
   144
100
AcDbLine
 10
4522.0
 20
3150.0
 30
0.0
 11
4494.0
 21
3150.0
 31
0.0
  0
LINE
  5
19B6
330
19B2
100
AcDbEntity
  8
SUNPO
 62
   144
100
AcDbLine
 10
4678.0
 20
3150.0
 30
0.0
 11
4706.0
 21
3150.0
 31
0.0
  0
LINE
  5
19B7
330
19B2
100
AcDbEntity
  8
SUNPO
 62
   144
100
AcDbLine
 10
4550.0
 20
3150.0
 30
0.0
 11
4650.0
 21
3150.0
 31
0.0
  0
SOLID
  5
19B8
330
19B2
100
AcDbEntity
  8
SUNPO
 62
   144
100
AcDbTrace
 10
4522.0
 20
3154.666666666666
 30
0.0
 11
4522.0
 21
3145.333333333333
 31
0.0
 12
4550.0
 22
3150.0
 32
0.0
 13
4550.0
 23
3150.0
 33
0.0
  0
SOLID
  5
19B9
330
19B2
100
AcDbEntity
  8
SUNPO
 62
   144
100
AcDbTrace
 10
4678.0
 20
3154.666666666666
 30
0.0
 11
4678.0
 21
3145.333333333333
 31
0.0
 12
4650.0
 22
3150.0
 32
0.0
 13
4650.0
 23
3150.0
 33
0.0
  0
MTEXT
  5
19BA
330
19B2
100
AcDbEntity
  8
SUNPO
 62
     7
100
AcDbMText
 10
4600.0
 20
3180.5
 30
0.0
 40
36.0
 41
0.0
 71
     5
 72
     1
  1
\A2;100
  7
ADD
1001
ACAD
1000
MTEXTBEGIN
1070
    73
1070
     1
1070
    44
1040
1.0
1070
    74
1070
     0
1000
MTEXTEND
1000
MTEXTBEGIN
1070
    73
1070
     1
1070
    44
1040
1.0
1070
    74
1070
     0
1000
MTEXTEND
1000
MTEXTBEGIN
1070
    73
1070
     1
1070
    44
1040
1.0
1070
    74
1070
     0
1000
MTEXTEND
1000
MTEXTBEGIN
1070
    73
1070
     1
1070
    44
1040
1.0
1070
    74
1070
     0
1000
MTEXTEND
1000
MTEXTBEGIN
1070
    73
1070
     1
1070
    44
1040
1.0
1070
    74
1070
     0
1000
MTEXTEND
1000
MTEXTBEGIN
1070
    73
1070
     1
1070
    44
1040
1.0
1070
    74
1070
     0
1000
MTEXTEND
1000
MTEXTBEGIN
1070
    73
1070
     1
1070
    44
1040
1.0
1070
    74
1070
     0
1000
MTEXTEND
1000
MTEXTBEGIN
1070
    73
1070
     1
1070
    44
1040
1.0
1070
    74
1070
     0
1000
MTEXTEND
1000
MTEXTBEGIN
1070
    73
1070
     1
1070
    44
1040
1.0
1070
    74
1070
     0
1000
MTEXTEND
1000
MTEXTBEGIN
1070
    73
1070
     1
1070
    44
1040
1.0
1070
    74
1070
     0
1000
MTEXTEND
1000
MTEXTBEGIN
1070
    73
1070
     1
1070
    44
1040
1.0
1070
    74
1070
     0
1000
MTEXTEND
1000
MTEXTBEGIN
1070
    73
1070
     1
1070
    44
1040
1.0
1070
    74
1070
     0
1000
MTEXTEND
1000
MTEXTBEGIN
1070
    73
1070
     1
1070
    44
1040
1.0
1070
    74
1070
     0
1000
MTEXTEND
1000
MTEXTBEGIN
1070
    73
1070
     1
1070
    44
1040
1.0
1070
    74
1070
     0
1000
MTEXTEND
1000
MTEXTBEGIN
1070
    73
1070
     1
1070
    44
1040
1.0
1070
    74
1070
     0
1000
MTEXTEND
1000
MTEXTBEGIN
1070
    73
1070
     1
1070
    44
1040
1.0
1070
    74
1070
     0
1000
MTEXTEND
1000
MTEXTBEGIN
1070
    73
1070
     1
1070
    44
1040
1.0
1070
    74
1070
     0
1000
MTEXTEND
  0
POINT
  5
19BB
330
19B2
100
AcDbEntity
  8
DEFPOINTS
 62
     0
100
AcDbPoint
 10
4550.0
 20
3050.0
 30
0.0
  0
POINT
  5
19BC
330
19B2
100
AcDbEntity
  8
DEFPOINTS
 62
     0
100
AcDbPoint
 10
4650.0
 20
3050.0
 30
0.0
  0
POINT
  5
19BD
330
19B2
100
AcDbEntity
  8
DEFPOINTS
 62
     0
100
AcDbPoint
 10
4650.0
 20
3150.0
 30
0.0
  0
ENDBLK
  5
19BF
330
19B2
100
AcDbEntity
  8
0
100
AcDbBlockEnd
  0
BLOCK
  5
1A71
330
1A67
100
AcDbEntity
  8
0
100
AcDbBlockBegin
  2
*D27
 70
     1
 10
0.0
 20
0.0
 30
0.0
  3
*D27
  1

  0
LINE
  5
1A68
330
1A67
100
AcDbEntity
  8
SUNPO
 62
   144
100
AcDbLine
 10
1576.0
 20
2849.999999999999
 30
0.0
 11
1470.0
 21
2849.999999999999
 31
0.0
  0
LINE
  5
1A69
330
1A67
100
AcDbEntity
  8
SUNPO
 62
   144
100
AcDbLine
 10
1480.0
 20
2760.0
 30
0.0
 11
1470.0
 21
2760.0
 31
0.0
  0
LINE
  5
1A6A
330
1A67
100
AcDbEntity
  8
SUNPO
 62
   144
100
AcDbLine
 10
1480.0
 20
2821.999999999999
 30
0.0
 11
1480.0
 21
2788.0
 31
0.0
  0
SOLID
  5
1A6B
330
1A67
100
AcDbEntity
  8
SUNPO
 62
   144
100
AcDbTrace
 10
1475.333333333333
 20
2821.999999999999
 30
0.0
 11
1484.666666666666
 21
2821.999999999999
 31
0.0
 12
1480.0
 22
2849.999999999999
 32
0.0
 13
1480.0
 23
2849.999999999999
 33
0.0
  0
SOLID
  5
1A6C
330
1A67
100
AcDbEntity
  8
SUNPO
 62
   144
100
AcDbTrace
 10
1475.333333333333
 20
2788.0
 30
0.0
 11
1484.666666666666
 21
2788.0
 31
0.0
 12
1480.0
 22
2760.0
 32
0.0
 13
1480.0
 23
2760.0
 33
0.0
  0
MTEXT
  5
1A6D
330
1A67
100
AcDbEntity
  8
SUNPO
 62
     7
100
AcDbMText
 10
1449.499999999999
 20
2805.0
 30
0.0
 40
36.0
 41
0.0
 71
     5
 72
     1
  1
\A2;90
  7
ADD
 11
0.0000000000000001
 21
1.0
 31
0.0
1001
ACAD
1000
MTEXTBEGIN
1070
    73
1070
     1
1070
    44
1040
1.0
1070
    74
1070
     0
1000
MTEXTEND
1000
MTEXTBEGIN
1070
    73
1070
     1
1070
    44
1040
1.0
1070
    74
1070
     0
1000
MTEXTEND
1000
MTEXTBEGIN
1070
    73
1070
     1
1070
    44
1040
1.0
1070
    74
1070
     0
1000
MTEXTEND
1000
MTEXTBEGIN
1070
    73
1070
     1
1070
    44
1040
1.0
1070
    74
1070
     0
1000
MTEXTEND
1000
MTEXTBEGIN
1070
    73
1070
     1
1070
    44
1040
1.0
1070
    74
1070
     0
1000
MTEXTEND
1000
MTEXTBEGIN
1070
    73
1070
     1
1070
    44
1040
1.0
1070
    74
1070
     0
1000
MTEXTEND
1000
MTEXTBEGIN
1070
    73
1070
     1
1070
    44
1040
1.0
1070
    74
1070
     0
1000
MTEXTEND
1000
MTEXTBEGIN
1070
    73
1070
     1
1070
    44
1040
1.0
1070
    74
1070
     0
1000
MTEXTEND
1000
MTEXTBEGIN
1070
    73
1070
     1
1070
    44
1040
1.0
1070
    74
1070
     0
1000
MTEXTEND
1000
MTEXTBEGIN
1070
    73
1070
     1
1070
    44
1040
1.0
1070
    74
1070
     0
1000
MTEXTEND
1000
MTEXTBEGIN
1070
    73
1070
     1
1070
    44
1040
1.0
1070
    74
1070
     0
1000
MTEXTEND
1000
MTEXTBEGIN
1070
    73
1070
     1
1070
    44
1040
1.0
1070
    74
1070
     0
1000
MTEXTEND
1000
MTEXTBEGIN
1070
    73
1070
     1
1070
    44
1040
1.0
1070
    74
1070
     0
1000
MTEXTEND
1000
MTEXTBEGIN
1070
    73
1070
     1
1070
    44
1040
1.0
1070
    74
1070
     0
1000
MTEXTEND
1000
MTEXTBEGIN
1070
    73
1070
     1
1070
    44
1040
1.0
1070
    74
1070
     0
1000
MTEXTEND
1000
MTEXTBEGIN
1070
    73
1070
     1
1070
    44
1040
1.0
1070
    74
1070
     0
1000
MTEXTEND
  0
POINT
  5
1A6E
330
1A67
100
AcDbEntity
  8
DEFPOINTS
 62
     0
100
AcDbPoint
 10
1596.0
 20
2849.999999999999
 30
0.0
  0
POINT
  5
1A6F
330
1A67
100
AcDbEntity
  8
DEFPOINTS
 62
     0
100
AcDbPoint
 10
1500.0
 20
2760.0
 30
0.0
  0
POINT
  5
1A70
330
1A67
100
AcDbEntity
  8
DEFPOINTS
 62
     0
100
AcDbPoint
 10
1480.0
 20
2760.0
 30
0.0
  0
ENDBLK
  5
1A72
330
1A67
100
AcDbEntity
  8
0
100
AcDbBlockEnd
  0
BLOCK
  5
1AD1
330
1AC5
100
AcDbEntity
  8
0
100
AcDbBlockBegin
  2
*D28
 70
     1
 10
0.0
 20
0.0
 30
0.0
  3
*D28
  1

  0
LINE
  5
1AC6
330
1AC5
100
AcDbEntity
  8
SUNPO
 62
   144
100
AcDbLine
 10
1279.999999999999
 20
2250.0
 30
0.0
 11
1279.999999999999
 21
2090.0
 31
0.0
  0
LINE
  5
1AC7
330
1AC5
100
AcDbEntity
  8
SUNPO
 62
   144
100
AcDbLine
 10
1349.999999999999
 20
2250.0
 30
0.0
 11
1349.999999999999
 21
2090.0
 31
0.0
  0
LINE
  5
1AC8
330
1AC5
100
AcDbEntity
  8
SUNPO
 62
   144
100
AcDbLine
 10
1251.999999999999
 20
2100.0
 30
0.0
 11
1223.999999999999
 21
2100.0
 31
0.0
  0
LINE
  5
1AC9
330
1AC5
100
AcDbEntity
  8
SUNPO
 62
   144
100
AcDbLine
 10
1377.999999999999
 20
2100.0
 30
0.0
 11
1405.999999999999
 21
2100.0
 31
0.0
  0
LINE
  5
1ACA
330
1AC5
100
AcDbEntity
  8
SUNPO
 62
   144
100
AcDbLine
 10
1279.999999999999
 20
2100.0
 30
0.0
 11
1349.999999999999
 21
2100.0
 31
0.0
  0
SOLID
  5
1ACB
330
1AC5
100
AcDbEntity
  8
SUNPO
 62
   144
100
AcDbTrace
 10
1251.999999999999
 20
2104.666666666666
 30
0.0
 11
1251.999999999999
 21
2095.333333333333
 31
0.0
 12
1279.999999999999
 22
2100.0
 32
0.0
 13
1279.999999999999
 23
2100.0
 33
0.0
  0
SOLID
  5
1ACC
330
1AC5
100
AcDbEntity
  8
SUNPO
 62
   144
100
AcDbTrace
 10
1377.999999999999
 20
2104.666666666666
 30
0.0
 11
1377.999999999999
 21
2095.333333333333
 31
0.0
 12
1349.999999999999
 22
2100.0
 32
0.0
 13
1349.999999999999
 23
2100.0
 33
0.0
  0
MTEXT
  5
1ACD
330
1AC5
100
AcDbEntity
  8
SUNPO
 62
     7
100
AcDbMText
 10
1314.999999999999
 20
2130.5
 30
0.0
 40
36.0
 41
0.0
 71
     5
 72
     1
  1
\A2;70
  7
ADD
1001
ACAD
1000
MTEXTBEGIN
1070
    73
1070
     1
1070
    44
1040
1.0
1070
    74
1070
     0
1000
MTEXTEND
1000
MTEXTBEGIN
1070
    73
1070
     1
1070
    44
1040
1.0
1070
    74
1070
     0
1000
MTEXTEND
1000
MTEXTBEGIN
1070
    73
1070
     1
1070
    44
1040
1.0
1070
    74
1070
     0
1000
MTEXTEND
1000
MTEXTBEGIN
1070
    73
1070
     1
1070
    44
1040
1.0
1070
    74
1070
     0
1000
MTEXTEND
1000
MTEXTBEGIN
1070
    73
1070
     1
1070
    44
1040
1.0
1070
    74
1070
     0
1000
MTEXTEND
1000
MTEXTBEGIN
1070
    73
1070
     1
1070
    44
1040
1.0
1070
    74
1070
     0
1000
MTEXTEND
1000
MTEXTBEGIN
1070
    73
1070
     1
1070
    44
1040
1.0
1070
    74
1070
     0
1000
MTEXTEND
1000
MTEXTBEGIN
1070
    73
1070
     1
1070
    44
1040
1.0
1070
    74
1070
     0
1000
MTEXTEND
1000
MTEXTBEGIN
1070
    73
1070
     1
1070
    44
1040
1.0
1070
    74
1070
     0
1000
MTEXTEND
1000
MTEXTBEGIN
1070
    73
1070
     1
1070
    44
1040
1.0
1070
    74
1070
     0
1000
MTEXTEND
1000
MTEXTBEGIN
1070
    73
1070
     1
1070
    44
1040
1.0
1070
    74
1070
     0
1000
MTEXTEND
1000
MTEXTBEGIN
1070
    73
1070
     1
1070
    44
1040
1.0
1070
    74
1070
     0
1000
MTEXTEND
1000
MTEXTBEGIN
1070
    73
1070
     1
1070
    44
1040
1.0
1070
    74
1070
     0
1000
MTEXTEND
1000
MTEXTBEGIN
1070
    73
1070
     1
1070
    44
1040
1.0
1070
    74
1070
     0
1000
MTEXTEND
1000
MTEXTBEGIN
1070
    73
1070
     1
1070
    44
1040
1.0
1070
    74
1070
     0
1000
MTEXTEND
1000
MTEXTBEGIN
1070
    73
1070
     1
1070
    44
1040
1.0
1070
    74
1070
     0
1000
MTEXTEND
  0
POINT
  5
1ACE
330
1AC5
100
AcDbEntity
  8
DEFPOINTS
 62
     0
100
AcDbPoint
 10
1279.999999999999
 20
2270.0
 30
0.0
  0
POINT
  5
1ACF
330
1AC5
100
AcDbEntity
  8
DEFPOINTS
 62
     0
100
AcDbPoint
 10
1349.999999999999
 20
2270.0
 30
0.0
  0
POINT
  5
1AD0
330
1AC5
100
AcDbEntity
  8
DEFPOINTS
 62
     0
100
AcDbPoint
 10
1349.999999999999
 20
2100.0
 30
0.0
  0
ENDBLK
  5
1AD2
330
1AC5
100
AcDbEntity
  8
0
100
AcDbBlockEnd
  0
BLOCK
  5
1AE0
330
1AD4
100
AcDbEntity
  8
0
100
AcDbBlockBegin
  2
*D29
 70
     1
 10
0.0
 20
0.0
 30
0.0
  3
*D29
  1

  0
LINE
  5
1AD5
330
1AD4
100
AcDbEntity
  8
SUNPO
 62
   144
100
AcDbLine
 10
1649.999999999999
 20
2250.0
 30
0.0
 11
1649.999999999999
 21
2090.0
 31
0.0
  0
LINE
  5
1AD6
330
1AD4
100
AcDbEntity
  8
SUNPO
 62
   144
100
AcDbLine
 10
1719.999999999999
 20
2250.0
 30
0.0
 11
1719.999999999999
 21
2090.0
 31
0.0
  0
LINE
  5
1AD7
330
1AD4
100
AcDbEntity
  8
SUNPO
 62
   144
100
AcDbLine
 10
1621.999999999999
 20
2100.0
 30
0.0
 11
1593.999999999999
 21
2100.0
 31
0.0
  0
LINE
  5
1AD8
330
1AD4
100
AcDbEntity
  8
SUNPO
 62
   144
100
AcDbLine
 10
1747.999999999999
 20
2100.0
 30
0.0
 11
1775.999999999999
 21
2100.0
 31
0.0
  0
LINE
  5
1AD9
330
1AD4
100
AcDbEntity
  8
SUNPO
 62
   144
100
AcDbLine
 10
1649.999999999999
 20
2100.0
 30
0.0
 11
1719.999999999999
 21
2100.0
 31
0.0
  0
SOLID
  5
1ADA
330
1AD4
100
AcDbEntity
  8
SUNPO
 62
   144
100
AcDbTrace
 10
1621.999999999999
 20
2104.666666666666
 30
0.0
 11
1621.999999999999
 21
2095.333333333333
 31
0.0
 12
1649.999999999999
 22
2100.0
 32
0.0
 13
1649.999999999999
 23
2100.0
 33
0.0
  0
SOLID
  5
1ADB
330
1AD4
100
AcDbEntity
  8
SUNPO
 62
   144
100
AcDbTrace
 10
1747.999999999999
 20
2104.666666666666
 30
0.0
 11
1747.999999999999
 21
2095.333333333333
 31
0.0
 12
1719.999999999999
 22
2100.0
 32
0.0
 13
1719.999999999999
 23
2100.0
 33
0.0
  0
MTEXT
  5
1ADC
330
1AD4
100
AcDbEntity
  8
SUNPO
 62
     7
100
AcDbMText
 10
1684.999999999999
 20
2130.5
 30
0.0
 40
36.0
 41
0.0
 71
     5
 72
     1
  1
\A2;70
  7
ADD
1001
ACAD
1000
MTEXTBEGIN
1070
    73
1070
     1
1070
    44
1040
1.0
1070
    74
1070
     0
1000
MTEXTEND
1000
MTEXTBEGIN
1070
    73
1070
     1
1070
    44
1040
1.0
1070
    74
1070
     0
1000
MTEXTEND
1000
MTEXTBEGIN
1070
    73
1070
     1
1070
    44
1040
1.0
1070
    74
1070
     0
1000
MTEXTEND
1000
MTEXTBEGIN
1070
    73
1070
     1
1070
    44
1040
1.0
1070
    74
1070
     0
1000
MTEXTEND
1000
MTEXTBEGIN
1070
    73
1070
     1
1070
    44
1040
1.0
1070
    74
1070
     0
1000
MTEXTEND
1000
MTEXTBEGIN
1070
    73
1070
     1
1070
    44
1040
1.0
1070
    74
1070
     0
1000
MTEXTEND
1000
MTEXTBEGIN
1070
    73
1070
     1
1070
    44
1040
1.0
1070
    74
1070
     0
1000
MTEXTEND
1000
MTEXTBEGIN
1070
    73
1070
     1
1070
    44
1040
1.0
1070
    74
1070
     0
1000
MTEXTEND
1000
MTEXTBEGIN
1070
    73
1070
     1
1070
    44
1040
1.0
1070
    74
1070
     0
1000
MTEXTEND
1000
MTEXTBEGIN
1070
    73
1070
     1
1070
    44
1040
1.0
1070
    74
1070
     0
1000
MTEXTEND
1000
MTEXTBEGIN
1070
    73
1070
     1
1070
    44
1040
1.0
1070
    74
1070
     0
1000
MTEXTEND
1000
MTEXTBEGIN
1070
    73
1070
     1
1070
    44
1040
1.0
1070
    74
1070
     0
1000
MTEXTEND
1000
MTEXTBEGIN
1070
    73
1070
     1
1070
    44
1040
1.0
1070
    74
1070
     0
1000
MTEXTEND
1000
MTEXTBEGIN
1070
    73
1070
     1
1070
    44
1040
1.0
1070
    74
1070
     0
1000
MTEXTEND
1000
MTEXTBEGIN
1070
    73
1070
     1
1070
    44
1040
1.0
1070
    74
1070
     0
1000
MTEXTEND
1000
MTEXTBEGIN
1070
    73
1070
     1
1070
    44
1040
1.0
1070
    74
1070
     0
1000
MTEXTEND
  0
POINT
  5
1ADD
330
1AD4
100
AcDbEntity
  8
DEFPOINTS
 62
     0
100
AcDbPoint
 10
1649.999999999999
 20
2270.0
 30
0.0
  0
POINT
  5
1ADE
330
1AD4
100
AcDbEntity
  8
DEFPOINTS
 62
     0
100
AcDbPoint
 10
1719.999999999999
 20
2270.0
 30
0.0
  0
POINT
  5
1ADF
330
1AD4
100
AcDbEntity
  8
DEFPOINTS
 62
     0
100
AcDbPoint
 10
1719.999999999999
 20
2100.0
 30
0.0
  0
ENDBLK
  5
1AE1
330
1AD4
100
AcDbEntity
  8
0
100
AcDbBlockEnd
  0
BLOCK
  5
1AED
330
1AE3
100
AcDbEntity
  8
0
100
AcDbBlockBegin
  2
*D30
 70
     1
 10
0.0
 20
0.0
 30
0.0
  3
*D30
  1

  0
LINE
  5
1AE4
330
1AE3
100
AcDbEntity
  8
SUNPO
 62
   144
100
AcDbLine
 10
1349.999999999999
 20
2250.0
 30
0.0
 11
1349.999999999999
 21
2090.0
 31
0.0
  0
LINE
  5
1AE5
330
1AE3
100
AcDbEntity
  8
SUNPO
 62
   144
100
AcDbLine
 10
1649.999999999999
 20
2250.0
 30
0.0
 11
1649.999999999999
 21
2090.0
 31
0.0
  0
LINE
  5
1AE6
330
1AE3
100
AcDbEntity
  8
SUNPO
 62
   144
100
AcDbLine
 10
1377.999999999999
 20
2100.0
 30
0.0
 11
1621.999999999999
 21
2100.0
 31
0.0
  0
SOLID
  5
1AE7
330
1AE3
100
AcDbEntity
  8
SUNPO
 62
   144
100
AcDbTrace
 10
1377.999999999999
 20
2104.666666666666
 30
0.0
 11
1377.999999999999
 21
2095.333333333333
 31
0.0
 12
1349.999999999999
 22
2100.0
 32
0.0
 13
1349.999999999999
 23
2100.0
 33
0.0
  0
SOLID
  5
1AE8
330
1AE3
100
AcDbEntity
  8
SUNPO
 62
   144
100
AcDbTrace
 10
1621.999999999999
 20
2104.666666666666
 30
0.0
 11
1621.999999999999
 21
2095.333333333333
 31
0.0
 12
1649.999999999999
 22
2100.0
 32
0.0
 13
1649.999999999999
 23
2100.0
 33
0.0
  0
MTEXT
  5
1AE9
330
1AE3
100
AcDbEntity
  8
SUNPO
 62
     7
100
AcDbMText
 10
1500.0
 20
2130.5
 30
0.0
 40
36.0
 41
0.0
 71
     5
 72
     1
  1
\A2;300
  7
ADD
1001
ACAD
1000
MTEXTBEGIN
1070
    73
1070
     1
1070
    44
1040
1.0
1070
    74
1070
     0
1000
MTEXTEND
1000
MTEXTBEGIN
1070
    73
1070
     1
1070
    44
1040
1.0
1070
    74
1070
     0
1000
MTEXTEND
1000
MTEXTBEGIN
1070
    73
1070
     1
1070
    44
1040
1.0
1070
    74
1070
     0
1000
MTEXTEND
1000
MTEXTBEGIN
1070
    73
1070
     1
1070
    44
1040
1.0
1070
    74
1070
     0
1000
MTEXTEND
1000
MTEXTBEGIN
1070
    73
1070
     1
1070
    44
1040
1.0
1070
    74
1070
     0
1000
MTEXTEND
1000
MTEXTBEGIN
1070
    73
1070
     1
1070
    44
1040
1.0
1070
    74
1070
     0
1000
MTEXTEND
1000
MTEXTBEGIN
1070
    73
1070
     1
1070
    44
1040
1.0
1070
    74
1070
     0
1000
MTEXTEND
1000
MTEXTBEGIN
1070
    73
1070
     1
1070
    44
1040
1.0
1070
    74
1070
     0
1000
MTEXTEND
1000
MTEXTBEGIN
1070
    73
1070
     1
1070
    44
1040
1.0
1070
    74
1070
     0
1000
MTEXTEND
1000
MTEXTBEGIN
1070
    73
1070
     1
1070
    44
1040
1.0
1070
    74
1070
     0
1000
MTEXTEND
1000
MTEXTBEGIN
1070
    73
1070
     1
1070
    44
1040
1.0
1070
    74
1070
     0
1000
MTEXTEND
1000
MTEXTBEGIN
1070
    73
1070
     1
1070
    44
1040
1.0
1070
    74
1070
     0
1000
MTEXTEND
1000
MTEXTBEGIN
1070
    73
1070
     1
1070
    44
1040
1.0
1070
    74
1070
     0
1000
MTEXTEND
1000
MTEXTBEGIN
1070
    73
1070
     1
1070
    44
1040
1.0
1070
    74
1070
     0
1000
MTEXTEND
1000
MTEXTBEGIN
1070
    73
1070
     1
1070
    44
1040
1.0
1070
    74
1070
     0
1000
MTEXTEND
1000
MTEXTBEGIN
1070
    73
1070
     1
1070
    44
1040
1.0
1070
    74
1070
     0
1000
MTEXTEND
  0
POINT
  5
1AEA
330
1AE3
100
AcDbEntity
  8
DEFPOINTS
 62
     0
100
AcDbPoint
 10
1349.999999999999
 20
2270.0
 30
0.0
  0
POINT
  5
1AEB
330
1AE3
100
AcDbEntity
  8
DEFPOINTS
 62
     0
100
AcDbPoint
 10
1649.999999999999
 20
2270.0
 30
0.0
  0
POINT
  5
1AEC
330
1AE3
100
AcDbEntity
  8
DEFPOINTS
 62
     0
100
AcDbPoint
 10
1649.999999999999
 20
2100.0
 30
0.0
  0
ENDBLK
  5
1AEE
330
1AE3
100
AcDbEntity
  8
0
100
AcDbBlockEnd
  0
BLOCK
  5
2074
330
206D
100
AcDbEntity
  8
0
100
AcDbBlockBegin
  2
*D31
 70
     1
 10
0.0
 20
0.0
 30
0.0
  3
*D31
  1

  0
LINE
  5
206E
330
206D
100
AcDbEntity
  8
SUNPO
 62
   144
100
AcDbLine
 10
1601.055063565589
 20
2163.434173505114
 30
0.0
 11
1561.358238283506
 21
2338.855819544758
 31
0.0
  0
MTEXT
  5
206F
330
206D
100
AcDbEntity
  8
SUNPO
 62
     7
100
AcDbMText
 10
1614.044466895245
 20
2244.22200278851
 30
0.0
 40
36.0
 41
0.0
 71
     5
 72
     1
  1
\A2;R250
  7
ADD
 11
0.2207130873507396
 21
-0.9753387786159764
 31
0.0
1001
ACAD
1000
MTEXTBEGIN
1070
    73
1070
     1
1070
    44
1040
1.0
1070
    74
1070
     0
1000
MTEXTEND
1000
MTEXTBEGIN
1070
    73
1070
     1
1070
    44
1040
1.0
1070
    74
1070
     0
1000
MTEXTEND
1000
MTEXTBEGIN
1070
    73
1070
     1
1070
    44
1040
1.0
1070
    74
1070
     0
1000
MTEXTEND
1000
MTEXTBEGIN
1070
    73
1070
     1
1070
    44
1040
1.0
1070
    74
1070
     0
1000
MTEXTEND
1000
MTEXTBEGIN
1070
    73
1070
     1
1070
    44
1040
1.0
1070
    74
1070
     0
1000
MTEXTEND
1000
MTEXTBEGIN
1070
    73
1070
     1
1070
    44
1040
1.0
1070
    74
1070
     0
1000
MTEXTEND
  0
LINE
  5
2070
330
206D
100
AcDbEntity
  8
SUNPO
 62
   144
100
AcDbLine
 10
1500.0
 20
2610.000000000002
 30
0.0
 11
1555.178271837685
 21
2366.165305346006
 31
0.0
  0
SOLID
  5
2071
330
206D
100
AcDbEntity
  8
SUNPO
 62
   144
100
AcDbTrace
 10
1565.90981925038
 20
2339.885813952395
 30
0.0
 11
1556.806657316631
 21
2337.825825137121
 31
0.0
 12
1555.178271837685
 22
2366.165305346006
 32
0.0
 13
1555.178271837685
 23
2366.165305346006
 33
0.0
  0
POINT
  5
2072
330
206D
100
AcDbEntity
  8
DEFPOINTS
 62
     0
100
AcDbPoint
 10
1555.178271837685
 20
2366.165305346006
 30
0.0
  0
POINT
  5
2073
330
206D
100
AcDbEntity
  8
DEFPOINTS
 62
     0
100
AcDbPoint
 10
1500.0
 20
2610.000000000002
 30
0.0
  0
ENDBLK
  5
2075
330
206D
100
AcDbEntity
  8
0
100
AcDbBlockEnd
  0
BLOCK
  5
207E
330
2077
100
AcDbEntity
  8
0
100
AcDbBlockBegin
  2
*D32
 70
     1
 10
0.0
 20
0.0
 30
0.0
  3
*D32
  1

  0
LINE
  5
2078
330
2077
100
AcDbEntity
  8
SUNPO
 62
   144
100
AcDbLine
 10
1214.768355153997
 20
2311.601383383175
 30
0.0
 11
1335.376052341266
 21
2393.117174463863
 31
0.0
  0
MTEXT
  5
2079
330
2077
100
AcDbEntity
  8
SUNPO
 62
     7
100
AcDbMText
 10
1246.393915504178
 20
2369.789304265594
 30
0.0
 40
36.0
 41
0.0
 71
     5
 72
     1
  1
\A2;R50
  7
ADD
 11
0.8285121494709404
 21
0.5599710869134604
 31
0.0
1001
ACAD
1000
MTEXTBEGIN
1070
    73
1070
     1
1070
    44
1040
1.0
1070
    74
1070
     0
1000
MTEXTEND
1000
MTEXTBEGIN
1070
    73
1070
     1
1070
    44
1040
1.0
1070
    74
1070
     0
1000
MTEXTEND
1000
MTEXTBEGIN
1070
    73
1070
     1
1070
    44
1040
1.0
1070
    74
1070
     0
1000
MTEXTEND
1000
MTEXTBEGIN
1070
    73
1070
     1
1070
    44
1040
1.0
1070
    74
1070
     0
1000
MTEXTEND
1000
MTEXTBEGIN
1070
    73
1070
     1
1070
    44
1040
1.0
1070
    74
1070
     0
1000
MTEXTEND
1000
MTEXTBEGIN
1070
    73
1070
     1
1070
    44
1040
1.0
1070
    74
1070
     0
1000
MTEXTEND
  0
LINE
  5
207A
330
2077
100
AcDbEntity
  8
SUNPO
 62
   144
100
AcDbLine
 10
1400.0
 20
2436.794919243112
 30
0.0
 11
1358.574392526453
 21
2408.796364897439
 31
0.0
  0
SOLID
  5
207B
330
2077
100
AcDbEntity
  8
SUNPO
 62
   144
100
AcDbTrace
 10
1332.76285393567
 20
2396.983564494727
 30
0.0
 11
1337.989250746863
 21
2389.250784432998
 31
0.0
 12
1358.574392526453
 22
2408.796364897439
 32
0.0
 13
1358.574392526453
 23
2408.796364897439
 33
0.0
  0
POINT
  5
207C
330
2077
100
AcDbEntity
  8
DEFPOINTS
 62
     0
100
AcDbPoint
 10
1358.574392526453
 20
2408.796364897439
 30
0.0
  0
POINT
  5
207D
330
2077
100
AcDbEntity
  8
DEFPOINTS
 62
     0
100
AcDbPoint
 10
1400.0
 20
2436.794919243112
 30
0.0
  0
ENDBLK
  5
207F
330
2077
100
AcDbEntity
  8
0
100
AcDbBlockEnd
  0
BLOCK
  5
20A6
330
209F
100
AcDbEntity
  8
0
100
AcDbBlockBegin
  2
*D33
 70
     1
 10
0.0
 20
0.0
 30
0.0
  3
*D33
  1

  0
LINE
  5
20A0
330
209F
100
AcDbEntity
  8
SUNPO
 62
   144
100
AcDbLine
 10
1211.410601049319
 20
2830.075902148974
 30
0.0
 11
1334.204593081743
 21
2751.892295574017
 31
0.0
  0
MTEXT
  5
20A1
330
209F
100
AcDbEntity
  8
SUNPO
 62
     7
100
AcDbMText
 10
1277.379126785428
 20
2824.230920003074
 30
0.0
 40
36.0
 41
0.0
 71
     5
 72
     1
  1
\A2;R50
  7
ADD
 11
0.8435308579263654
 21
-0.5370807124874341
 31
0.0
1001
ACAD
1000
MTEXTBEGIN
1070
    73
1070
     1
1070
    44
1040
1.0
1070
    74
1070
     0
1000
MTEXTEND
1000
MTEXTBEGIN
1070
    73
1070
     1
1070
    44
1040
1.0
1070
    74
1070
     0
1000
MTEXTEND
1000
MTEXTBEGIN
1070
    73
1070
     1
1070
    44
1040
1.0
1070
    74
1070
     0
1000
MTEXTEND
1000
MTEXTBEGIN
1070
    73
1070
     1
1070
    44
1040
1.0
1070
    74
1070
     0
1000
MTEXTEND
1000
MTEXTBEGIN
1070
    73
1070
     1
1070
    44
1040
1.0
1070
    74
1070
     0
1000
MTEXTEND
1000
MTEXTBEGIN
1070
    73
1070
     1
1070
    44
1040
1.0
1070
    74
1070
     0
1000
MTEXTEND
  0
LINE
  5
20A2
330
209F
100
AcDbEntity
  8
SUNPO
 62
   144
100
AcDbLine
 10
1399.999999999999
 20
2709.999999999999
 30
0.0
 11
1357.823457103681
 21
2736.85403562437
 31
0.0
  0
SOLID
  5
20A3
330
209F
100
AcDbEntity
  8
SUNPO
 62
   144
100
AcDbTrace
 10
1336.710969740018
 20
2755.828772911007
 30
0.0
 11
1331.698216423468
 21
2747.955818237028
 31
0.0
 12
1357.823457103681
 22
2736.85403562437
 32
0.0
 13
1357.823457103681
 23
2736.85403562437
 33
0.0
  0
POINT
  5
20A4
330
209F
100
AcDbEntity
  8
DEFPOINTS
 62
     0
100
AcDbPoint
 10
1357.823457103681
 20
2736.85403562437
 30
0.0
  0
POINT
  5
20A5
330
209F
100
AcDbEntity
  8
DEFPOINTS
 62
     0
100
AcDbPoint
 10
1399.999999999999
 20
2709.999999999999
 30
0.0
  0
ENDBLK
  5
20A7
330
209F
100
AcDbEntity
  8
0
100
AcDbBlockEnd
  0
BLOCK
  5
21B0
330
21A6
100
AcDbEntity
  8
0
100
AcDbBlockBegin
  2
*D34
 70
     1
 10
0.0
 20
0.0
 30
0.0
  3
*D34
  1

  0
LINE
  5
21A7
330
21A6
100
AcDbEntity
  8
SUNPO
 62
   144
100
AcDbLine
 10
2649.999999999999
 20
1820.0
 30
0.0
 11
2649.999999999999
 21
1960.0
 31
0.0
  0
LINE
  5
21A8
330
21A6
100
AcDbEntity
  8
SUNPO
 62
   144
100
AcDbLine
 10
4650.0
 20
1820.0
 30
0.0
 11
4650.0
 21
1960.0
 31
0.0
  0
LINE
  5
21A9
330
21A6
100
AcDbEntity
  8
SUNPO
 62
   144
100
AcDbLine
 10
2677.999999999999
 20
1950.0
 30
0.0
 11
4622.0
 21
1950.0
 31
0.0
  0
SOLID
  5
21AA
330
21A6
100
AcDbEntity
  8
SUNPO
 62
   144
100
AcDbTrace
 10
2677.999999999999
 20
1954.666666666666
 30
0.0
 11
2677.999999999999
 21
1945.333333333333
 31
0.0
 12
2649.999999999999
 22
1950.0
 32
0.0
 13
2649.999999999999
 23
1950.0
 33
0.0
  0
SOLID
  5
21AB
330
21A6
100
AcDbEntity
  8
SUNPO
 62
   144
100
AcDbTrace
 10
4622.0
 20
1954.666666666666
 30
0.0
 11
4622.0
 21
1945.333333333333
 31
0.0
 12
4650.0
 22
1950.0
 32
0.0
 13
4650.0
 23
1950.0
 33
0.0
  0
MTEXT
  5
21AC
330
21A6
100
AcDbEntity
  8
SUNPO
 62
     7
100
AcDbMText
 10
3650.0
 20
1980.5
 30
0.0
 40
36.0
 41
0.0
 71
     5
 72
     1
  1
\A2;2000
  7
ADD
1001
ACAD
1000
MTEXTBEGIN
1070
    73
1070
     1
1070
    44
1040
1.0
1070
    74
1070
     0
1000
MTEXTEND
1000
MTEXTBEGIN
1070
    73
1070
     1
1070
    44
1040
1.0
1070
    74
1070
     0
1000
MTEXTEND
1000
MTEXTBEGIN
1070
    73
1070
     1
1070
    44
1040
1.0
1070
    74
1070
     0
1000
MTEXTEND
1000
MTEXTBEGIN
1070
    73
1070
     1
1070
    44
1040
1.0
1070
    74
1070
     0
1000
MTEXTEND
1000
MTEXTBEGIN
1070
    73
1070
     1
1070
    44
1040
1.0
1070
    74
1070
     0
1000
MTEXTEND
  0
POINT
  5
21AD
330
21A6
100
AcDbEntity
  8
DEFPOINTS
 62
     0
100
AcDbPoint
 10
2649.999999999999
 20
1800.0
 30
0.0
  0
POINT
  5
21AE
330
21A6
100
AcDbEntity
  8
DEFPOINTS
 62
     0
100
AcDbPoint
 10
4650.0
 20
1800.0
 30
0.0
  0
POINT
  5
21AF
330
21A6
100
AcDbEntity
  8
DEFPOINTS
 62
     0
100
AcDbPoint
 10
4650.0
 20
1950.0
 30
0.0
  0
ENDBLK
  5
21B1
330
21A6
100
AcDbEntity
  8
0
100
AcDbBlockEnd
  0
ENDSEC
  0
SECTION
  2
ENTITIES
  0
LINE
  5
60B
330
1F
100
AcDbEntity
  8
3C1
100
AcDbLine
 10
360.0
 20
560.0
 30
0.0
 11
5580.0
 21
560.0
 31
0.0
  0
LINE
  5
60C
330
1F
100
AcDbEntity
  8
3C1
100
AcDbLine
 10
360.0
 20
260.0
 30
0.0
 11
360.0
 21
560.0
 31
0.0
  0
LINE
  5
60D
330
1F
100
AcDbEntity
  8
3C1
100
AcDbLine
 10
2360.0
 20
260.0
 30
0.0
 11
2360.0
 21
560.0
 31
0.0
  0
LINE
  5
60F
330
1F
100
AcDbEntity
  8
3C1
100
AcDbLine
 10
3160.0
 20
260.0
 30
0.0
 11
3160.0
 21
560.0
 31
0.0
  0
LINE
  5
610
330
1F
100
AcDbEntity
  8
3C1
100
AcDbLine
 10
3660.0
 20
260.0
 30
0.0
 11
3660.0
 21
560.0
 31
0.0
  0
LINE
  5
119F
330
1F
100
AcDbEntity
  8
3C1
100
AcDbLine
 10
1580.019403644105
 20
3022.763203847502
 30
0.0
 11
1595.999999999999
 21
2850.0
 31
0.0
  0
LINE
  5
11A6
330
1F
100
AcDbEntity
  8
3C1
100
AcDbLine
 10
1408.624999999999
 20
2900.0
 30
0.0
 11
1591.375
 21
2900.0
 31
0.0
  0
LINE
  5
11A9
330
1F
100
AcDbEntity
  8
3C1
100
AcDbLine
 10
1449.85307038295
 20
3050.0
 30
0.0
 11
1550.146929617049
 21
3049.999999999999
 31
0.0
  0
ARC
  5
11AB
330
1F
100
AcDbEntity
  8
3C1
100
AcDbCircle
 10
1449.85307038295
 20
3020.0
 30
0.0
 40
30.0
100
AcDbArc
 50
90.0
 51
174.7151789074909
  0
ARC
  5
11AC
330
1F
100
AcDbEntity
  8
3C1
100
AcDbCircle
 10
1550.146929617049
 20
3019.999999999999
 30
0.0
 40
30.0
100
AcDbArc
 50
5.284821092509035
 51
90.0
  0
LINE
  5
11B6
330
1F
100
AcDbEntity
  8
3C1
100
AcDbLine
 10
1400.0
 20
2760.0
 30
0.0
 11
1599.999999999999
 21
2760.0
 31
0.0
  0
LINE
  5
151E
330
1F
100
AcDbEntity
  8
3C1
100
AcDbLine
 10
2650.0
 20
3050.0
 30
0.0
 11
2650.0
 21
2900.0
 31
0.0
  0
LINE
  5
151F
330
1F
100
AcDbEntity
  8
3C1
100
AcDbLine
 10
2675.0
 20
2270.0
 30
0.0
 11
4625.0
 21
2270.0
 31
0.0
  0
LINE
  5
1525
330
1F
100
AcDbEntity
  8
3C1
  6
HIDDEN2
100
AcDbLine
 10
2650.0
 20
2760.0
 30
0.0
 11
4650.0
 21
2760.0
 31
0.0
  0
LINE
  5
1527
330
1F
100
AcDbEntity
  8
3C1
  6
HIDDEN2
100
AcDbLine
 10
2650.0
 20
2360.0
 30
0.0
 11
4650.0
 21
2360.0
 31
0.0
  0
LINE
  5
1531
330
1F
100
AcDbEntity
  8
3C1
100
AcDbLine
 10
2650.0
 20
2900.0
 30
0.0
 11
2713.98014876084
 21
2893.601985123916
 31
0.0
  0
LINE
  5
1534
330
1F
100
AcDbEntity
  8
3C1
100
AcDbLine
 10
2750.0
 20
2853.800497515516
 30
0.0
 11
2750.0
 21
2850.0
 31
0.0
  0
ARC
  5
1535
330
1F
100
AcDbEntity
  8
3C1
100
AcDbCircle
 10
2710.0
 20
2853.800497515516
 30
0.0
 40
40.0
100
AcDbArc
 50
0.0
 51
84.28940686250037
  0
LINE
  5
1642
330
1F
100
AcDbEntity
  8
3C1
100
AcDbLine
 10
2649.999999999999
 20
1657.499999999999
 30
0.0
 11
4650.0
 21
1657.499999999999
 31
0.0
  0
LINE
  5
1643
330
1F
100
AcDbEntity
  8
3C1
100
AcDbLine
 10
2649.999999999999
 20
1502.5
 30
0.0
 11
4650.0
 21
1502.5
 31
0.0
  0
LINE
  5
1648
330
1F
100
AcDbEntity
  8
3C1
  6
HIDDEN2
100
AcDbLine
 10
2750.0
 20
1680.0
 30
0.0
 11
2750.0
 21
1480.0
 31
0.0
  0
LINE
  5
164C
330
1F
100
AcDbEntity
  8
3C1
100
AcDbLine
 10
2649.999999999999
 20
1676.0
 30
0.0
 11
4650.0
 21
1676.0
 31
0.0
  0
LINE
  5
164D
330
1F
100
AcDbEntity
  8
3C1
100
AcDbLine
 10
2649.999999999999
 20
1484.0
 30
0.0
 11
4650.0
 21
1484.0
 31
0.0
  0
LINE
  5
1782
330
1F
100
AcDbEntity
  8
3C1
  6
HIDDEN2
100
AcDbLine
 10
2650.0
 20
2850.0
 30
0.0
 11
4650.0
 21
2850.0
 31
0.0
  0
LINE
  5
1787
330
1F
100
AcDbEntity
  8
2C1
100
AcDbLine
 10
2649.999999999999
 20
1664.5
 30
0.0
 11
4650.0
 21
1664.5
 31
0.0
  0
LINE
  5
1788
330
1F
100
AcDbEntity
  8
2C1
100
AcDbLine
 10
2649.999999999999
 20
1650.5
 30
0.0
 11
4650.0
 21
1650.5
 31
0.0
  0
LINE
  5
1789
330
1F
100
AcDbEntity
  8
3C1
100
AcDbLine
 10
2649.999999999999
 20
1509.5
 30
0.0
 11
4650.0
 21
1509.5
 31
0.0
  0
LINE
  5
178A
330
1F
100
AcDbEntity
  8
2C1
100
AcDbLine
 10
2649.999999999999
 20
1509.5
 30
0.0
 11
4650.0
 21
1509.5
 31
0.0
  0
LINE
  5
178B
330
1F
100
AcDbEntity
  8
2C1
100
AcDbLine
 10
2649.999999999999
 20
1495.5
 30
0.0
 11
4650.0
 21
1495.5
 31
0.0
  0
LINE
  5
17F2
330
1F
100
AcDbEntity
  8
3C1
100
AcDbLine
 10
1350.0
 20
2436.794919243112
 30
0.0
 11
1350.0
 21
2710.0
 31
0.0
  0
LINE
  5
17F3
330
1F
100
AcDbEntity
  8
3C1
100
AcDbLine
 10
1649.999999999999
 20
2710.0
 30
0.0
 11
1650.0
 21
2436.794919243112
 31
0.0
  0
ARC
  5
17F5
330
1F
100
AcDbEntity
  8
3C1
100
AcDbCircle
 10
1400.0
 20
2710.0
 30
0.0
 40
50.0
100
AcDbArc
 50
90.0
 51
179.9999999999998
  0
ARC
  5
17F6
330
1F
100
AcDbEntity
  8
3C1
100
AcDbCircle
 10
1599.999999999999
 20
2710.0
 30
0.0
 40
50.0
100
AcDbArc
 50
0.0000000000001018
 51
90.0
  0
ARC
  5
17F8
330
1F
100
AcDbEntity
  8
3C1
100
AcDbCircle
 10
1500.0
 20
2610.0
 30
0.0
 40
250.0
100
AcDbArc
 50
240.0
 51
300.0000000000001
  0
ARC
  5
17F9
330
1F
100
AcDbEntity
  8
3C1
100
AcDbCircle
 10
1400.0
 20
2436.794919243112
 30
0.0
 40
50.0
100
AcDbArc
 50
180.0
 51
240.0000000000001
  0
ARC
  5
17FA
330
1F
100
AcDbEntity
  8
3C1
100
AcDbCircle
 10
1600.0
 20
2436.794919243112
 30
0.0
 40
50.0
100
AcDbArc
 50
300.0000000000001
 51
0.0
  0
LINE
  5
1802
330
1F
100
AcDbEntity
  8
3C1
100
AcDbLine
 10
1302.999999999999
 20
2760.0
 30
0.0
 11
1326.999999999999
 21
2760.0
 31
0.0
  0
LINE
  5
1803
330
1F
100
AcDbEntity
  8
3C1
100
AcDbLine
 10
1672.999999999999
 20
2760.0
 30
0.0
 11
1697.0
 21
2760.0
 31
0.0
  0
LINE
  5
1809
330
1F
100
AcDbEntity
  8
3C1
100
AcDbLine
 10
1404.0
 20
2850.0
 30
0.0
 11
1282.99523121789
 21
2856.830914366732
 31
0.0
  0
LINE
  5
180A
330
1F
100
AcDbEntity
  8
3C1
100
AcDbLine
 10
1280.0
 20
2854.0
 30
0.0
 11
1279.999999999999
 21
2295.0
 31
0.0
  0
LINE
  5
180B
330
1F
100
AcDbEntity
  8
3C1
100
AcDbLine
 10
1304.999999999999
 20
2270.0
 30
0.0
 11
1694.999999999999
 21
2270.0
 31
0.0
  0
LINE
  5
180C
330
1F
100
AcDbEntity
  8
3C1
100
AcDbLine
 10
1719.999999999999
 20
2295.0
 30
0.0
 11
1719.999999999999
 21
2854.0
 31
0.0
  0
LINE
  5
180D
330
1F
100
AcDbEntity
  8
3C1
100
AcDbLine
 10
1717.004768782109
 20
2856.830914366732
 30
0.0
 11
1596.0
 21
2850.0
 31
0.0
  0
LINE
  5
18C0
330
1F
100
AcDbEntity
  8
3C1
100
AcDbLine
 10
2650.0
 20
2857.0
 30
0.0
 11
4650.0
 21
2857.0
 31
0.0
  0
LINE
  5
18C1
330
1F
100
AcDbEntity
  8
3C1
  6
HIDDEN2
100
AcDbLine
 10
2649.999999999999
 20
1730.0
 30
0.0
 11
4650.0
 21
1730.0
 31
0.0
  0
LINE
  5
18C2
330
1F
100
AcDbEntity
  8
3C1
100
AcDbLine
 10
4650.0
 20
1800.0
 30
0.0
 11
2649.999999999999
 21
1800.0
 31
0.0
  0
LINE
  5
18C3
330
1F
100
AcDbEntity
  8
3C1
  6
HIDDEN2
100
AcDbLine
 10
2649.999999999999
 20
1430.0
 30
0.0
 11
4650.0
 21
1430.0
 31
0.0
  0
LINE
  5
18C4
330
1F
100
AcDbEntity
  8
3C1
100
AcDbLine
 10
2649.999999999999
 20
1360.0
 30
0.0
 11
4650.0
 21
1360.0
 31
0.0
  0
LINE
  5
18C8
330
1F
100
AcDbEntity
  8
3C1
100
AcDbLine
 10
2649.999999999999
 20
1800.0
 30
0.0
 11
2649.999999999999
 21
1360.0
 31
0.0
  0
LINE
  5
18C9
330
1F
100
AcDbEntity
  8
3C1
100
AcDbLine
 10
4650.0
 20
1800.0
 30
0.0
 11
4650.0
 21
1360.0
 31
0.0
  0
LINE
  5
195A
330
1F
100
AcDbEntity
  8
3C1
100
AcDbLine
 10
2649.999999999999
 20
3050.0
 30
0.0
 11
4650.0
 21
3050.0
 31
0.0
  0
LINE
  5
195B
330
1F
100
AcDbEntity
  8
3C1
100
AcDbLine
 10
4650.0
 20
3050.0
 30
0.0
 11
4650.0
 21
2900.0
 31
0.0
  0
LINE
  5
196F
330
1F
100
AcDbEntity
  8
3C1
100
AcDbLine
 10
4650.0
 20
2900.0
 30
0.0
 11
4586.01985123916
 21
2893.601985123916
 31
0.0
  0
ARC
  5
1970
330
1F
100
AcDbEntity
  8
3C1
100
AcDbCircle
 10
4590.0
 20
2853.800497515516
 30
0.0
 40
40.0
100
AcDbArc
 50
95.71059313749962
 51
180.0
  0
LINE
  5
19AB
330
1F
100
AcDbEntity
  8
3C1
  6
HIDDEN2
100
AcDbLine
 10
4550.0
 20
1680.0
 30
0.0
 11
4550.0
 21
1480.0
 31
0.0
  0
LINE
  5
19AC
330
1F
100
AcDbEntity
  8
3C1
  6
HIDDEN2
100
AcDbLine
 10
4550.0
 20
1680.0
 30
0.0
 11
4650.0
 21
1680.0
 31
0.0
  0
LINE
  5
19AD
330
1F
100
AcDbEntity
  8
3C1
  6
HIDDEN2
100
AcDbLine
 10
4550.0
 20
1480.0
 30
0.0
 11
4650.0
 21
1480.0
 31
0.0
  0
LINE
  5
19AE
330
1F
100
AcDbEntity
  8
3C1
  6
HIDDEN2
100
AcDbLine
 10
2649.999999999999
 20
1480.0
 30
0.0
 11
2750.0
 21
1480.0
 31
0.0
  0
LINE
  5
19AF
330
1F
100
AcDbEntity
  8
3C1
  6
HIDDEN2
100
AcDbLine
 10
2649.999999999999
 20
1680.0
 30
0.0
 11
2750.0
 21
1680.0
 31
0.0
  0
LINE
  5
19C8
330
1F
100
AcDbEntity
  8
3C1
100
AcDbLine
 10
4650.0
 20
2857.0
 30
0.0
 11
4650.0
 21
2295.0
 31
0.0
  0
LINE
  5
19C9
330
1F
100
AcDbEntity
  8
3C1
100
AcDbLine
 10
2650.0
 20
2857.0
 30
0.0
 11
2650.0
 21
2295.0
 31
0.0
  0
LINE
  5
1A8A
330
1F
100
AcDbEntity
  8
3C1
100
AcDbLine
 10
1302.999999999999
 20
2760.0
 30
0.0
 11
1302.999999999999
 21
2440.0
 31
0.0
  0
LINE
  5
1A8B
330
1F
100
AcDbEntity
  8
3C1
100
AcDbLine
 10
1326.999999999999
 20
2760.0
 30
0.0
 11
1327.0
 21
2440.0
 31
0.0
  0
LINE
  5
1A8C
330
1F
100
AcDbEntity
  8
3C1
100
AcDbLine
 10
1672.999999999999
 20
2760.0
 30
0.0
 11
1673.0
 21
2440.0
 31
0.0
  0
LINE
  5
1A8D
330
1F
100
AcDbEntity
  8
3C1
100
AcDbLine
 10
1697.0
 20
2760.0
 30
0.0
 11
1696.999999999999
 21
2440.0
 31
0.0
  0
LINE
  5
1A9D
330
1F
100
AcDbEntity
  8
3C1
100
AcDbLine
 10
1547.499999999999
 20
2340.0
 30
0.0
 11
1500.0
 21
2340.0
 31
0.0
  0
LINE
  5
1A9E
330
1F
100
AcDbEntity
  8
3C1
100
AcDbLine
 10
1573.0
 20
2340.0
 30
0.0
 11
1427.0
 21
2340.0
 31
0.0
  0
LINE
  5
1A9F
330
1F
100
AcDbEntity
  8
3C1
100
AcDbLine
 10
1572.999999999999
 20
2316.0
 30
0.0
 11
1426.999999999999
 21
2316.0
 31
0.0
  0
ARC
  5
1AA2
330
1F
100
AcDbEntity
  8
3C1
100
AcDbCircle
 10
1427.0
 20
2440.0
 30
0.0
 40
100.0
100
AcDbArc
 50
180.0
 51
270.0
  0
ARC
  5
1AA3
330
1F
100
AcDbEntity
  8
3C1
100
AcDbCircle
 10
1573.0
 20
2440.0
 30
0.0
 40
100.0
100
AcDbArc
 50
270.0
 51
0.0
  0
ARC
  5
1AA4
330
1F
100
AcDbEntity
  8
3C1
100
AcDbCircle
 10
1426.999999999999
 20
2440.0
 30
0.0
 40
124.0
100
AcDbArc
 50
180.0
 51
270.0
  0
ARC
  5
1AA5
330
1F
100
AcDbEntity
  8
3C1
100
AcDbCircle
 10
1572.999999999999
 20
2440.0
 30
0.0
 40
124.0
100
AcDbArc
 50
270.0
 51
359.9999999999999
  0
LINE
  5
1BF9
330
1F
100
AcDbEntity
  8
3C1
100
AcDbLine
 10
1404.0
 20
2847.0
 30
0.0
 11
1280.0
 21
2854.0
 31
0.0
  0
LINE
  5
1BFA
330
1F
100
AcDbEntity
  8
3C1
100
AcDbLine
 10
1720.0
 20
2853.995223625393
 30
0.0
 11
1596.0
 21
2846.995223625393
 31
0.0
  0
LINE
  5
1BFC
330
1F
100
AcDbEntity
  8
3C1
100
AcDbLine
 10
1404.0
 20
2850.0
 30
0.0
 11
1404.0
 21
2760.0
 31
0.0
  0
LINE
  5
1BFD
330
1F
100
AcDbEntity
  8
3C1
100
AcDbLine
 10
1596.0
 20
2849.999999999999
 30
0.0
 11
1596.0
 21
2760.0
 31
0.0
  0
LINE
  5
1BFF
330
1F
100
AcDbEntity
  8
3C1
100
AcDbLine
 10
1404.0
 20
2850.0
 30
0.0
 11
1419.980596355894
 21
3022.763203847502
 31
0.0
  0
LINE
  5
1C00
330
1F
100
AcDbEntity
  8
3C1
100
AcDbLine
 10
1282.99523121789
 20
2856.830914366732
 30
0.0
 11
1280.0
 21
2854.0
 31
0.0
  0
LINE
  5
1C01
330
1F
100
AcDbEntity
  8
3C1
100
AcDbLine
 10
1717.004768782109
 20
2856.830914366732
 30
0.0
 11
1719.999999999999
 21
2854.0
 31
0.0
  0
LINE
  5
1D0E
330
1F
100
AcDbEntity
  8
2C1
  6
HIDDEN2
100
AcDbLine
 10
3137.499999999999
 20
2857.0
 30
0.0
 11
3134.999999999999
 21
2760.0
 31
0.0
  0
LINE
  5
1D0F
330
1F
100
AcDbEntity
  8
2C1
  6
HIDDEN2
100
AcDbLine
 10
3162.499999999999
 20
2857.0
 30
0.0
 11
3164.999999999999
 21
2760.0
 31
0.0
  0
LINE
  5
1D12
330
1F
100
AcDbEntity
  8
2C1
  6
HIDDEN2
100
AcDbLine
 10
4162.5
 20
2857.0
 30
0.0
 11
4165.000000000001
 21
2760.0
 31
0.0
  0
LINE
  5
1D13
330
1F
100
AcDbEntity
  8
2C1
  6
HIDDEN2
100
AcDbLine
 10
4137.500000000001
 20
2857.0
 30
0.0
 11
4135.0
 21
2760.0
 31
0.0
  0
LINE
  5
1D26
330
1F
100
AcDbEntity
  8
3C1
100
AcDbLine
 10
2650.0
 20
2295.0
 30
0.0
 11
4650.0
 21
2295.0
 31
0.0
  0
LINE
  5
1D27
330
1F
100
AcDbEntity
  8
2C1
100
AcDbLine
 10
1280.0
 20
2295.0
 30
0.0
 11
1719.999999999999
 21
2295.0
 31
0.0
  0
LINE
  5
1D28
330
1F
100
AcDbEntity
  8
3C1
100
AcDbLine
 10
1279.999999999999
 20
2295.0
 30
0.0
 11
1304.999999999999
 21
2270.0
 31
0.0
  0
LINE
  5
1D2A
330
1F
100
AcDbEntity
  8
3C1
100
AcDbLine
 10
1719.999999999999
 20
2295.0
 30
0.0
 11
1694.999999999999
 21
2270.0
 31
0.0
  0
LINE
  5
1D2B
330
1F
100
AcDbEntity
  8
3C1
100
AcDbLine
 10
2650.0
 20
2295.0
 30
0.0
 11
2675.0
 21
2270.0
 31
0.0
  0
LINE
  5
1D2C
330
1F
100
AcDbEntity
  8
3C1
100
AcDbLine
 10
4650.0
 20
2295.0
 30
0.0
 11
4625.0
 21
2270.0
 31
0.0
  0
LINE
  5
1D2D
330
1F
100
AcDbEntity
  8
2C1
  6
HIDDEN2
100
AcDbLine
 10
4650.0
 20
1775.0
 30
0.0
 11
2649.999999999999
 21
1775.0
 31
0.0
  0
LINE
  5
1D2E
330
1F
100
AcDbEntity
  8
2C1
  6
HIDDEN2
100
AcDbLine
 10
2649.999999999999
 20
1385.0
 30
0.0
 11
4650.0
 21
1385.0
 31
0.0
  0
LINE
  5
1D2F
330
1F
100
AcDbEntity
  8
2C1
100
AcDbLine
 10
4650.0
 20
1797.0
 30
0.0
 11
2649.999999999999
 21
1797.0
 31
0.0
  0
LINE
  5
1D30
330
1F
100
AcDbEntity
  8
2C1
100
AcDbLine
 10
2649.999999999999
 20
1363.0
 30
0.0
 11
4650.0
 21
1363.0
 31
0.0
  0
LINE
  5
1E35
330
1F
100
AcDbEntity
  8
3C1
100
AcDbLine
 10
2650.0
 20
2854.0
 30
0.0
 11
4650.0
 21
2854.0
 31
0.0
  0
LINE
  5
23BA
330
1F
100
AcDbEntity
  8
SUNPO
 62
   144
100
AcDbLine
 10
2649.999999999999
 20
1820.0
 30
0.0
 11
2649.999999999999
 21
1960.0
 31
0.0
  0
LINE
  5
23BB
330
1F
100
AcDbEntity
  8
SUNPO
 62
   144
100
AcDbLine
 10
4650.0
 20
1820.0
 30
0.0
 11
4650.0
 21
1960.0
 31
0.0
  0
LINE
  5
23BC
330
1F
100
AcDbEntity
  8
SUNPO
 62
   144
100
AcDbLine
 10
2677.999999999999
 20
1950.0
 30
0.0
 11
4622.0
 21
1950.0
 31
0.0
  0
SOLID
  5
23BD
330
1F
100
AcDbEntity
  8
SUNPO
 62
   144
100
AcDbTrace
 10
2677.999999999999
 20
1954.666666666666
 30
0.0
 11
2677.999999999999
 21
1945.333333333333
 31
0.0
 12
2649.999999999999
 22
1950.0
 32
0.0
 13
2649.999999999999
 23
1950.0
 33
0.0
  0
SOLID
  5
23BE
330
1F
100
AcDbEntity
  8
SUNPO
 62
   144
100
AcDbTrace
 10
4622.0
 20
1954.666666666666
 30
0.0
 11
4622.0
 21
1945.333333333333
 31
0.0
 12
4650.0
 22
1950.0
 32
0.0
 13
4650.0
 23
1950.0
 33
0.0
  0
LINE
  5
23C0
330
1F
100
AcDbEntity
  8
SUNPO
 62
   144
100
AcDbLine
 10
1211.410601049319
 20
2830.075902148974
 30
0.0
 11
1334.204593081743
 21
2751.892295574017
 31
0.0
  0
LINE
  5
23C2
330
1F
100
AcDbEntity
  8
SUNPO
 62
   144
100
AcDbLine
 10
1399.999999999999
 20
2709.999999999999
 30
0.0
 11
1357.823457103681
 21
2736.85403562437
 31
0.0
  0
SOLID
  5
23C3
330
1F
100
AcDbEntity
  8
SUNPO
 62
   144
100
AcDbTrace
 10
1336.710969740018
 20
2755.828772911007
 30
0.0
 11
1331.698216423468
 21
2747.955818237028
 31
0.0
 12
1357.823457103681
 22
2736.85403562437
 32
0.0
 13
1357.823457103681
 23
2736.85403562437
 33
0.0
  0
LINE
  5
23C4
330
1F
100
AcDbEntity
  8
SUNPO
 62
   144
100
AcDbLine
 10
1214.768355153997
 20
2311.601383383175
 30
0.0
 11
1335.376052341266
 21
2393.117174463863
 31
0.0
  0
LINE
  5
23C6
330
1F
100
AcDbEntity
  8
SUNPO
 62
   144
100
AcDbLine
 10
1400.0
 20
2436.794919243112
 30
0.0
 11
1358.574392526453
 21
2408.796364897439
 31
0.0
  0
SOLID
  5
23C7
330
1F
100
AcDbEntity
  8
SUNPO
 62
   144
100
AcDbTrace
 10
1332.76285393567
 20
2396.983564494727
 30
0.0
 11
1337.989250746863
 21
2389.250784432998
 31
0.0
 12
1358.574392526453
 22
2408.796364897439
 32
0.0
 13
1358.574392526453
 23
2408.796364897439
 33
0.0
  0
LINE
  5
23C8
330
1F
100
AcDbEntity
  8
SUNPO
 62
   144
100
AcDbLine
 10
1601.055063565589
 20
2163.434173505114
 30
0.0
 11
1561.358238283506
 21
2338.855819544758
 31
0.0
  0
LINE
  5
23CA
330
1F
100
AcDbEntity
  8
SUNPO
 62
   144
100
AcDbLine
 10
1500.0
 20
2610.000000000002
 30
0.0
 11
1555.178271837685
 21
2366.165305346006
 31
0.0
  0
SOLID
  5
23CB
330
1F
100
AcDbEntity
  8
SUNPO
 62
   144
100
AcDbTrace
 10
1565.90981925038
 20
2339.885813952395
 30
0.0
 11
1556.806657316631
 21
2337.825825137121
 31
0.0
 12
1555.178271837685
 22
2366.165305346006
 32
0.0
 13
1555.178271837685
 23
2366.165305346006
 33
0.0
  0
TEXT
  5
23CC
330
1F
100
AcDbEntity
  8
SUNPO
100
AcDbText
 10
1824.571428571428
 20
2172.0
 30
0.0
 40
38.0
  1
25C
  7
ADD
100
AcDbText
1001
ACAD
1000
MTEXTBEGIN
1070
    73
1070
     1
1070
    44
1040
1.0
1070
    74
1070
     0
1000
MTEXTEND
1000
MTEXTBEGIN
1070
    73
1070
     1
1070
    44
1040
1.0
1070
    74
1070
     0
1000
MTEXTEND
1000
MTEXTBEGIN
1070
    73
1070
     1
1070
    44
1040
1.0
1070
    74
1070
     0
1000
MTEXTEND
1000
MTEXTBEGIN
1070
    73
1070
     1
1070
    44
1040
1.0
1070
    74
1070
     0
1000
MTEXTEND
1000
MTEXTBEGIN
1070
    73
1070
     1
1070
    44
1040
1.0
1070
    74
1070
     0
1000
MTEXTEND
1000
MTEXTBEGIN
1070
    73
1070
     1
1070
    44
1040
1.0
1070
    74
1070
     0
1000
MTEXTEND
1000
MTEXTBEGIN
1070
    73
1070
     1
1070
    44
1040
1.0
1070
    74
1070
     0
1000
MTEXTEND
1000
MTEXTBEGIN
1070
    73
1070
     1
1070
    44
1040
1.0
1070
    74
1070
     0
1000
MTEXTEND
  0
SOLID
  5
23CD
330
1F
100
AcDbEntity
  8
SUNPO
100
AcDbTrace
 10
1723.002200508816
 20
2258.720606459327
 30
0.0
 11
1707.499999999999
 21
2282.5
 31
0.0
 12
1729.876479467477
 22
2265.033719788709
 32
0.0
 13
1729.876479467477
 23
2265.033719788709
 33
0.0
1001
ACAD
1000
DSTYLE
1002
{
1070
     5
1000

1070
    40
1040
20.0
1070
    41
1040
1.399999999999999
1070
    77
1070
     0
1070
   140
1040
1.8
1070
   141
1040
1.399999999999999
1070
   147
1040
0.625
1070
   342
1005
0
1002
}
  0
TEXT
  5
23CF
330
1F
100
AcDbEntity
  8
SUNPO
100
AcDbText
 10
1784.571428571428
 20
2932.0
 30
0.0
 40
38.0
  1
3C
  7
ADD
100
AcDbText
1001
ACAD
1000
MTEXTBEGIN
1070
    73
1070
     1
1070
    44
1040
1.0
1070
    74
1070
     0
1000
MTEXTEND
1000
MTEXTBEGIN
1070
    73
1070
     1
1070
    44
1040
1.0
1070
    74
1070
     0
1000
MTEXTEND
1000
MTEXTBEGIN
1070
    73
1070
     1
1070
    44
1040
1.0
1070
    74
1070
     0
1000
MTEXTEND
1000
MTEXTBEGIN
1070
    73
1070
     1
1070
    44
1040
1.0
1070
    74
1070
     0
1000
MTEXTEND
1000
MTEXTBEGIN
1070
    73
1070
     1
1070
    44
1040
1.0
1070
    74
1070
     0
1000
MTEXTEND
1000
MTEXTBEGIN
1070
    73
1070
     1
1070
    44
1040
1.0
1070
    74
1070
     0
1000
MTEXTEND
1000
MTEXTBEGIN
1070
    73
1070
     1
1070
    44
1040
1.0
1070
    74
1070
     0
1000
MTEXTEND
1000
MTEXTBEGIN
1070
    73
1070
     1
1070
    44
1040
1.0
1070
    74
1070
     0
1000
MTEXTEND
  0
SOLID
  5
23D0
330
1F
100
AcDbEntity
  8
SUNPO
100
AcDbTrace
 10
1741.190450420207
 20
2872.475042103129
 30
0.0
 11
1718.502384391054
 21
2855.415457183366
 31
0.0
 12
1734.431230120329
 22
2878.911194062867
 32
0.0
 13
1734.431230120329
 23
2878.911194062867
 33
0.0
1001
ACAD
1000
DSTYLE
1002
{
1070
     5
1000

1070
    40
1040
20.0
1070
    41
1040
1.399999999999999
1070
    77
1070
     0
1070
   140
1040
1.8
1070
   141
1040
1.399999999999999
1070
   147
1040
0.625
1070
   342
1005
0
1002
}
  0
SOLID
  5
23D2
330
1F
100
AcDbEntity
  8
SUNPO
100
AcDbTrace
 10
-1632.436562880066
 20
2872.280988607732
 30
0.0
 11
-1605.0
 21
2865.0
 31
0.0
 12
-1633.314907137706
 22
2862.989076938104
 32
0.0
 13
-1633.314907137706
 23
2862.989076938104
 33
0.0
210
0.0
220
0.0
230
-1.0
1001
ACAD
1000
DSTYLE
1002
{
1070
     5
1000

1070
    40
1040
20.0
1070
    41
1040
1.399999999999999
1070
    77
1070
     0
1070
   140
1040
1.8
1070
   141
1040
1.399999999999999
1070
   147
1040
0.625
1070
   342
1005
0
1002
}
  0
TEXT
  5
23D4
330
1F
100
AcDbEntity
  8
SUNPO
100
AcDbText
 10
1624.587870646442
 20
2878.905092761913
 30
0.0
 40
38.0
  1
6
 50
5.4
  7
ADD
100
AcDbText
1001
ACAD
1000
MTEXTBEGIN
1070
    73
1070
     1
1070
    44
1040
1.0
1070
    74
1070
     0
1000
MTEXTEND
1000
MTEXTBEGIN
1070
    73
1070
     1
1070
    44
1040
1.0
1070
    74
1070
     0
1000
MTEXTEND
1000
MTEXTBEGIN
1070
    73
1070
     1
1070
    44
1040
1.0
1070
    74
1070
     0
1000
MTEXTEND
1000
MTEXTBEGIN
1070
    73
1070
     1
1070
    44
1040
1.0
1070
    74
1070
     0
1000
MTEXTEND
1000
MTEXTBEGIN
1070
    73
1070
     1
1070
    44
1040
1.0
1070
    74
1070
     0
1000
MTEXTEND
1000
MTEXTBEGIN
1070
    73
1070
     1
1070
    44
1040
1.0
1070
    74
1070
     0
1000
MTEXTEND
1000
MTEXTBEGIN
1070
    73
1070
     1
1070
    44
1040
1.0
1070
    74
1070
     0
1000
MTEXTEND
1000
MTEXTBEGIN
1070
    73
1070
     1
1070
    44
1040
1.0
1070
    74
1070
     0
1000
MTEXTEND
1000
MTEXTBEGIN
1070
    73
1070
     1
1070
    44
1040
1.0
1070
    74
1070
     0
1000
MTEXTEND
1000
MTEXTBEGIN
1070
    73
1070
     1
1070
    44
1040
1.0
1070
    74
1070
     0
1000
MTEXTEND
1000
MTEXTBEGIN
1070
    73
1070
     1
1070
    44
1040
1.0
1070
    74
1070
     0
1000
MTEXTEND
1000
MTEXTBEGIN
1070
    73
1070
     1
1070
    44
1040
1.0
1070
    74
1070
     0
1000
MTEXTEND
1000
MTEXTBEGIN
1070
    73
1070
     1
1070
    44
1040
1.0
1070
    74
1070
     0
1000
MTEXTEND
1000
MTEXTBEGIN
1070
    73
1070
     1
1070
    44
1040
1.0
1070
    74
1070
     0
1000
MTEXTEND
  0
TEXT
  5
23D5
330
1F
100
AcDbEntity
  8
SUNPO
100
AcDbText
 10
1660.617732222553
 20
2882.310917434392
 30
0.0
 40
38.0
  1
%
 50
5.4
  7
ADD
100
AcDbText
1001
ACAD
1000
MTEXTBEGIN
1070
    73
1070
     1
1070
    44
1040
1.0
1070
    74
1070
     0
1000
MTEXTEND
1000
MTEXTBEGIN
1070
    73
1070
     1
1070
    44
1040
1.0
1070
    74
1070
     0
1000
MTEXTEND
1000
MTEXTBEGIN
1070
    73
1070
     1
1070
    44
1040
1.0
1070
    74
1070
     0
1000
MTEXTEND
1000
MTEXTBEGIN
1070
    73
1070
     1
1070
    44
1040
1.0
1070
    74
1070
     0
1000
MTEXTEND
1000
MTEXTBEGIN
1070
    73
1070
     1
1070
    44
1040
1.0
1070
    74
1070
     0
1000
MTEXTEND
1000
MTEXTBEGIN
1070
    73
1070
     1
1070
    44
1040
1.0
1070
    74
1070
     0
1000
MTEXTEND
1000
MTEXTBEGIN
1070
    73
1070
     1
1070
    44
1040
1.0
1070
    74
1070
     0
1000
MTEXTEND
1000
MTEXTBEGIN
1070
    73
1070
     1
1070
    44
1040
1.0
1070
    74
1070
     0
1000
MTEXTEND
1000
MTEXTBEGIN
1070
    73
1070
     1
1070
    44
1040
1.0
1070
    74
1070
     0
1000
MTEXTEND
1000
MTEXTBEGIN
1070
    73
1070
     1
1070
    44
1040
1.0
1070
    74
1070
     0
1000
MTEXTEND
1000
MTEXTBEGIN
1070
    73
1070
     1
1070
    44
1040
1.0
1070
    74
1070
     0
1000
MTEXTEND
1000
MTEXTBEGIN
1070
    73
1070
     1
1070
    44
1040
1.0
1070
    74
1070
     0
1000
MTEXTEND
1000
MTEXTBEGIN
1070
    73
1070
     1
1070
    44
1040
1.0
1070
    74
1070
     0
1000
MTEXTEND
1000
MTEXTBEGIN
1070
    73
1070
     1
1070
    44
1040
1.0
1070
    74
1070
     0
1000
MTEXTEND
  0
SOLID
  5
23D6
330
1F
100
AcDbEntity
  8
SUNPO
100
AcDbTrace
 10
1367.563437119933
 20
2872.280988607732
 30
0.0
 11
1395.0
 21
2865.0
 31
0.0
 12
1366.685092862294
 22
2862.989076938104
 32
0.0
 13
1366.685092862294
 23
2862.989076938104
 33
0.0
1001
ACAD
1000
DSTYLE
1002
{
1070
     5
1000

1070
    40
1040
20.0
1070
    41
1040
1.399999999999999
1070
    77
1070
     0
1070
   140
1040
1.8
1070
   141
1040
1.399999999999999
1070
   147
1040
0.625
1070
   342
1005
0
1002
}
  0
TEXT
  5
23D8
330
1F
100
AcDbEntity
  8
SUNPO
100
AcDbText
 10
1294.344940807307
 20
2886.568198274991
 30
0.0
 40
38.0
  1
6
 50
354.5999999999999
  7
ADD
100
AcDbText
1001
ACAD
1000
MTEXTBEGIN
1070
    73
1070
     1
1070
    44
1040
1.0
1070
    74
1070
     0
1000
MTEXTEND
1000
MTEXTBEGIN
1070
    73
1070
     1
1070
    44
1040
1.0
1070
    74
1070
     0
1000
MTEXTEND
1000
MTEXTBEGIN
1070
    73
1070
     1
1070
    44
1040
1.0
1070
    74
1070
     0
1000
MTEXTEND
1000
MTEXTBEGIN
1070
    73
1070
     1
1070
    44
1040
1.0
1070
    74
1070
     0
1000
MTEXTEND
1000
MTEXTBEGIN
1070
    73
1070
     1
1070
    44
1040
1.0
1070
    74
1070
     0
1000
MTEXTEND
1000
MTEXTBEGIN
1070
    73
1070
     1
1070
    44
1040
1.0
1070
    74
1070
     0
1000
MTEXTEND
1000
MTEXTBEGIN
1070
    73
1070
     1
1070
    44
1040
1.0
1070
    74
1070
     0
1000
MTEXTEND
1000
MTEXTBEGIN
1070
    73
1070
     1
1070
    44
1040
1.0
1070
    74
1070
     0
1000
MTEXTEND
1000
MTEXTBEGIN
1070
    73
1070
     1
1070
    44
1040
1.0
1070
    74
1070
     0
1000
MTEXTEND
1000
MTEXTBEGIN
1070
    73
1070
     1
1070
    44
1040
1.0
1070
    74
1070
     0
1000
MTEXTEND
1000
MTEXTBEGIN
1070
    73
1070
     1
1070
    44
1040
1.0
1070
    74
1070
     0
1000
MTEXTEND
1000
MTEXTBEGIN
1070
    73
1070
     1
1070
    44
1040
1.0
1070
    74
1070
     0
1000
MTEXTEND
1000
MTEXTBEGIN
1070
    73
1070
     1
1070
    44
1040
1.0
1070
    74
1070
     0
1000
MTEXTEND
1000
MTEXTBEGIN
1070
    73
1070
     1
1070
    44
1040
1.0
1070
    74
1070
     0
1000
MTEXTEND
  0
TEXT
  5
23D9
330
1F
100
AcDbEntity
  8
SUNPO
100
AcDbText
 10
1330.374802383418
 20
2883.162373602512
 30
0.0
 40
38.0
  1
%
 50
354.5999999999999
  7
ADD
100
AcDbText
1001
ACAD
1000
MTEXTBEGIN
1070
    73
1070
     1
1070
    44
1040
1.0
1070
    74
1070
     0
1000
MTEXTEND
1000
MTEXTBEGIN
1070
    73
1070
     1
1070
    44
1040
1.0
1070
    74
1070
     0
1000
MTEXTEND
1000
MTEXTBEGIN
1070
    73
1070
     1
1070
    44
1040
1.0
1070
    74
1070
     0
1000
MTEXTEND
1000
MTEXTBEGIN
1070
    73
1070
     1
1070
    44
1040
1.0
1070
    74
1070
     0
1000
MTEXTEND
1000
MTEXTBEGIN
1070
    73
1070
     1
1070
    44
1040
1.0
1070
    74
1070
     0
1000
MTEXTEND
1000
MTEXTBEGIN
1070
    73
1070
     1
1070
    44
1040
1.0
1070
    74
1070
     0
1000
MTEXTEND
1000
MTEXTBEGIN
1070
    73
1070
     1
1070
    44
1040
1.0
1070
    74
1070
     0
1000
MTEXTEND
1000
MTEXTBEGIN
1070
    73
1070
     1
1070
    44
1040
1.0
1070
    74
1070
     0
1000
MTEXTEND
1000
MTEXTBEGIN
1070
    73
1070
     1
1070
    44
1040
1.0
1070
    74
1070
     0
1000
MTEXTEND
1000
MTEXTBEGIN
1070
    73
1070
     1
1070
    44
1040
1.0
1070
    74
1070
     0
1000
MTEXTEND
1000
MTEXTBEGIN
1070
    73
1070
     1
1070
    44
1040
1.0
1070
    74
1070
     0
1000
MTEXTEND
1000
MTEXTBEGIN
1070
    73
1070
     1
1070
    44
1040
1.0
1070
    74
1070
     0
1000
MTEXTEND
1000
MTEXTBEGIN
1070
    73
1070
     1
1070
    44
1040
1.0
1070
    74
1070
     0
1000
MTEXTEND
1000
MTEXTBEGIN
1070
    73
1070
     1
1070
    44
1040
1.0
1070
    74
1070
     0
1000
MTEXTEND
  0
LINE
  5
23DA
330
1F
100
AcDbEntity
  8
SUNPO
 62
   144
100
AcDbLine
 10
1349.999999999999
 20
2250.0
 30
0.0
 11
1349.999999999999
 21
2090.0
 31
0.0
  0
LINE
  5
23DB
330
1F
100
AcDbEntity
  8
SUNPO
 62
   144
100
AcDbLine
 10
1649.999999999999
 20
2250.0
 30
0.0
 11
1649.999999999999
 21
2090.0
 31
0.0
  0
LINE
  5
23DC
330
1F
100
AcDbEntity
  8
SUNPO
 62
   144
100
AcDbLine
 10
1377.999999999999
 20
2100.0
 30
0.0
 11
1621.999999999999
 21
2100.0
 31
0.0
  0
SOLID
  5
23DD
330
1F
100
AcDbEntity
  8
SUNPO
 62
   144
100
AcDbTrace
 10
1377.999999999999
 20
2104.666666666666
 30
0.0
 11
1377.999999999999
 21
2095.333333333333
 31
0.0
 12
1349.999999999999
 22
2100.0
 32
0.0
 13
1349.999999999999
 23
2100.0
 33
0.0
  0
SOLID
  5
23DE
330
1F
100
AcDbEntity
  8
SUNPO
 62
   144
100
AcDbTrace
 10
1621.999999999999
 20
2104.666666666666
 30
0.0
 11
1621.999999999999
 21
2095.333333333333
 31
0.0
 12
1649.999999999999
 22
2100.0
 32
0.0
 13
1649.999999999999
 23
2100.0
 33
0.0
  0
LINE
  5
23E0
330
1F
100
AcDbEntity
  8
SUNPO
 62
   144
100
AcDbLine
 10
1649.999999999999
 20
2250.0
 30
0.0
 11
1649.999999999999
 21
2090.0
 31
0.0
  0
LINE
  5
23E1
330
1F
100
AcDbEntity
  8
SUNPO
 62
   144
100
AcDbLine
 10
1719.999999999999
 20
2250.0
 30
0.0
 11
1719.999999999999
 21
2090.0
 31
0.0
  0
LINE
  5
23E2
330
1F
100
AcDbEntity
  8
SUNPO
 62
   144
100
AcDbLine
 10
1621.999999999999
 20
2100.0
 30
0.0
 11
1593.999999999999
 21
2100.0
 31
0.0
  0
LINE
  5
23E3
330
1F
100
AcDbEntity
  8
SUNPO
 62
   144
100
AcDbLine
 10
1747.999999999999
 20
2100.0
 30
0.0
 11
1775.999999999999
 21
2100.0
 31
0.0
  0
LINE
  5
23E4
330
1F
100
AcDbEntity
  8
SUNPO
 62
   144
100
AcDbLine
 10
1649.999999999999
 20
2100.0
 30
0.0
 11
1719.999999999999
 21
2100.0
 31
0.0
  0
SOLID
  5
23E5
330
1F
100
AcDbEntity
  8
SUNPO
 62
   144
100
AcDbTrace
 10
1621.999999999999
 20
2104.666666666666
 30
0.0
 11
1621.999999999999
 21
2095.333333333333
 31
0.0
 12
1649.999999999999
 22
2100.0
 32
0.0
 13
1649.999999999999
 23
2100.0
 33
0.0
  0
SOLID
  5
23E6
330
1F
100
AcDbEntity
  8
SUNPO
 62
   144
100
AcDbTrace
 10
1747.999999999999
 20
2104.666666666666
 30
0.0
 11
1747.999999999999
 21
2095.333333333333
 31
0.0
 12
1719.999999999999
 22
2100.0
 32
0.0
 13
1719.999999999999
 23
2100.0
 33
0.0
  0
LINE
  5
23E8
330
1F
100
AcDbEntity
  8
SUNPO
 62
   144
100
AcDbLine
 10
1279.999999999999
 20
2250.0
 30
0.0
 11
1279.999999999999
 21
2090.0
 31
0.0
  0
LINE
  5
23E9
330
1F
100
AcDbEntity
  8
SUNPO
 62
   144
100
AcDbLine
 10
1349.999999999999
 20
2250.0
 30
0.0
 11
1349.999999999999
 21
2090.0
 31
0.0
  0
LINE
  5
23EA
330
1F
100
AcDbEntity
  8
SUNPO
 62
   144
100
AcDbLine
 10
1251.999999999999
 20
2100.0
 30
0.0
 11
1223.999999999999
 21
2100.0
 31
0.0
  0
LINE
  5
23EB
330
1F
100
AcDbEntity
  8
SUNPO
 62
   144
100
AcDbLine
 10
1377.999999999999
 20
2100.0
 30
0.0
 11
1405.999999999999
 21
2100.0
 31
0.0
  0
LINE
  5
23EC
330
1F
100
AcDbEntity
  8
SUNPO
 62
   144
100
AcDbLine
 10
1279.999999999999
 20
2100.0
 30
0.0
 11
1349.999999999999
 21
2100.0
 31
0.0
  0
SOLID
  5
23ED
330
1F
100
AcDbEntity
  8
SUNPO
 62
   144
100
AcDbTrace
 10
1251.999999999999
 20
2104.666666666666
 30
0.0
 11
1251.999999999999
 21
2095.333333333333
 31
0.0
 12
1279.999999999999
 22
2100.0
 32
0.0
 13
1279.999999999999
 23
2100.0
 33
0.0
  0
SOLID
  5
23EE
330
1F
100
AcDbEntity
  8
SUNPO
 62
   144
100
AcDbTrace
 10
1377.999999999999
 20
2104.666666666666
 30
0.0
 11
1377.999999999999
 21
2095.333333333333
 31
0.0
 12
1349.999999999999
 22
2100.0
 32
0.0
 13
1349.999999999999
 23
2100.0
 33
0.0
  0
LINE
  5
23F0
330
1F
100
AcDbEntity
  8
SUNPO
 62
   144
100
AcDbLine
 10
1576.0
 20
2849.999999999999
 30
0.0
 11
1470.0
 21
2849.999999999999
 31
0.0
  0
LINE
  5
23F1
330
1F
100
AcDbEntity
  8
SUNPO
 62
   144
100
AcDbLine
 10
1480.0
 20
2760.0
 30
0.0
 11
1470.0
 21
2760.0
 31
0.0
  0
LINE
  5
23F2
330
1F
100
AcDbEntity
  8
SUNPO
 62
   144
100
AcDbLine
 10
1480.0
 20
2821.999999999999
 30
0.0
 11
1480.0
 21
2788.0
 31
0.0
  0
SOLID
  5
23F3
330
1F
100
AcDbEntity
  8
SUNPO
 62
   144
100
AcDbTrace
 10
1475.333333333333
 20
2821.999999999999
 30
0.0
 11
1484.666666666666
 21
2821.999999999999
 31
0.0
 12
1480.0
 22
2849.999999999999
 32
0.0
 13
1480.0
 23
2849.999999999999
 33
0.0
  0
SOLID
  5
23F4
330
1F
100
AcDbEntity
  8
SUNPO
 62
   144
100
AcDbTrace
 10
1475.333333333333
 20
2788.0
 30
0.0
 11
1484.666666666666
 21
2788.0
 31
0.0
 12
1480.0
 22
2760.0
 32
0.0
 13
1480.0
 23
2760.0
 33
0.0
  0
LINE
  5
23F6
330
1F
100
AcDbEntity
  8
SUNPO
 62
   144
100
AcDbLine
 10
4550.0
 20
3070.0
 30
0.0
 11
4550.0
 21
3160.0
 31
0.0
  0
LINE
  5
23F7
330
1F
100
AcDbEntity
  8
SUNPO
 62
   144
100
AcDbLine
 10
4650.0
 20
3070.0
 30
0.0
 11
4650.0
 21
3160.0
 31
0.0
  0
LINE
  5
23F8
330
1F
100
AcDbEntity
  8
SUNPO
 62
   144
100
AcDbLine
 10
4522.0
 20
3150.0
 30
0.0
 11
4494.0
 21
3150.0
 31
0.0
  0
LINE
  5
23F9
330
1F
100
AcDbEntity
  8
SUNPO
 62
   144
100
AcDbLine
 10
4678.0
 20
3150.0
 30
0.0
 11
4706.0
 21
3150.0
 31
0.0
  0
LINE
  5
23FA
330
1F
100
AcDbEntity
  8
SUNPO
 62
   144
100
AcDbLine
 10
4550.0
 20
3150.0
 30
0.0
 11
4650.0
 21
3150.0
 31
0.0
  0
SOLID
  5
23FB
330
1F
100
AcDbEntity
  8
SUNPO
 62
   144
100
AcDbTrace
 10
4522.0
 20
3154.666666666666
 30
0.0
 11
4522.0
 21
3145.333333333333
 31
0.0
 12
4550.0
 22
3150.0
 32
0.0
 13
4550.0
 23
3150.0
 33
0.0
  0
SOLID
  5
23FC
330
1F
100
AcDbEntity
  8
SUNPO
 62
   144
100
AcDbTrace
 10
4678.0
 20
3154.666666666666
 30
0.0
 11
4678.0
 21
3145.333333333333
 31
0.0
 12
4650.0
 22
3150.0
 32
0.0
 13
4650.0
 23
3150.0
 33
0.0
  0
LINE
  5
23FE
330
1F
100
AcDbEntity
  8
SUNPO
 62
   144
100
AcDbLine
 10
2650.0
 20
3070.0
 30
0.0
 11
2650.0
 21
3310.0
 31
0.0
  0
LINE
  5
23FF
330
1F
100
AcDbEntity
  8
SUNPO
 62
   144
100
AcDbLine
 10
4650.0
 20
3070.0
 30
0.0
 11
4650.0
 21
3310.0
 31
0.0
  0
LINE
  5
2400
330
1F
100
AcDbEntity
  8
SUNPO
 62
   144
100
AcDbLine
 10
2678.0
 20
3300.0
 30
0.0
 11
4622.0
 21
3300.0
 31
0.0
  0
SOLID
  5
2401
330
1F
100
AcDbEntity
  8
SUNPO
 62
   144
100
AcDbTrace
 10
2678.0
 20
3304.666666666666
 30
0.0
 11
2678.0
 21
3295.333333333333
 31
0.0
 12
2650.0
 22
3300.0
 32
0.0
 13
2650.0
 23
3300.0
 33
0.0
  0
SOLID
  5
2402
330
1F
100
AcDbEntity
  8
SUNPO
 62
   144
100
AcDbTrace
 10
4622.0
 20
3304.666666666666
 30
0.0
 11
4622.0
 21
3295.333333333333
 31
0.0
 12
4650.0
 22
3300.0
 32
0.0
 13
4650.0
 23
3300.0
 33
0.0
  0
LINE
  5
2404
330
1F
100
AcDbEntity
  8
SUNPO
 62
   144
100
AcDbLine
 10
4530.0
 20
2890.0
 30
0.0
 11
4440.0
 21
2890.0
 31
0.0
  0
LINE
  5
2405
330
1F
100
AcDbEntity
  8
SUNPO
 62
   144
100
AcDbLine
 10
4530.0
 20
2850.0
 30
0.0
 11
4440.0
 21
2850.0
 31
0.0
  0
LINE
  5
2406
330
1F
100
AcDbEntity
  8
SUNPO
 62
   144
100
AcDbLine
 10
4450.0
 20
2918.0
 30
0.0
 11
4450.0
 21
2946.0
 31
0.0
  0
LINE
  5
2407
330
1F
100
AcDbEntity
  8
SUNPO
 62
   144
100
AcDbLine
 10
4450.0
 20
2822.0
 30
0.0
 11
4450.0
 21
2794.0
 31
0.0
  0
LINE
  5
2408
330
1F
100
AcDbEntity
  8
SUNPO
 62
   144
100
AcDbLine
 10
4450.0
 20
2890.0
 30
0.0
 11
4450.0
 21
2850.0
 31
0.0
  0
SOLID
  5
2409
330
1F
100
AcDbEntity
  8
SUNPO
 62
   144
100
AcDbTrace
 10
4445.333333333333
 20
2918.0
 30
0.0
 11
4454.666666666667
 21
2918.0
 31
0.0
 12
4450.0
 22
2890.0
 32
0.0
 13
4450.0
 23
2890.0
 33
0.0
  0
SOLID
  5
240A
330
1F
100
AcDbEntity
  8
SUNPO
 62
   144
100
AcDbTrace
 10
4445.333333333333
 20
2822.0
 30
0.0
 11
4454.666666666667
 21
2822.0
 31
0.0
 12
4450.0
 22
2850.0
 32
0.0
 13
4450.0
 23
2850.0
 33
0.0
  0
LINE
  5
240C
330
1F
100
AcDbEntity
  8
SUNPO
 62
   144
100
AcDbLine
 10
4670.0
 20
2900.0
 30
0.0
 11
4810.0
 21
2900.0
 31
0.0
  0
LINE
  5
240D
330
1F
100
AcDbEntity
  8
SUNPO
 62
   144
100
AcDbLine
 10
4670.0
 20
2850.0
 30
0.0
 11
4810.0
 21
2850.0
 31
0.0
  0
LINE
  5
240E
330
1F
100
AcDbEntity
  8
SUNPO
 62
   144
100
AcDbLine
 10
4800.0
 20
2928.0
 30
0.0
 11
4800.0
 21
2956.0
 31
0.0
  0
LINE
  5
240F
330
1F
100
AcDbEntity
  8
SUNPO
 62
   144
100
AcDbLine
 10
4800.0
 20
2822.0
 30
0.0
 11
4800.0
 21
2794.0
 31
0.0
  0
LINE
  5
2410
330
1F
100
AcDbEntity
  8
SUNPO
 62
   144
100
AcDbLine
 10
4800.0
 20
2900.0
 30
0.0
 11
4800.0
 21
2850.0
 31
0.0
  0
SOLID
  5
2411
330
1F
100
AcDbEntity
  8
SUNPO
 62
   144
100
AcDbTrace
 10
4795.333333333333
 20
2928.0
 30
0.0
 11
4804.666666666667
 21
2928.0
 31
0.0
 12
4800.0
 22
2900.0
 32
0.0
 13
4800.0
 23
2900.0
 33
0.0
  0
SOLID
  5
2412
330
1F
100
AcDbEntity
  8
SUNPO
 62
   144
100
AcDbTrace
 10
4795.333333333333
 20
2822.0
 30
0.0
 11
4804.666666666667
 21
2822.0
 31
0.0
 12
4800.0
 22
2850.0
 32
0.0
 13
4800.0
 23
2850.0
 33
0.0
  0
LINE
  5
2414
330
1F
100
AcDbEntity
  8
SUNPO
 62
   144
100
AcDbLine
 10
1740.0
 20
2857.0
 30
0.0
 11
1960.0
 21
2857.0
 31
0.0
  0
LINE
  5
2415
330
1F
100
AcDbEntity
  8
SUNPO
 62
   144
100
AcDbLine
 10
1739.999999999999
 20
2270.0
 30
0.0
 11
1960.0
 21
2270.0
 31
0.0
  0
LINE
  5
2416
330
1F
100
AcDbEntity
  8
SUNPO
 62
   144
100
AcDbLine
 10
1950.0
 20
2829.0
 30
0.0
 11
1950.0
 21
2298.0
 31
0.0
  0
SOLID
  5
2417
330
1F
100
AcDbEntity
  8
SUNPO
 62
   144
100
AcDbTrace
 10
1945.333333333333
 20
2829.0
 30
0.0
 11
1954.666666666667
 21
2829.0
 31
0.0
 12
1950.0
 22
2857.0
 32
0.0
 13
1950.0
 23
2857.0
 33
0.0
  0
SOLID
  5
2418
330
1F
100
AcDbEntity
  8
SUNPO
 62
   144
100
AcDbTrace
 10
1945.333333333333
 20
2298.0
 30
0.0
 11
1954.666666666666
 21
2298.0
 31
0.0
 12
1950.0
 22
2270.0
 32
0.0
 13
1950.0
 23
2270.0
 33
0.0
  0
LINE
  5
241A
330
1F
100
AcDbEntity
  8
SUNPO
 62
   144
100
AcDbLine
 10
2629.999999999999
 20
1360.0
 30
0.0
 11
2442.333333333333
 21
1360.0
 31
0.0
  0
LINE
  5
241B
330
1F
100
AcDbEntity
  8
SUNPO
 62
   144
100
AcDbLine
 10
2629.999999999999
 20
1430.0
 30
0.0
 11
2442.333333333333
 21
1430.0
 31
0.0
  0
LINE
  5
241C
330
1F
100
AcDbEntity
  8
SUNPO
 62
   144
100
AcDbLine
 10
2452.333333333333
 20
1332.0
 30
0.0
 11
2452.333333333333
 21
1304.0
 31
0.0
  0
LINE
  5
241D
330
1F
100
AcDbEntity
  8
SUNPO
 62
   144
100
AcDbLine
 10
2452.333333333333
 20
1458.0
 30
0.0
 11
2452.333333333333
 21
1486.0
 31
0.0
  0
LINE
  5
241E
330
1F
100
AcDbEntity
  8
SUNPO
 62
   144
100
AcDbLine
 10
2452.333333333333
 20
1360.0
 30
0.0
 11
2452.333333333333
 21
1430.0
 31
0.0
  0
SOLID
  5
241F
330
1F
100
AcDbEntity
  8
SUNPO
 62
   144
100
AcDbTrace
 10
2447.666666666666
 20
1332.0
 30
0.0
 11
2456.999999999999
 21
1332.0
 31
0.0
 12
2452.333333333333
 22
1360.0
 32
0.0
 13
2452.333333333333
 23
1360.0
 33
0.0
  0
SOLID
  5
2420
330
1F
100
AcDbEntity
  8
SUNPO
 62
   144
100
AcDbTrace
 10
2447.666666666666
 20
1458.0
 30
0.0
 11
2456.999999999999
 21
1458.0
 31
0.0
 12
2452.333333333333
 22
1430.0
 32
0.0
 13
2452.333333333333
 23
1430.0
 33
0.0
  0
LINE
  5
2422
330
1F
100
AcDbEntity
  8
SUNPO
 62
   144
100
AcDbLine
 10
2629.999999999999
 20
1800.0
 30
0.0
 11
2440.0
 21
1800.0
 31
0.0
  0
LINE
  5
2423
330
1F
100
AcDbEntity
  8
SUNPO
 62
   144
100
AcDbLine
 10
2629.999999999999
 20
1730.0
 30
0.0
 11
2440.0
 21
1730.0
 31
0.0
  0
LINE
  5
2424
330
1F
100
AcDbEntity
  8
SUNPO
 62
   144
100
AcDbLine
 10
2450.0
 20
1828.0
 30
0.0
 11
2450.0
 21
1856.0
 31
0.0
  0
LINE
  5
2425
330
1F
100
AcDbEntity
  8
SUNPO
 62
   144
100
AcDbLine
 10
2450.0
 20
1702.0
 30
0.0
 11
2450.0
 21
1674.0
 31
0.0
  0
LINE
  5
2426
330
1F
100
AcDbEntity
  8
SUNPO
 62
   144
100
AcDbLine
 10
2450.0
 20
1800.0
 30
0.0
 11
2450.0
 21
1730.0
 31
0.0
  0
SOLID
  5
2427
330
1F
100
AcDbEntity
  8
SUNPO
 62
   144
100
AcDbTrace
 10
2445.333333333334
 20
1828.0
 30
0.0
 11
2454.666666666666
 21
1828.0
 31
0.0
 12
2450.0
 22
1800.0
 32
0.0
 13
2450.0
 23
1800.0
 33
0.0
  0
SOLID
  5
2428
330
1F
100
AcDbEntity
  8
SUNPO
 62
   144
100
AcDbTrace
 10
2445.333333333334
 20
1702.0
 30
0.0
 11
2454.666666666666
 21
1702.0
 31
0.0
 12
2450.0
 22
1730.0
 32
0.0
 13
2450.0
 23
1730.0
 33
0.0
  0
LINE
  5
242A
330
1F
100
AcDbEntity
  8
SUNPO
 62
   144
100
AcDbLine
 10
2629.999999999999
 20
1730.0
 30
0.0
 11
2440.0
 21
1730.0
 31
0.0
  0
LINE
  5
242B
330
1F
100
AcDbEntity
  8
SUNPO
 62
   144
100
AcDbLine
 10
2629.999999999999
 20
1430.0
 30
0.0
 11
2440.0
 21
1430.0
 31
0.0
  0
LINE
  5
242C
330
1F
100
AcDbEntity
  8
SUNPO
 62
   144
100
AcDbLine
 10
2450.0
 20
1702.0
 30
0.0
 11
2450.0
 21
1458.0
 31
0.0
  0
SOLID
  5
242D
330
1F
100
AcDbEntity
  8
SUNPO
 62
   144
100
AcDbTrace
 10
2445.333333333334
 20
1702.0
 30
0.0
 11
2454.666666666666
 21
1702.0
 31
0.0
 12
2450.0
 22
1730.0
 32
0.0
 13
2450.0
 23
1730.0
 33
0.0
  0
SOLID
  5
242E
330
1F
100
AcDbEntity
  8
SUNPO
 62
   144
100
AcDbTrace
 10
2445.333333333334
 20
1458.0
 30
0.0
 11
2454.666666666666
 21
1458.0
 31
0.0
 12
2450.0
 22
1430.0
 32
0.0
 13
2450.0
 23
1430.0
 33
0.0
  0
LINE
  5
2430
330
1F
100
AcDbEntity
  8
SUNPO
 62
   144
100
AcDbLine
 10
1720.0
 20
2877.0
 30
0.0
 11
1720.0
 21
3360.0
 31
0.0
  0
LINE
  5
2431
330
1F
100
AcDbEntity
  8
SUNPO
 62
   144
100
AcDbLine
 10
1280.0
 20
2877.0
 30
0.0
 11
1280.0
 21
3360.0
 31
0.0
  0
LINE
  5
2432
330
1F
100
AcDbEntity
  8
SUNPO
 62
   144
100
AcDbLine
 10
1692.0
 20
3350.0
 30
0.0
 11
1308.0
 21
3350.0
 31
0.0
  0
SOLID
  5
2433
330
1F
100
AcDbEntity
  8
SUNPO
 62
   144
100
AcDbTrace
 10
1692.0
 20
3354.666666666666
 30
0.0
 11
1692.0
 21
3345.333333333333
 31
0.0
 12
1720.0
 22
3350.0
 32
0.0
 13
1720.0
 23
3350.0
 33
0.0
  0
SOLID
  5
2434
330
1F
100
AcDbEntity
  8
SUNPO
 62
   144
100
AcDbTrace
 10
1308.0
 20
3354.666666666666
 30
0.0
 11
1308.0
 21
3345.333333333333
 31
0.0
 12
1280.0
 22
3350.0
 32
0.0
 13
1280.0
 23
3350.0
 33
0.0
  0
LINE
  5
2436
330
1F
100
AcDbEntity
  8
SUNPO
 62
   144
100
AcDbLine
 10
1596.0
 20
2869.999999999999
 30
0.0
 11
1596.0
 21
3260.0
 31
0.0
  0
LINE
  5
2437
330
1F
100
AcDbEntity
  8
SUNPO
 62
   144
100
AcDbLine
 10
1720.0
 20
2877.0
 30
0.0
 11
1720.0
 21
3260.0
 31
0.0
  0
LINE
  5
2438
330
1F
100
AcDbEntity
  8
SUNPO
 62
   144
100
AcDbLine
 10
1624.0
 20
3250.0
 30
0.0
 11
1692.0
 21
3250.0
 31
0.0
  0
SOLID
  5
2439
330
1F
100
AcDbEntity
  8
SUNPO
 62
   144
100
AcDbTrace
 10
1624.0
 20
3254.666666666667
 30
0.0
 11
1624.0
 21
3245.333333333333
 31
0.0
 12
1596.0
 22
3250.0
 32
0.0
 13
1596.0
 23
3250.0
 33
0.0
  0
SOLID
  5
243A
330
1F
100
AcDbEntity
  8
SUNPO
 62
   144
100
AcDbTrace
 10
1692.0
 20
3254.666666666667
 30
0.0
 11
1692.0
 21
3245.333333333333
 31
0.0
 12
1720.0
 22
3250.0
 32
0.0
 13
1720.0
 23
3250.0
 33
0.0
  0
LINE
  5
243C
330
1F
100
AcDbEntity
  8
SUNPO
 62
   144
100
AcDbLine
 10
1404.0
 20
2870.0
 30
0.0
 11
1404.0
 21
3260.0
 31
0.0
  0
LINE
  5
243D
330
1F
100
AcDbEntity
  8
SUNPO
 62
   144
100
AcDbLine
 10
1280.0
 20
2877.0
 30
0.0
 11
1280.0
 21
3260.0
 31
0.0
  0
LINE
  5
243E
330
1F
100
AcDbEntity
  8
SUNPO
 62
   144
100
AcDbLine
 10
1376.0
 20
3250.0
 30
0.0
 11
1308.0
 21
3250.0
 31
0.0
  0
SOLID
  5
243F
330
1F
100
AcDbEntity
  8
SUNPO
 62
   144
100
AcDbTrace
 10
1376.0
 20
3254.666666666667
 30
0.0
 11
1376.0
 21
3245.333333333333
 31
0.0
 12
1404.0
 22
3250.0
 32
0.0
 13
1404.0
 23
3250.0
 33
0.0
  0
SOLID
  5
2440
330
1F
100
AcDbEntity
  8
SUNPO
 62
   144
100
AcDbTrace
 10
1308.0
 20
3254.666666666667
 30
0.0
 11
1308.0
 21
3245.333333333333
 31
0.0
 12
1280.0
 22
3250.0
 32
0.0
 13
1280.0
 23
3250.0
 33
0.0
  0
LINE
  5
2442
330
1F
100
AcDbEntity
  8
SUNPO
 62
   144
100
AcDbLine
 10
1739.999999999999
 20
2270.0
 30
0.0
 11
1860.0
 21
2270.0
 31
0.0
  0
LINE
  5
2443
330
1F
100
AcDbEntity
  8
SUNPO
 62
   144
100
AcDbLine
 10
1739.999999999999
 20
2360.0
 30
0.0
 11
1860.0
 21
2360.0
 31
0.0
  0
LINE
  5
2444
330
1F
100
AcDbEntity
  8
SUNPO
 62
   144
100
AcDbLine
 10
1850.0
 20
2298.0
 30
0.0
 11
1850.0
 21
2332.0
 31
0.0
  0
SOLID
  5
2445
330
1F
100
AcDbEntity
  8
SUNPO
 62
   144
100
AcDbTrace
 10
1845.333333333333
 20
2298.0
 30
0.0
 11
1854.666666666666
 21
2298.0
 31
0.0
 12
1850.0
 22
2270.0
 32
0.0
 13
1850.0
 23
2270.0
 33
0.0
  0
SOLID
  5
2446
330
1F
100
AcDbEntity
  8
SUNPO
 62
   144
100
AcDbTrace
 10
1845.333333333333
 20
2332.0
 30
0.0
 11
1854.666666666666
 21
2332.0
 31
0.0
 12
1850.0
 22
2360.0
 32
0.0
 13
1850.0
 23
2360.0
 33
0.0
  0
LINE
  5
2448
330
1F
100
AcDbEntity
  8
SUNPO
 62
   144
100
AcDbLine
 10
1740.0
 20
2857.0
 30
0.0
 11
1860.0
 21
2857.0
 31
0.0
  0
LINE
  5
2449
330
1F
100
AcDbEntity
  8
SUNPO
 62
   144
100
AcDbLine
 10
1740.0
 20
2760.0
 30
0.0
 11
1860.0
 21
2760.0
 31
0.0
  0
LINE
  5
244A
330
1F
100
AcDbEntity
  8
SUNPO
 62
   144
100
AcDbLine
 10
1850.0
 20
2829.0
 30
0.0
 11
1850.0
 21
2788.0
 31
0.0
  0
SOLID
  5
244B
330
1F
100
AcDbEntity
  8
SUNPO
 62
   144
100
AcDbTrace
 10
1845.333333333333
 20
2829.0
 30
0.0
 11
1854.666666666667
 21
2829.0
 31
0.0
 12
1850.0
 22
2857.0
 32
0.0
 13
1850.0
 23
2857.0
 33
0.0
  0
SOLID
  5
244C
330
1F
100
AcDbEntity
  8
SUNPO
 62
   144
100
AcDbTrace
 10
1845.333333333333
 20
2788.0
 30
0.0
 11
1854.666666666667
 21
2788.0
 31
0.0
 12
1850.0
 22
2760.0
 32
0.0
 13
1850.0
 23
2760.0
 33
0.0
  0
LINE
  5
244E
330
1F
100
AcDbEntity
  8
SUNPO
 62
   144
100
AcDbLine
 10
1740.0
 20
2760.0
 30
0.0
 11
1860.0
 21
2760.0
 31
0.0
  0
LINE
  5
244F
330
1F
100
AcDbEntity
  8
SUNPO
 62
   144
100
AcDbLine
 10
1739.999999999999
 20
2360.0
 30
0.0
 11
1860.0
 21
2360.0
 31
0.0
  0
LINE
  5
2450
330
1F
100
AcDbEntity
  8
SUNPO
 62
   144
100
AcDbLine
 10
1850.0
 20
2732.0
 30
0.0
 11
1850.0
 21
2388.0
 31
0.0
  0
SOLID
  5
2451
330
1F
100
AcDbEntity
  8
SUNPO
 62
   144
100
AcDbTrace
 10
1845.333333333333
 20
2732.0
 30
0.0
 11
1854.666666666667
 21
2732.0
 31
0.0
 12
1850.0
 22
2760.0
 32
0.0
 13
1850.0
 23
2760.0
 33
0.0
  0
SOLID
  5
2452
330
1F
100
AcDbEntity
  8
SUNPO
 62
   144
100
AcDbTrace
 10
1845.333333333333
 20
2388.0
 30
0.0
 11
1854.666666666666
 21
2388.0
 31
0.0
 12
1850.0
 22
2360.0
 32
0.0
 13
1850.0
 23
2360.0
 33
0.0
  0
LINE
  5
2454
330
1F
100
AcDbEntity
  8
SUNPO
 62
   144
100
AcDbLine
 10
1480.0
 20
3050.0
 30
0.0
 11
1470.0
 21
3050.0
 31
0.0
  0
LINE
  5
2455
330
1F
100
AcDbEntity
  8
SUNPO
 62
   144
100
AcDbLine
 10
1480.0
 20
2850.0
 30
0.0
 11
1470.0
 21
2850.0
 31
0.0
  0
LINE
  5
2456
330
1F
100
AcDbEntity
  8
SUNPO
 62
   144
100
AcDbLine
 10
1480.0
 20
3022.0
 30
0.0
 11
1480.0
 21
2878.0
 31
0.0
  0
SOLID
  5
2457
330
1F
100
AcDbEntity
  8
SUNPO
 62
   144
100
AcDbTrace
 10
1475.333333333333
 20
3022.0
 30
0.0
 11
1484.666666666666
 21
3022.0
 31
0.0
 12
1480.0
 22
3050.0
 32
0.0
 13
1480.0
 23
3050.0
 33
0.0
  0
SOLID
  5
2458
330
1F
100
AcDbEntity
  8
SUNPO
 62
   144
100
AcDbTrace
 10
1475.333333333333
 20
2878.0
 30
0.0
 11
1484.666666666666
 21
2878.0
 31
0.0
 12
1480.0
 22
2850.0
 32
0.0
 13
1480.0
 23
2850.0
 33
0.0
  0
LINE
  5
245A
330
1F
100
AcDbEntity
  8
SUNPO
 62
   144
100
AcDbLine
 10
2864.126015137951
 20
3008.981392709498
 30
0.0
 11
2757.918996215326
 21
2902.047464277329
 31
0.0
  0
LINE
  5
245C
330
1F
100
AcDbEntity
  8
SUNPO
 62
   144
100
AcDbLine
 10
2709.999999999999
 20
2853.800497515516
 30
0.0
 11
2738.187644832545
 21
2882.181066198935
 31
0.0
  0
SOLID
  5
245D
330
1F
100
AcDbEntity
  8
SUNPO
 62
   144
100
AcDbTrace
 10
2754.607929868927
 20
2905.336022841126
 30
0.0
 11
2761.230062561725
 21
2898.758905713532
 31
0.0
 12
2738.187644832545
 22
2882.181066198935
 32
0.0
 13
2738.187644832545
 23
2882.181066198935
 33
0.0
  0
TEXT
  5
245E
330
1F
100
AcDbEntity
  8
SUNPO
100
AcDbText
 10
2484.761904761905
 20
370.0
 30
0.0
 40
80.0
  1
BF30-40
  7
ADD
100
AcDbText
1001
ACAD
1000
MTEXTBEGIN
1070
    73
1070
     1
1070
    44
1040
1.0
1070
    74
1070
     0
1000
MTEXTEND
1000
MTEXTBEGIN
1070
    73
1070
     1
1070
    44
1040
1.0
1070
    74
1070
     0
1000
MTEXTEND
1000
MTEXTBEGIN
1070
    73
1070
     1
1070
    44
1040
1.0
1070
    74
1070
     0
1000
MTEXTEND
1000
MTEXTBEGIN
1070
    73
1070
     1
1070
    44
1040
1.0
1070
    74
1070
     0
1000
MTEXTEND
1000
MTEXTBEGIN
1070
    73
1070
     1
1070
    44
1040
1.0
1070
    74
1070
     0
1000
MTEXTEND
1000
MTEXTBEGIN
1070
    73
1070
     1
1070
    44
1040
1.0
1070
    74
1070
     0
1000
MTEXTEND
1000
MTEXTBEGIN
1070
    73
1070
     1
1070
    44
1040
1.0
1070
    74
1070
     0
1000
MTEXTEND
1000
MTEXTBEGIN
1070
    73
1070
     1
1070
    44
1040
1.0
1070
    74
1070
     0
1000
MTEXTEND
1000
MTEXTBEGIN
1070
    73
1070
     1
1070
    44
1040
1.0
1070
    74
1070
     0
1000
MTEXTEND
1000
MTEXTBEGIN
1070
    73
1070
     1
1070
    44
1040
1.0
1070
    74
1070
     0
1000
MTEXTEND
1000
MTEXTBEGIN
1070
    73
1070
     1
1070
    44
1040
1.0
1070
    74
1070
     0
1000
MTEXTEND
1000
MTEXTBEGIN
1070
    73
1070
     1
1070
    44
1040
1.0
1070
    74
1070
     0
1000
MTEXTEND
1000
MTEXTBEGIN
1070
    73
1070
     1
1070
    44
1040
1.0
1070
    74
1070
     0
1000
MTEXTEND
1000
MTEXTBEGIN
1070
    73
1070
     1
1070
    44
1040
1.0
1070
    74
1070
     0
1000
MTEXTEND
1000
MTEXTBEGIN
1070
    73
1070
     1
1070
    44
1040
1.0
1070
    74
1070
     0
1000
MTEXTEND
1000
MTEXTBEGIN
1070
    73
1070
     1
1070
    44
1040
1.0
1070
    74
1070
     0
1000
MTEXTEND
  0
TEXT
  5
245F
330
1F
100
AcDbEntity
  8
SUNPO
100
AcDbText
 10
734.7619047619048
 20
370.0
 30
0.0
 40
80.0
  1
BFボックス
  7
ADD
100
AcDbText
1001
ACAD
1000
MTEXTBEGIN
1070
    73
1070
     1
1070
    44
1040
1.0
1070
    74
1070
     0
1000
MTEXTEND
1000
MTEXTBEGIN
1070
    73
1070
     1
1070
    44
1040
1.0
1070
    74
1070
     0
1000
MTEXTEND
1000
MTEXTBEGIN
1070
    73
1070
     1
1070
    44
1040
1.0
1070
    74
1070
     0
1000
MTEXTEND
1000
MTEXTBEGIN
1070
    73
1070
     1
1070
    44
1040
1.0
1070
    74
1070
     0
1000
MTEXTEND
1000
MTEXTBEGIN
1070
    73
1070
     1
1070
    44
1040
1.0
1070
    74
1070
     0
1000
MTEXTEND
1000
MTEXTBEGIN
1070
    73
1070
     1
1070
    44
1040
1.0
1070
    74
1070
     0
1000
MTEXTEND
1000
MTEXTBEGIN
1070
    73
1070
     1
1070
    44
1040
1.0
1070
    74
1070
     0
1000
MTEXTEND
1000
MTEXTBEGIN
1070
    73
1070
     1
1070
    44
1040
1.0
1070
    74
1070
     0
1000
MTEXTEND
1000
MTEXTBEGIN
1070
    73
1070
     1
1070
    44
1040
1.0
1070
    74
1070
     0
1000
MTEXTEND
1000
MTEXTBEGIN
1070
    73
1070
     1
1070
    44
1040
1.0
1070
    74
1070
     0
1000
MTEXTEND
1000
MTEXTBEGIN
1070
    73
1070
     1
1070
    44
1040
1.0
1070
    74
1070
     0
1000
MTEXTEND
1000
MTEXTBEGIN
1070
    73
1070
     1
1070
    44
1040
1.0
1070
    74
1070
     0
1000
MTEXTEND
1000
MTEXTBEGIN
1070
    73
1070
     1
1070
    44
1040
1.0
1070
    74
1070
     0
1000
MTEXTEND
1000
MTEXTBEGIN
1070
    73
1070
     1
1070
    44
1040
1.0
1070
    74
1070
     0
1000
MTEXTEND
1000
MTEXTBEGIN
1070
    73
1070
     1
1070
    44
1040
1.0
1070
    74
1070
     0
1000
MTEXTEND
1000
MTEXTBEGIN
1070
    73
1070
     1
1070
    44
1040
1.0
1070
    74
1070
     0
1000
MTEXTEND
  0
LINE
  5
2460
330
1F
100
AcDbEntity
  8
SUNPO
 62
   144
100
AcDbLine
 10
2629.999999999999
 20
1680.0
 30
0.0
 11
2540.0
 21
1680.0
 31
0.0
  0
LINE
  5
2461
330
1F
100
AcDbEntity
  8
SUNPO
 62
   144
100
AcDbLine
 10
2629.999999999999
 20
1480.0
 30
0.0
 11
2540.0
 21
1480.0
 31
0.0
  0
LINE
  5
2462
330
1F
100
AcDbEntity
  8
SUNPO
 62
   144
100
AcDbLine
 10
2550.0
 20
1652.0
 30
0.0
 11
2550.0
 21
1508.0
 31
0.0
  0
SOLID
  5
2463
330
1F
100
AcDbEntity
  8
SUNPO
 62
   144
100
AcDbTrace
 10
2545.333333333333
 20
1652.0
 30
0.0
 11
2554.666666666666
 21
1652.0
 31
0.0
 12
2550.0
 22
1680.0
 32
0.0
 13
2550.0
 23
1680.0
 33
0.0
  0
SOLID
  5
2464
330
1F
100
AcDbEntity
  8
SUNPO
 62
   144
100
AcDbTrace
 10
2545.333333333333
 20
1508.0
 30
0.0
 11
2554.666666666666
 21
1508.0
 31
0.0
 12
2550.0
 22
1480.0
 32
0.0
 13
2550.0
 23
1480.0
 33
0.0
  0
LINE
  5
2466
330
1F
100
AcDbEntity
  8
SUNPO
 62
   144
100
AcDbLine
 10
2649.999999999999
 20
3070.0
 30
0.0
 11
2649.999999999999
 21
3160.0
 31
0.0
  0
LINE
  5
2467
330
1F
100
AcDbEntity
  8
SUNPO
 62
   144
100
AcDbLine
 10
2750.0
 20
3070.0
 30
0.0
 11
2750.0
 21
3160.0
 31
0.0
  0
LINE
  5
2468
330
1F
100
AcDbEntity
  8
SUNPO
 62
   144
100
AcDbLine
 10
2621.999999999999
 20
3150.0
 30
0.0
 11
2593.999999999999
 21
3150.0
 31
0.0
  0
LINE
  5
2469
330
1F
100
AcDbEntity
  8
SUNPO
 62
   144
100
AcDbLine
 10
2778.0
 20
3150.0
 30
0.0
 11
2805.999999999999
 21
3150.0
 31
0.0
  0
LINE
  5
246A
330
1F
100
AcDbEntity
  8
SUNPO
 62
   144
100
AcDbLine
 10
2649.999999999999
 20
3150.0
 30
0.0
 11
2750.0
 21
3150.0
 31
0.0
  0
SOLID
  5
246B
330
1F
100
AcDbEntity
  8
SUNPO
 62
   144
100
AcDbTrace
 10
2621.999999999999
 20
3154.666666666666
 30
0.0
 11
2621.999999999999
 21
3145.333333333333
 31
0.0
 12
2649.999999999999
 22
3150.0
 32
0.0
 13
2649.999999999999
 23
3150.0
 33
0.0
  0
SOLID
  5
246C
330
1F
100
AcDbEntity
  8
SUNPO
 62
   144
100
AcDbTrace
 10
2778.0
 20
3154.666666666666
 30
0.0
 11
2778.0
 21
3145.333333333333
 31
0.0
 12
2750.0
 22
3150.0
 32
0.0
 13
2750.0
 23
3150.0
 33
0.0
  0
LINE
  5
246E
330
1F
100
AcDbEntity
  8
SUNPO
 62
   144
100
AcDbLine
 10
2769.999999999999
 20
2890.0
 30
0.0
 11
2910.0
 21
2890.0
 31
0.0
  0
LINE
  5
246F
330
1F
100
AcDbEntity
  8
SUNPO
 62
   144
100
AcDbLine
 10
2770.0
 20
2850.0
 30
0.0
 11
2910.0
 21
2850.0
 31
0.0
  0
LINE
  5
2470
330
1F
100
AcDbEntity
  8
SUNPO
 62
   144
100
AcDbLine
 10
2900.0
 20
2918.0
 30
0.0
 11
2900.0
 21
2946.0
 31
0.0
  0
LINE
  5
2471
330
1F
100
AcDbEntity
  8
SUNPO
 62
   144
100
AcDbLine
 10
2900.0
 20
2822.0
 30
0.0
 11
2900.0
 21
2794.0
 31
0.0
  0
LINE
  5
2472
330
1F
100
AcDbEntity
  8
SUNPO
 62
   144
100
AcDbLine
 10
2900.0
 20
2890.0
 30
0.0
 11
2900.0
 21
2850.0
 31
0.0
  0
SOLID
  5
2473
330
1F
100
AcDbEntity
  8
SUNPO
 62
   144
100
AcDbTrace
 10
2895.333333333333
 20
2918.0
 30
0.0
 11
2904.666666666667
 21
2918.0
 31
0.0
 12
2900.0
 22
2890.0
 32
0.0
 13
2900.0
 23
2890.0
 33
0.0
  0
SOLID
  5
2474
330
1F
100
AcDbEntity
  8
SUNPO
 62
   144
100
AcDbTrace
 10
2895.333333333333
 20
2822.0
 30
0.0
 11
2904.666666666667
 21
2822.0
 31
0.0
 12
2900.0
 22
2850.0
 32
0.0
 13
2900.0
 23
2850.0
 33
0.0
  0
LINE
  5
2476
330
1F
100
AcDbEntity
  8
SUNPO
 62
   144
100
AcDbLine
 10
2630.0
 20
2900.0
 30
0.0
 11
2540.0
 21
2900.0
 31
0.0
  0
LINE
  5
2477
330
1F
100
AcDbEntity
  8
SUNPO
 62
   144
100
AcDbLine
 10
2630.0
 20
2850.0
 30
0.0
 11
2540.0
 21
2850.0
 31
0.0
  0
LINE
  5
2478
330
1F
100
AcDbEntity
  8
SUNPO
 62
   144
100
AcDbLine
 10
2550.0
 20
2928.0
 30
0.0
 11
2550.0
 21
2956.0
 31
0.0
  0
LINE
  5
2479
330
1F
100
AcDbEntity
  8
SUNPO
 62
   144
100
AcDbLine
 10
2550.0
 20
2822.0
 30
0.0
 11
2550.0
 21
2794.0
 31
0.0
  0
LINE
  5
247A
330
1F
100
AcDbEntity
  8
SUNPO
 62
   144
100
AcDbLine
 10
2550.0
 20
2900.0
 30
0.0
 11
2550.0
 21
2850.0
 31
0.0
  0
SOLID
  5
247B
330
1F
100
AcDbEntity
  8
SUNPO
 62
   144
100
AcDbTrace
 10
2545.333333333333
 20
2928.0
 30
0.0
 11
2554.666666666666
 21
2928.0
 31
0.0
 12
2550.0
 22
2900.0
 32
0.0
 13
2550.0
 23
2900.0
 33
0.0
  0
SOLID
  5
247C
330
1F
100
AcDbEntity
  8
SUNPO
 62
   144
100
AcDbTrace
 10
2545.333333333333
 20
2822.0
 30
0.0
 11
2554.666666666666
 21
2822.0
 31
0.0
 12
2550.0
 22
2850.0
 32
0.0
 13
2550.0
 23
2850.0
 33
0.0
  0
LINE
  5
247E
330
1F
100
AcDbEntity
  8
SUNPO
 62
   144
100
AcDbLine
 10
1404.0
 20
2869.999999999999
 30
0.0
 11
1404.0
 21
3260.0
 31
0.0
  0
LINE
  5
247F
330
1F
100
AcDbEntity
  8
SUNPO
 62
   144
100
AcDbLine
 10
1596.0
 20
2869.999999999999
 30
0.0
 11
1596.0
 21
3260.0
 31
0.0
  0
LINE
  5
2480
330
1F
100
AcDbEntity
  8
SUNPO
 62
   144
100
AcDbLine
 10
1432.0
 20
3250.0
 30
0.0
 11
1568.0
 21
3250.0
 31
0.0
  0
SOLID
  5
2481
330
1F
100
AcDbEntity
  8
SUNPO
 62
   144
100
AcDbTrace
 10
1432.0
 20
3254.666666666667
 30
0.0
 11
1432.0
 21
3245.333333333333
 31
0.0
 12
1404.0
 22
3250.0
 32
0.0
 13
1404.0
 23
3250.0
 33
0.0
  0
SOLID
  5
2482
330
1F
100
AcDbEntity
  8
SUNPO
 62
   144
100
AcDbTrace
 10
1568.0
 20
3254.666666666667
 30
0.0
 11
1568.0
 21
3245.333333333333
 31
0.0
 12
1596.0
 22
3250.0
 32
0.0
 13
1596.0
 23
3250.0
 33
0.0
  0
LINE
  5
2484
330
1F
100
AcDbEntity
  8
SUNPO
 62
   144
100
AcDbLine
 10
1422.5
 20
3052.321101437184
 30
0.0
 11
1422.5
 21
3160.0
 31
0.0
  0
LINE
  5
2485
330
1F
100
AcDbEntity
  8
SUNPO
 62
   144
100
AcDbLine
 10
1577.499999999999
 20
3052.321101437183
 30
0.0
 11
1577.499999999999
 21
3160.0
 31
0.0
  0
LINE
  5
2486
330
1F
100
AcDbEntity
  8
SUNPO
 62
   144
100
AcDbLine
 10
1450.5
 20
3150.0
 30
0.0
 11
1549.499999999999
 21
3150.0
 31
0.0
  0
SOLID
  5
2487
330
1F
100
AcDbEntity
  8
SUNPO
 62
   144
100
AcDbTrace
 10
1450.5
 20
3154.666666666666
 30
0.0
 11
1450.5
 21
3145.333333333333
 31
0.0
 12
1422.5
 22
3150.0
 32
0.0
 13
1422.5
 23
3150.0
 33
0.0
  0
SOLID
  5
2488
330
1F
100
AcDbEntity
  8
SUNPO
 62
   144
100
AcDbTrace
 10
1549.499999999999
 20
3154.666666666666
 30
0.0
 11
1549.499999999999
 21
3145.333333333333
 31
0.0
 12
1577.499999999999
 22
3150.0
 32
0.0
 13
1577.499999999999
 23
3150.0
 33
0.0
  0
TEXT
  5
248A
330
1F
100
AcDbEntity
  8
SUNPO
100
AcDbText
 10
3246.680311730542
 20
359.2274732162223
 30
0.0
 40
70.0
  1
１／２０
  7
ADD
100
AcDbText
1001
ACAD
1000
MTEXTBEGIN
1070
    73
1070
     1
1070
    44
1040
1.0
1070
    74
1070
     0
1000
MTEXTEND
1000
MTEXTBEGIN
1070
    73
1070
     1
1070
    44
1040
1.0
1070
    74
1070
     0
1000
MTEXTEND
1000
MTEXTBEGIN
1070
    73
1070
     1
1070
    44
1040
1.0
1070
    74
1070
     0
1000
MTEXTEND
1000
MTEXTBEGIN
1070
    73
1070
     1
1070
    44
1040
1.0
1070
    74
1070
     0
1000
MTEXTEND
1000
MTEXTBEGIN
1070
    73
1070
     1
1070
    44
1040
1.0
1070
    74
1070
     0
1000
MTEXTEND
1000
MTEXTBEGIN
1070
    73
1070
     1
1070
    44
1040
1.0
1070
    74
1070
     0
1000
MTEXTEND
1000
MTEXTBEGIN
1070
    73
1070
     1
1070
    44
1040
1.0
1070
    74
1070
     0
1000
MTEXTEND
1000
MTEXTBEGIN
1070
    73
1070
     1
1070
    44
1040
1.0
1070
    74
1070
     0
1000
MTEXTEND
1000
MTEXTBEGIN
1070
    73
1070
     1
1070
    44
1040
1.0
1070
    74
1070
     0
1000
MTEXTEND
1000
MTEXTBEGIN
1070
    73
1070
     1
1070
    44
1040
1.0
1070
    74
1070
     0
1000
MTEXTEND
1000
MTEXTBEGIN
1070
    73
1070
     1
1070
    44
1040
1.0
1070
    74
1070
     0
1000
MTEXTEND
1000
MTEXTBEGIN
1070
    73
1070
     1
1070
    44
1040
1.0
1070
    74
1070
     0
1000
MTEXTEND
1000
MTEXTBEGIN
1070
    73
1070
     1
1070
    44
1040
1.0
1070
    74
1070
     0
1000
MTEXTEND
1000
MTEXTBEGIN
1070
    73
1070
     1
1070
    44
1040
1.0
1070
    74
1070
     0
1000
MTEXTEND
1000
MTEXTBEGIN
1070
    73
1070
     1
1070
    44
1040
1.0
1070
    74
1070
     0
1000
MTEXTEND
1000
MTEXTBEGIN
1070
    73
1070
     1
1070
    44
1040
1.0
1070
    74
1070
     0
1000
MTEXTEND
  0
TEXT
  5
248B
330
1F
100
AcDbEntity
  8
SUNPO
100
AcDbText
 10
381.8862574011546
 20
488.6918916770627
 30
0.0
 40
50.0
  1
製品名
  7
ADD
100
AcDbText
1001
ACAD
1000
MTEXTBEGIN
1070
    73
1070
     1
1070
    44
1040
1.0
1070
    74
1070
     0
1000
MTEXTEND
1000
MTEXTBEGIN
1070
    73
1070
     1
1070
    44
1040
1.0
1070
    74
1070
     0
1000
MTEXTEND
1000
MTEXTBEGIN
1070
    73
1070
     1
1070
    44
1040
1.0
1070
    74
1070
     0
1000
MTEXTEND
1000
MTEXTBEGIN
1070
    73
1070
     1
1070
    44
1040
1.0
1070
    74
1070
     0
1000
MTEXTEND
1000
MTEXTBEGIN
1070
    73
1070
     1
1070
    44
1040
1.0
1070
    74
1070
     0
1000
MTEXTEND
1000
MTEXTBEGIN
1070
    73
1070
     1
1070
    44
1040
1.0
1070
    74
1070
     0
1000
MTEXTEND
1000
MTEXTBEGIN
1070
    73
1070
     1
1070
    44
1040
1.0
1070
    74
1070
     0
1000
MTEXTEND
1000
MTEXTBEGIN
1070
    73
1070
     1
1070
    44
1040
1.0
1070
    74
1070
     0
1000
MTEXTEND
1000
MTEXTBEGIN
1070
    73
1070
     1
1070
    44
1040
1.0
1070
    74
1070
     0
1000
MTEXTEND
1000
MTEXTBEGIN
1070
    73
1070
     1
1070
    44
1040
1.0
1070
    74
1070
     0
1000
MTEXTEND
1000
MTEXTBEGIN
1070
    73
1070
     1
1070
    44
1040
1.0
1070
    74
1070
     0
1000
MTEXTEND
1000
MTEXTBEGIN
1070
    73
1070
     1
1070
    44
1040
1.0
1070
    74
1070
     0
1000
MTEXTEND
1000
MTEXTBEGIN
1070
    73
1070
     1
1070
    44
1040
1.0
1070
    74
1070
     0
1000
MTEXTEND
1000
MTEXTBEGIN
1070
    73
1070
     1
1070
    44
1040
1.0
1070
    74
1070
     0
1000
MTEXTEND
1000
MTEXTBEGIN
1070
    73
1070
     1
1070
    44
1040
1.0
1070
    74
1070
     0
1000
MTEXTEND
1000
MTEXTBEGIN
1070
    73
1070
     1
1070
    44
1040
1.0
1070
    74
1070
     0
1000
MTEXTEND
  0
TEXT
  5
248C
330
1F
100
AcDbEntity
  8
SUNPO
100
AcDbText
 10
2376.290169028722
 20
494.4531736811823
 30
0.0
 40
50.0
  1
型式
  7
ADD
100
AcDbText
1001
ACAD
1000
MTEXTBEGIN
1070
    73
1070
     1
1070
    44
1040
1.0
1070
    74
1070
     0
1000
MTEXTEND
1000
MTEXTBEGIN
1070
    73
1070
     1
1070
    44
1040
1.0
1070
    74
1070
     0
1000
MTEXTEND
1000
MTEXTBEGIN
1070
    73
1070
     1
1070
    44
1040
1.0
1070
    74
1070
     0
1000
MTEXTEND
1000
MTEXTBEGIN
1070
    73
1070
     1
1070
    44
1040
1.0
1070
    74
1070
     0
1000
MTEXTEND
1000
MTEXTBEGIN
1070
    73
1070
     1
1070
    44
1040
1.0
1070
    74
1070
     0
1000
MTEXTEND
1000
MTEXTBEGIN
1070
    73
1070
     1
1070
    44
1040
1.0
1070
    74
1070
     0
1000
MTEXTEND
1000
MTEXTBEGIN
1070
    73
1070
     1
1070
    44
1040
1.0
1070
    74
1070
     0
1000
MTEXTEND
1000
MTEXTBEGIN
1070
    73
1070
     1
1070
    44
1040
1.0
1070
    74
1070
     0
1000
MTEXTEND
1000
MTEXTBEGIN
1070
    73
1070
     1
1070
    44
1040
1.0
1070
    74
1070
     0
1000
MTEXTEND
1000
MTEXTBEGIN
1070
    73
1070
     1
1070
    44
1040
1.0
1070
    74
1070
     0
1000
MTEXTEND
1000
MTEXTBEGIN
1070
    73
1070
     1
1070
    44
1040
1.0
1070
    74
1070
     0
1000
MTEXTEND
1000
MTEXTBEGIN
1070
    73
1070
     1
1070
    44
1040
1.0
1070
    74
1070
     0
1000
MTEXTEND
1000
MTEXTBEGIN
1070
    73
1070
     1
1070
    44
1040
1.0
1070
    74
1070
     0
1000
MTEXTEND
1000
MTEXTBEGIN
1070
    73
1070
     1
1070
    44
1040
1.0
1070
    74
1070
     0
1000
MTEXTEND
1000
MTEXTBEGIN
1070
    73
1070
     1
1070
    44
1040
1.0
1070
    74
1070
     0
1000
MTEXTEND
1000
MTEXTBEGIN
1070
    73
1070
     1
1070
    44
1040
1.0
1070
    74
1070
     0
1000
MTEXTEND
  0
TEXT
  5
248D
330
1F
100
AcDbEntity
  8
SUNPO
100
AcDbText
 10
3177.510249231658
 20
488.6918916770627
 30
0.0
 40
50.0
  1
縮尺
  7
ADD
100
AcDbText
1001
ACAD
1000
MTEXTBEGIN
1070
    73
1070
     1
1070
    44
1040
1.0
1070
    74
1070
     0
1000
MTEXTEND
1000
MTEXTBEGIN
1070
    73
1070
     1
1070
    44
1040
1.0
1070
    74
1070
     0
1000
MTEXTEND
1000
MTEXTBEGIN
1070
    73
1070
     1
1070
    44
1040
1.0
1070
    74
1070
     0
1000
MTEXTEND
1000
MTEXTBEGIN
1070
    73
1070
     1
1070
    44
1040
1.0
1070
    74
1070
     0
1000
MTEXTEND
1000
MTEXTBEGIN
1070
    73
1070
     1
1070
    44
1040
1.0
1070
    74
1070
     0
1000
MTEXTEND
1000
MTEXTBEGIN
1070
    73
1070
     1
1070
    44
1040
1.0
1070
    74
1070
     0
1000
MTEXTEND
1000
MTEXTBEGIN
1070
    73
1070
     1
1070
    44
1040
1.0
1070
    74
1070
     0
1000
MTEXTEND
1000
MTEXTBEGIN
1070
    73
1070
     1
1070
    44
1040
1.0
1070
    74
1070
     0
1000
MTEXTEND
1000
MTEXTBEGIN
1070
    73
1070
     1
1070
    44
1040
1.0
1070
    74
1070
     0
1000
MTEXTEND
1000
MTEXTBEGIN
1070
    73
1070
     1
1070
    44
1040
1.0
1070
    74
1070
     0
1000
MTEXTEND
1000
MTEXTBEGIN
1070
    73
1070
     1
1070
    44
1040
1.0
1070
    74
1070
     0
1000
MTEXTEND
1000
MTEXTBEGIN
1070
    73
1070
     1
1070
    44
1040
1.0
1070
    74
1070
     0
1000
MTEXTEND
1000
MTEXTBEGIN
1070
    73
1070
     1
1070
    44
1040
1.0
1070
    74
1070
     0
1000
MTEXTEND
1000
MTEXTBEGIN
1070
    73
1070
     1
1070
    44
1040
1.0
1070
    74
1070
     0
1000
MTEXTEND
1000
MTEXTBEGIN
1070
    73
1070
     1
1070
    44
1040
1.0
1070
    74
1070
     0
1000
MTEXTEND
1000
MTEXTBEGIN
1070
    73
1070
     1
1070
    44
1040
1.0
1070
    74
1070
     0
1000
MTEXTEND
  0
TEXT
  5
248E
330
1F
100
AcDbEntity
  8
SUNPO
100
AcDbText
 10
3730.870883051572
 20
352.2726133092145
 30
0.0
 40
100.0
  1
千葉県コンクリート製品協同組合
  7
ADD
100
AcDbText
1001
ACAD
1000
MTEXTBEGIN
1070
    73
1070
     1
1070
    44
1040
1.0
1070
    74
1070
     0
1000
MTEXTEND
1000
MTEXTBEGIN
1070
    73
1070
     1
1070
    44
1040
1.0
1070
    74
1070
     0
1000
MTEXTEND
1000
MTEXTBEGIN
1070
    73
1070
     1
1070
    44
1040
1.0
1070
    74
1070
     0
1000
MTEXTEND
1000
MTEXTBEGIN
1070
    73
1070
     1
1070
    44
1040
1.0
1070
    74
1070
     0
1000
MTEXTEND
1000
MTEXTBEGIN
1070
    73
1070
     1
1070
    44
1040
1.0
1070
    74
1070
     0
1000
MTEXTEND
1000
MTEXTBEGIN
1070
    73
1070
     1
1070
    44
1040
1.0
1070
    74
1070
     0
1000
MTEXTEND
1000
MTEXTBEGIN
1070
    73
1070
     1
1070
    44
1040
1.0
1070
    74
1070
     0
1000
MTEXTEND
1000
MTEXTBEGIN
1070
    73
1070
     1
1070
    44
1040
1.0
1070
    74
1070
     0
1000
MTEXTEND
1000
MTEXTBEGIN
1070
    73
1070
     1
1070
    44
1040
1.0
1070
    74
1070
     0
1000
MTEXTEND
1000
MTEXTBEGIN
1070
    73
1070
     1
1070
    44
1040
1.0
1070
    74
1070
     0
1000
MTEXTEND
1000
MTEXTBEGIN
1070
    73
1070
     1
1070
    44
1040
1.0
1070
    74
1070
     0
1000
MTEXTEND
1000
MTEXTBEGIN
1070
    73
1070
     1
1070
    44
1040
1.0
1070
    74
1070
     0
1000
MTEXTEND
1000
MTEXTBEGIN
1070
    73
1070
     1
1070
    44
1040
1.0
1070
    74
1070
     0
1000
MTEXTEND
1000
MTEXTBEGIN
1070
    73
1070
     1
1070
    44
1040
1.0
1070
    74
1070
     0
1000
MTEXTEND
1000
MTEXTBEGIN
1070
    73
1070
     1
1070
    44
1040
1.0
1070
    74
1070
     0
1000
MTEXTEND
1000
MTEXTBEGIN
1070
    73
1070
     1
1070
    44
1040
1.0
1070
    74
1070
     0
1000
MTEXTEND
  0
LINE
  5
248F
330
1F
100
AcDbEntity
  8
3C1
100
AcDbLine
 10
360.0
 20
260.0
 30
0.0
 11
5580.0
 21
260.0
 31
0.0
  0
LINE
  5
2490
330
1F
100
AcDbEntity
  8
3C1
100
AcDbLine
 10
5580.0
 20
260.0
 30
0.0
 11
5580.0
 21
3940.0
 31
0.0
  0
LINE
  5
2491
330
1F
100
AcDbEntity
  8
3C1
100
AcDbLine
 10
5580.0
 20
3940.0
 30
0.0
 11
360.0
 21
3940.0
 31
0.0
  0
LINE
  5
2492
330
1F
100
AcDbEntity
  8
3C1
100
AcDbLine
 10
360.0
 20
3940.0
 30
0.0
 11
360.0
 21
260.0
 31
0.0
  0
LINE
  5
2493
330
1F
100
AcDbEntity
  8
HOJO
100
AcDbLine
 10
0.0
 20
0.0
 30
0.0
 11
5940.0
 21
0.0
 31
0.0
  0
LINE
  5
2494
330
1F
100
AcDbEntity
  8
HOJO
100
AcDbLine
 10
5940.0
 20
0.0
 30
0.0
 11
5940.0
 21
4200.0
 31
0.0
  0
LINE
  5
2495
330
1F
100
AcDbEntity
  8
HOJO
100
AcDbLine
 10
5940.0
 20
4200.0
 30
0.0
 11
0.0
 21
4200.0
 31
0.0
  0
LINE
  5
2496
330
1F
100
AcDbEntity
  8
HOJO
100
AcDbLine
 10
0.0
 20
4200.0
 30
0.0
 11
0.0
 21
0.0
 31
0.0
  0
TEXT
  5
2497
330
1F
100
AcDbEntity
  8
SUNPO
 62
     7
100
AcDbText
 10
1443.0
 20
3162.5
 30
0.0
 40
38.0
  1
155
  7
ADD
100
AcDbText
1001
ACAD
1000
MTEXTBEGIN
1070
    73
1070
     1
1070
    44
1040
1.0
1070
    74
1070
     0
1000
MTEXTEND
1000
MTEXTBEGIN
1070
    73
1070
     1
1070
    44
1040
1.0
1070
    74
1070
     0
1000
MTEXTEND
1000
MTEXTBEGIN
1070
    73
1070
     1
1070
    44
1040
1.0
1070
    74
1070
     0
1000
MTEXTEND
1000
MTEXTBEGIN
1070
    73
1070
     1
1070
    44
1040
1.0
1070
    74
1070
     0
1000
MTEXTEND
1000
MTEXTBEGIN
1070
    73
1070
     1
1070
    44
1040
1.0
1070
    74
1070
     0
1000
MTEXTEND
1000
MTEXTBEGIN
1070
    73
1070
     1
1070
    44
1040
1.0
1070
    74
1070
     0
1000
MTEXTEND
1000
MTEXTBEGIN
1070
    73
1070
     1
1070
    44
1040
1.0
1070
    74
1070
     0
1000
MTEXTEND
1000
MTEXTBEGIN
1070
    73
1070
     1
1070
    44
1040
1.0
1070
    74
1070
     0
1000
MTEXTEND
1000
MTEXTBEGIN
1070
    73
1070
     1
1070
    44
1040
1.0
1070
    74
1070
     0
1000
MTEXTEND
1000
MTEXTBEGIN
1070
    73
1070
     1
1070
    44
1040
1.0
1070
    74
1070
     0
1000
MTEXTEND
1000
MTEXTBEGIN
1070
    73
1070
     1
1070
    44
1040
1.0
1070
    74
1070
     0
1000
MTEXTEND
1000
MTEXTBEGIN
1070
    73
1070
     1
1070
    44
1040
1.0
1070
    74
1070
     0
1000
MTEXTEND
1000
MTEXTBEGIN
1070
    73
1070
     1
1070
    44
1040
1.0
1070
    74
1070
     0
1000
MTEXTEND
1000
MTEXTBEGIN
1070
    73
1070
     1
1070
    44
1040
1.0
1070
    74
1070
     0
1000
MTEXTEND
1000
MTEXTBEGIN
1070
    73
1070
     1
1070
    44
1040
1.0
1070
    74
1070
     0
1000
MTEXTEND
1000
MTEXTBEGIN
1070
    73
1070
     1
1070
    44
1040
1.0
1070
    74
1070
     0
1000
MTEXTEND
  0
TEXT
  5
2498
330
1F
100
AcDbEntity
  8
SUNPO
 62
     7
100
AcDbText
 10
1443.0
 20
3262.5
 30
0.0
 40
38.0
  1
192
  7
ADD
100
AcDbText
1001
ACAD
1000
MTEXTBEGIN
1070
    73
1070
     1
1070
    44
1040
1.0
1070
    74
1070
     0
1000
MTEXTEND
1000
MTEXTBEGIN
1070
    73
1070
     1
1070
    44
1040
1.0
1070
    74
1070
     0
1000
MTEXTEND
1000
MTEXTBEGIN
1070
    73
1070
     1
1070
    44
1040
1.0
1070
    74
1070
     0
1000
MTEXTEND
1000
MTEXTBEGIN
1070
    73
1070
     1
1070
    44
1040
1.0
1070
    74
1070
     0
1000
MTEXTEND
1000
MTEXTBEGIN
1070
    73
1070
     1
1070
    44
1040
1.0
1070
    74
1070
     0
1000
MTEXTEND
1000
MTEXTBEGIN
1070
    73
1070
     1
1070
    44
1040
1.0
1070
    74
1070
     0
1000
MTEXTEND
1000
MTEXTBEGIN
1070
    73
1070
     1
1070
    44
1040
1.0
1070
    74
1070
     0
1000
MTEXTEND
1000
MTEXTBEGIN
1070
    73
1070
     1
1070
    44
1040
1.0
1070
    74
1070
     0
1000
MTEXTEND
1000
MTEXTBEGIN
1070
    73
1070
     1
1070
    44
1040
1.0
1070
    74
1070
     0
1000
MTEXTEND
1000
MTEXTBEGIN
1070
    73
1070
     1
1070
    44
1040
1.0
1070
    74
1070
     0
1000
MTEXTEND
1000
MTEXTBEGIN
1070
    73
1070
     1
1070
    44
1040
1.0
1070
    74
1070
     0
1000
MTEXTEND
1000
MTEXTBEGIN
1070
    73
1070
     1
1070
    44
1040
1.0
1070
    74
1070
     0
1000
MTEXTEND
1000
MTEXTBEGIN
1070
    73
1070
     1
1070
    44
1040
1.0
1070
    74
1070
     0
1000
MTEXTEND
1000
MTEXTBEGIN
1070
    73
1070
     1
1070
    44
1040
1.0
1070
    74
1070
     0
1000
MTEXTEND
1000
MTEXTBEGIN
1070
    73
1070
     1
1070
    44
1040
1.0
1070
    74
1070
     0
1000
MTEXTEND
1000
MTEXTBEGIN
1070
    73
1070
     1
1070
    44
1040
1.0
1070
    74
1070
     0
1000
MTEXTEND
  0
TEXT
  5
2499
330
1F
100
AcDbEntity
  8
SUNPO
 62
     7
100
AcDbText
 10
2537.499999999999
 20
2838.809523809524
 30
0.0
 40
38.0
  1
50
 50
90.0
  7
ADD
100
AcDbText
1001
ACAD
1000
MTEXTBEGIN
1070
    73
1070
     1
1070
    44
1040
1.0
1070
    74
1070
     0
1000
MTEXTEND
1000
MTEXTBEGIN
1070
    73
1070
     1
1070
    44
1040
1.0
1070
    74
1070
     0
1000
MTEXTEND
1000
MTEXTBEGIN
1070
    73
1070
     1
1070
    44
1040
1.0
1070
    74
1070
     0
1000
MTEXTEND
1000
MTEXTBEGIN
1070
    73
1070
     1
1070
    44
1040
1.0
1070
    74
1070
     0
1000
MTEXTEND
1000
MTEXTBEGIN
1070
    73
1070
     1
1070
    44
1040
1.0
1070
    74
1070
     0
1000
MTEXTEND
1000
MTEXTBEGIN
1070
    73
1070
     1
1070
    44
1040
1.0
1070
    74
1070
     0
1000
MTEXTEND
1000
MTEXTBEGIN
1070
    73
1070
     1
1070
    44
1040
1.0
1070
    74
1070
     0
1000
MTEXTEND
1000
MTEXTBEGIN
1070
    73
1070
     1
1070
    44
1040
1.0
1070
    74
1070
     0
1000
MTEXTEND
1000
MTEXTBEGIN
1070
    73
1070
     1
1070
    44
1040
1.0
1070
    74
1070
     0
1000
MTEXTEND
1000
MTEXTBEGIN
1070
    73
1070
     1
1070
    44
1040
1.0
1070
    74
1070
     0
1000
MTEXTEND
1000
MTEXTBEGIN
1070
    73
1070
     1
1070
    44
1040
1.0
1070
    74
1070
     0
1000
MTEXTEND
1000
MTEXTBEGIN
1070
    73
1070
     1
1070
    44
1040
1.0
1070
    74
1070
     0
1000
MTEXTEND
1000
MTEXTBEGIN
1070
    73
1070
     1
1070
    44
1040
1.0
1070
    74
1070
     0
1000
MTEXTEND
1000
MTEXTBEGIN
1070
    73
1070
     1
1070
    44
1040
1.0
1070
    74
1070
     0
1000
MTEXTEND
1000
MTEXTBEGIN
1070
    73
1070
     1
1070
    44
1040
1.0
1070
    74
1070
     0
1000
MTEXTEND
1000
MTEXTBEGIN
1070
    73
1070
     1
1070
    44
1040
1.0
1070
    74
1070
     0
1000
MTEXTEND
  0
TEXT
  5
249A
330
1F
100
AcDbEntity
  8
SUNPO
 62
     7
100
AcDbText
 10
2887.499999999999
 20
2833.809523809524
 30
0.0
 40
38.0
  1
40
 50
90.0
  7
ADD
100
AcDbText
1001
ACAD
1000
MTEXTBEGIN
1070
    73
1070
     1
1070
    44
1040
1.0
1070
    74
1070
     0
1000
MTEXTEND
1000
MTEXTBEGIN
1070
    73
1070
     1
1070
    44
1040
1.0
1070
    74
1070
     0
1000
MTEXTEND
1000
MTEXTBEGIN
1070
    73
1070
     1
1070
    44
1040
1.0
1070
    74
1070
     0
1000
MTEXTEND
1000
MTEXTBEGIN
1070
    73
1070
     1
1070
    44
1040
1.0
1070
    74
1070
     0
1000
MTEXTEND
1000
MTEXTBEGIN
1070
    73
1070
     1
1070
    44
1040
1.0
1070
    74
1070
     0
1000
MTEXTEND
1000
MTEXTBEGIN
1070
    73
1070
     1
1070
    44
1040
1.0
1070
    74
1070
     0
1000
MTEXTEND
1000
MTEXTBEGIN
1070
    73
1070
     1
1070
    44
1040
1.0
1070
    74
1070
     0
1000
MTEXTEND
1000
MTEXTBEGIN
1070
    73
1070
     1
1070
    44
1040
1.0
1070
    74
1070
     0
1000
MTEXTEND
1000
MTEXTBEGIN
1070
    73
1070
     1
1070
    44
1040
1.0
1070
    74
1070
     0
1000
MTEXTEND
1000
MTEXTBEGIN
1070
    73
1070
     1
1070
    44
1040
1.0
1070
    74
1070
     0
1000
MTEXTEND
1000
MTEXTBEGIN
1070
    73
1070
     1
1070
    44
1040
1.0
1070
    74
1070
     0
1000
MTEXTEND
1000
MTEXTBEGIN
1070
    73
1070
     1
1070
    44
1040
1.0
1070
    74
1070
     0
1000
MTEXTEND
1000
MTEXTBEGIN
1070
    73
1070
     1
1070
    44
1040
1.0
1070
    74
1070
     0
1000
MTEXTEND
1000
MTEXTBEGIN
1070
    73
1070
     1
1070
    44
1040
1.0
1070
    74
1070
     0
1000
MTEXTEND
1000
MTEXTBEGIN
1070
    73
1070
     1
1070
    44
1040
1.0
1070
    74
1070
     0
1000
MTEXTEND
1000
MTEXTBEGIN
1070
    73
1070
     1
1070
    44
1040
1.0
1070
    74
1070
     0
1000
MTEXTEND
  0
TEXT
  5
249B
330
1F
100
AcDbEntity
  8
SUNPO
 62
     7
100
AcDbText
 10
2642.999999999999
 20
3162.5
 30
0.0
 40
38.0
  1
100
  7
ADD
100
AcDbText
1001
ACAD
1000
MTEXTBEGIN
1070
    73
1070
     1
1070
    44
1040
1.0
1070
    74
1070
     0
1000
MTEXTEND
1000
MTEXTBEGIN
1070
    73
1070
     1
1070
    44
1040
1.0
1070
    74
1070
     0
1000
MTEXTEND
1000
MTEXTBEGIN
1070
    73
1070
     1
1070
    44
1040
1.0
1070
    74
1070
     0
1000
MTEXTEND
1000
MTEXTBEGIN
1070
    73
1070
     1
1070
    44
1040
1.0
1070
    74
1070
     0
1000
MTEXTEND
1000
MTEXTBEGIN
1070
    73
1070
     1
1070
    44
1040
1.0
1070
    74
1070
     0
1000
MTEXTEND
1000
MTEXTBEGIN
1070
    73
1070
     1
1070
    44
1040
1.0
1070
    74
1070
     0
1000
MTEXTEND
1000
MTEXTBEGIN
1070
    73
1070
     1
1070
    44
1040
1.0
1070
    74
1070
     0
1000
MTEXTEND
1000
MTEXTBEGIN
1070
    73
1070
     1
1070
    44
1040
1.0
1070
    74
1070
     0
1000
MTEXTEND
1000
MTEXTBEGIN
1070
    73
1070
     1
1070
    44
1040
1.0
1070
    74
1070
     0
1000
MTEXTEND
1000
MTEXTBEGIN
1070
    73
1070
     1
1070
    44
1040
1.0
1070
    74
1070
     0
1000
MTEXTEND
1000
MTEXTBEGIN
1070
    73
1070
     1
1070
    44
1040
1.0
1070
    74
1070
     0
1000
MTEXTEND
1000
MTEXTBEGIN
1070
    73
1070
     1
1070
    44
1040
1.0
1070
    74
1070
     0
1000
MTEXTEND
1000
MTEXTBEGIN
1070
    73
1070
     1
1070
    44
1040
1.0
1070
    74
1070
     0
1000
MTEXTEND
1000
MTEXTBEGIN
1070
    73
1070
     1
1070
    44
1040
1.0
1070
    74
1070
     0
1000
MTEXTEND
1000
MTEXTBEGIN
1070
    73
1070
     1
1070
    44
1040
1.0
1070
    74
1070
     0
1000
MTEXTEND
1000
MTEXTBEGIN
1070
    73
1070
     1
1070
    44
1040
1.0
1070
    74
1070
     0
1000
MTEXTEND
  0
TEXT
  5
249C
330
1F
100
AcDbEntity
  8
SUNPO
 62
     7
100
AcDbText
 10
2537.499999999999
 20
1525.714285714286
 30
0.0
 40
38.0
  1
200
 50
90.0
  7
ADD
100
AcDbText
1001
ACAD
1000
MTEXTBEGIN
1070
    73
1070
     1
1070
    44
1040
1.0
1070
    74
1070
     0
1000
MTEXTEND
1000
MTEXTBEGIN
1070
    73
1070
     1
1070
    44
1040
1.0
1070
    74
1070
     0
1000
MTEXTEND
1000
MTEXTBEGIN
1070
    73
1070
     1
1070
    44
1040
1.0
1070
    74
1070
     0
1000
MTEXTEND
1000
MTEXTBEGIN
1070
    73
1070
     1
1070
    44
1040
1.0
1070
    74
1070
     0
1000
MTEXTEND
1000
MTEXTBEGIN
1070
    73
1070
     1
1070
    44
1040
1.0
1070
    74
1070
     0
1000
MTEXTEND
1000
MTEXTBEGIN
1070
    73
1070
     1
1070
    44
1040
1.0
1070
    74
1070
     0
1000
MTEXTEND
1000
MTEXTBEGIN
1070
    73
1070
     1
1070
    44
1040
1.0
1070
    74
1070
     0
1000
MTEXTEND
1000
MTEXTBEGIN
1070
    73
1070
     1
1070
    44
1040
1.0
1070
    74
1070
     0
1000
MTEXTEND
1000
MTEXTBEGIN
1070
    73
1070
     1
1070
    44
1040
1.0
1070
    74
1070
     0
1000
MTEXTEND
1000
MTEXTBEGIN
1070
    73
1070
     1
1070
    44
1040
1.0
1070
    74
1070
     0
1000
MTEXTEND
1000
MTEXTBEGIN
1070
    73
1070
     1
1070
    44
1040
1.0
1070
    74
1070
     0
1000
MTEXTEND
1000
MTEXTBEGIN
1070
    73
1070
     1
1070
    44
1040
1.0
1070
    74
1070
     0
1000
MTEXTEND
1000
MTEXTBEGIN
1070
    73
1070
     1
1070
    44
1040
1.0
1070
    74
1070
     0
1000
MTEXTEND
1000
MTEXTBEGIN
1070
    73
1070
     1
1070
    44
1040
1.0
1070
    74
1070
     0
1000
MTEXTEND
1000
MTEXTBEGIN
1070
    73
1070
     1
1070
    44
1040
1.0
1070
    74
1070
     0
1000
MTEXTEND
1000
MTEXTBEGIN
1070
    73
1070
     1
1070
    44
1040
1.0
1070
    74
1070
     0
1000
MTEXTEND
  0
TEXT
  5
249D
330
1F
100
AcDbEntity
  8
SUNPO
 62
     7
100
AcDbText
 10
2772.48943744882
 20
2934.455897603415
 30
0.0
 40
38.0
  1
R40
 50
45.19540443085456
  7
ADD
100
AcDbText
1001
ACAD
1000
MTEXTBEGIN
1070
    73
1070
     1
1070
    44
1040
1.0
1070
    74
1070
     0
1000
MTEXTEND
1000
MTEXTBEGIN
1070
    73
1070
     1
1070
    44
1040
1.0
1070
    74
1070
     0
1000
MTEXTEND
1000
MTEXTBEGIN
1070
    73
1070
     1
1070
    44
1040
1.0
1070
    74
1070
     0
1000
MTEXTEND
1000
MTEXTBEGIN
1070
    73
1070
     1
1070
    44
1040
1.0
1070
    74
1070
     0
1000
MTEXTEND
1000
MTEXTBEGIN
1070
    73
1070
     1
1070
    44
1040
1.0
1070
    74
1070
     0
1000
MTEXTEND
1000
MTEXTBEGIN
1070
    73
1070
     1
1070
    44
1040
1.0
1070
    74
1070
     0
1000
MTEXTEND
1000
MTEXTBEGIN
1070
    73
1070
     1
1070
    44
1040
1.0
1070
    74
1070
     0
1000
MTEXTEND
1000
MTEXTBEGIN
1070
    73
1070
     1
1070
    44
1040
1.0
1070
    74
1070
     0
1000
MTEXTEND
1000
MTEXTBEGIN
1070
    73
1070
     1
1070
    44
1040
1.0
1070
    74
1070
     0
1000
MTEXTEND
1000
MTEXTBEGIN
1070
    73
1070
     1
1070
    44
1040
1.0
1070
    74
1070
     0
1000
MTEXTEND
1000
MTEXTBEGIN
1070
    73
1070
     1
1070
    44
1040
1.0
1070
    74
1070
     0
1000
MTEXTEND
1000
MTEXTBEGIN
1070
    73
1070
     1
1070
    44
1040
1.0
1070
    74
1070
     0
1000
MTEXTEND
1000
MTEXTBEGIN
1070
    73
1070
     1
1070
    44
1040
1.0
1070
    74
1070
     0
1000
MTEXTEND
1000
MTEXTBEGIN
1070
    73
1070
     1
1070
    44
1040
1.0
1070
    74
1070
     0
1000
MTEXTEND
1000
MTEXTBEGIN
1070
    73
1070
     1
1070
    44
1040
1.0
1070
    74
1070
     0
1000
MTEXTEND
1000
MTEXTBEGIN
1070
    73
1070
     1
1070
    44
1040
1.0
1070
    74
1070
     0
1000
MTEXTEND
  0
TEXT
  5
249E
330
1F
100
AcDbEntity
  8
SUNPO
 62
     7
100
AcDbText
 10
1467.499999999999
 20
2898.571428571429
 30
0.0
 40
36.0
  1
200
 50
90.0
  7
ADD
100
AcDbText
1001
ACAD
1000
MTEXTBEGIN
1070
    73
1070
     1
1070
    44
1040
1.0
1070
    74
1070
     0
1000
MTEXTEND
1000
MTEXTBEGIN
1070
    73
1070
     1
1070
    44
1040
1.0
1070
    74
1070
     0
1000
MTEXTEND
1000
MTEXTBEGIN
1070
    73
1070
     1
1070
    44
1040
1.0
1070
    74
1070
     0
1000
MTEXTEND
1000
MTEXTBEGIN
1070
    73
1070
     1
1070
    44
1040
1.0
1070
    74
1070
     0
1000
MTEXTEND
1000
MTEXTBEGIN
1070
    73
1070
     1
1070
    44
1040
1.0
1070
    74
1070
     0
1000
MTEXTEND
1000
MTEXTBEGIN
1070
    73
1070
     1
1070
    44
1040
1.0
1070
    74
1070
     0
1000
MTEXTEND
1000
MTEXTBEGIN
1070
    73
1070
     1
1070
    44
1040
1.0
1070
    74
1070
     0
1000
MTEXTEND
1000
MTEXTBEGIN
1070
    73
1070
     1
1070
    44
1040
1.0
1070
    74
1070
     0
1000
MTEXTEND
1000
MTEXTBEGIN
1070
    73
1070
     1
1070
    44
1040
1.0
1070
    74
1070
     0
1000
MTEXTEND
1000
MTEXTBEGIN
1070
    73
1070
     1
1070
    44
1040
1.0
1070
    74
1070
     0
1000
MTEXTEND
1000
MTEXTBEGIN
1070
    73
1070
     1
1070
    44
1040
1.0
1070
    74
1070
     0
1000
MTEXTEND
1000
MTEXTBEGIN
1070
    73
1070
     1
1070
    44
1040
1.0
1070
    74
1070
     0
1000
MTEXTEND
1000
MTEXTBEGIN
1070
    73
1070
     1
1070
    44
1040
1.0
1070
    74
1070
     0
1000
MTEXTEND
1000
MTEXTBEGIN
1070
    73
1070
     1
1070
    44
1040
1.0
1070
    74
1070
     0
1000
MTEXTEND
1000
MTEXTBEGIN
1070
    73
1070
     1
1070
    44
1040
1.0
1070
    74
1070
     0
1000
MTEXTEND
1000
MTEXTBEGIN
1070
    73
1070
     1
1070
    44
1040
1.0
1070
    74
1070
     0
1000
MTEXTEND
  0
TEXT
  5
249F
330
1F
100
AcDbEntity
  8
SUNPO
 62
     7
100
AcDbText
 10
1837.499999999999
 20
2508.571428571428
 30
0.0
 40
36.0
  1
400
 50
90.0
  7
ADD
100
AcDbText
1001
ACAD
1000
MTEXTBEGIN
1070
    73
1070
     1
1070
    44
1040
1.0
1070
    74
1070
     0
1000
MTEXTEND
1000
MTEXTBEGIN
1070
    73
1070
     1
1070
    44
1040
1.0
1070
    74
1070
     0
1000
MTEXTEND
1000
MTEXTBEGIN
1070
    73
1070
     1
1070
    44
1040
1.0
1070
    74
1070
     0
1000
MTEXTEND
1000
MTEXTBEGIN
1070
    73
1070
     1
1070
    44
1040
1.0
1070
    74
1070
     0
1000
MTEXTEND
1000
MTEXTBEGIN
1070
    73
1070
     1
1070
    44
1040
1.0
1070
    74
1070
     0
1000
MTEXTEND
1000
MTEXTBEGIN
1070
    73
1070
     1
1070
    44
1040
1.0
1070
    74
1070
     0
1000
MTEXTEND
1000
MTEXTBEGIN
1070
    73
1070
     1
1070
    44
1040
1.0
1070
    74
1070
     0
1000
MTEXTEND
1000
MTEXTBEGIN
1070
    73
1070
     1
1070
    44
1040
1.0
1070
    74
1070
     0
1000
MTEXTEND
1000
MTEXTBEGIN
1070
    73
1070
     1
1070
    44
1040
1.0
1070
    74
1070
     0
1000
MTEXTEND
1000
MTEXTBEGIN
1070
    73
1070
     1
1070
    44
1040
1.0
1070
    74
1070
     0
1000
MTEXTEND
1000
MTEXTBEGIN
1070
    73
1070
     1
1070
    44
1040
1.0
1070
    74
1070
     0
1000
MTEXTEND
1000
MTEXTBEGIN
1070
    73
1070
     1
1070
    44
1040
1.0
1070
    74
1070
     0
1000
MTEXTEND
1000
MTEXTBEGIN
1070
    73
1070
     1
1070
    44
1040
1.0
1070
    74
1070
     0
1000
MTEXTEND
1000
MTEXTBEGIN
1070
    73
1070
     1
1070
    44
1040
1.0
1070
    74
1070
     0
1000
MTEXTEND
1000
MTEXTBEGIN
1070
    73
1070
     1
1070
    44
1040
1.0
1070
    74
1070
     0
1000
MTEXTEND
1000
MTEXTBEGIN
1070
    73
1070
     1
1070
    44
1040
1.0
1070
    74
1070
     0
1000
MTEXTEND
  0
TEXT
  5
24A0
330
1F
100
AcDbEntity
  8
SUNPO
 62
     7
100
AcDbText
 10
1837.499999999999
 20
2774.214285714286
 30
0.0
 40
36.0
  1
97
 50
90.0
  7
ADD
100
AcDbText
1001
ACAD
1000
MTEXTBEGIN
1070
    73
1070
     1
1070
    44
1040
1.0
1070
    74
1070
     0
1000
MTEXTEND
1000
MTEXTBEGIN
1070
    73
1070
     1
1070
    44
1040
1.0
1070
    74
1070
     0
1000
MTEXTEND
1000
MTEXTBEGIN
1070
    73
1070
     1
1070
    44
1040
1.0
1070
    74
1070
     0
1000
MTEXTEND
1000
MTEXTBEGIN
1070
    73
1070
     1
1070
    44
1040
1.0
1070
    74
1070
     0
1000
MTEXTEND
1000
MTEXTBEGIN
1070
    73
1070
     1
1070
    44
1040
1.0
1070
    74
1070
     0
1000
MTEXTEND
1000
MTEXTBEGIN
1070
    73
1070
     1
1070
    44
1040
1.0
1070
    74
1070
     0
1000
MTEXTEND
1000
MTEXTBEGIN
1070
    73
1070
     1
1070
    44
1040
1.0
1070
    74
1070
     0
1000
MTEXTEND
1000
MTEXTBEGIN
1070
    73
1070
     1
1070
    44
1040
1.0
1070
    74
1070
     0
1000
MTEXTEND
1000
MTEXTBEGIN
1070
    73
1070
     1
1070
    44
1040
1.0
1070
    74
1070
     0
1000
MTEXTEND
1000
MTEXTBEGIN
1070
    73
1070
     1
1070
    44
1040
1.0
1070
    74
1070
     0
1000
MTEXTEND
1000
MTEXTBEGIN
1070
    73
1070
     1
1070
    44
1040
1.0
1070
    74
1070
     0
1000
MTEXTEND
1000
MTEXTBEGIN
1070
    73
1070
     1
1070
    44
1040
1.0
1070
    74
1070
     0
1000
MTEXTEND
1000
MTEXTBEGIN
1070
    73
1070
     1
1070
    44
1040
1.0
1070
    74
1070
     0
1000
MTEXTEND
1000
MTEXTBEGIN
1070
    73
1070
     1
1070
    44
1040
1.0
1070
    74
1070
     0
1000
MTEXTEND
1000
MTEXTBEGIN
1070
    73
1070
     1
1070
    44
1040
1.0
1070
    74
1070
     0
1000
MTEXTEND
1000
MTEXTBEGIN
1070
    73
1070
     1
1070
    44
1040
1.0
1070
    74
1070
     0
1000
MTEXTEND
  0
TEXT
  5
24A1
330
1F
100
AcDbEntity
  8
SUNPO
 62
     7
100
AcDbText
 10
1837.499999999999
 20
2280.714285714285
 30
0.0
 40
36.0
  1
90
 50
90.0
  7
ADD
100
AcDbText
1001
ACAD
1000
MTEXTBEGIN
1070
    73
1070
     1
1070
    44
1040
1.0
1070
    74
1070
     0
1000
MTEXTEND
1000
MTEXTBEGIN
1070
    73
1070
     1
1070
    44
1040
1.0
1070
    74
1070
     0
1000
MTEXTEND
1000
MTEXTBEGIN
1070
    73
1070
     1
1070
    44
1040
1.0
1070
    74
1070
     0
1000
MTEXTEND
1000
MTEXTBEGIN
1070
    73
1070
     1
1070
    44
1040
1.0
1070
    74
1070
     0
1000
MTEXTEND
1000
MTEXTBEGIN
1070
    73
1070
     1
1070
    44
1040
1.0
1070
    74
1070
     0
1000
MTEXTEND
1000
MTEXTBEGIN
1070
    73
1070
     1
1070
    44
1040
1.0
1070
    74
1070
     0
1000
MTEXTEND
1000
MTEXTBEGIN
1070
    73
1070
     1
1070
    44
1040
1.0
1070
    74
1070
     0
1000
MTEXTEND
1000
MTEXTBEGIN
1070
    73
1070
     1
1070
    44
1040
1.0
1070
    74
1070
     0
1000
MTEXTEND
1000
MTEXTBEGIN
1070
    73
1070
     1
1070
    44
1040
1.0
1070
    74
1070
     0
1000
MTEXTEND
1000
MTEXTBEGIN
1070
    73
1070
     1
1070
    44
1040
1.0
1070
    74
1070
     0
1000
MTEXTEND
1000
MTEXTBEGIN
1070
    73
1070
     1
1070
    44
1040
1.0
1070
    74
1070
     0
1000
MTEXTEND
1000
MTEXTBEGIN
1070
    73
1070
     1
1070
    44
1040
1.0
1070
    74
1070
     0
1000
MTEXTEND
1000
MTEXTBEGIN
1070
    73
1070
     1
1070
    44
1040
1.0
1070
    74
1070
     0
1000
MTEXTEND
1000
MTEXTBEGIN
1070
    73
1070
     1
1070
    44
1040
1.0
1070
    74
1070
     0
1000
MTEXTEND
1000
MTEXTBEGIN
1070
    73
1070
     1
1070
    44
1040
1.0
1070
    74
1070
     0
1000
MTEXTEND
1000
MTEXTBEGIN
1070
    73
1070
     1
1070
    44
1040
1.0
1070
    74
1070
     0
1000
MTEXTEND
  0
TEXT
  5
24A2
330
1F
100
AcDbEntity
  8
SUNPO
 62
     7
100
AcDbText
 10
1287.142857142857
 20
3262.5
 30
0.0
 40
36.0
  1
124
  7
ADD
100
AcDbText
1001
ACAD
1000
MTEXTBEGIN
1070
    73
1070
     1
1070
    44
1040
1.0
1070
    74
1070
     0
1000
MTEXTEND
1000
MTEXTBEGIN
1070
    73
1070
     1
1070
    44
1040
1.0
1070
    74
1070
     0
1000
MTEXTEND
1000
MTEXTBEGIN
1070
    73
1070
     1
1070
    44
1040
1.0
1070
    74
1070
     0
1000
MTEXTEND
1000
MTEXTBEGIN
1070
    73
1070
     1
1070
    44
1040
1.0
1070
    74
1070
     0
1000
MTEXTEND
1000
MTEXTBEGIN
1070
    73
1070
     1
1070
    44
1040
1.0
1070
    74
1070
     0
1000
MTEXTEND
1000
MTEXTBEGIN
1070
    73
1070
     1
1070
    44
1040
1.0
1070
    74
1070
     0
1000
MTEXTEND
1000
MTEXTBEGIN
1070
    73
1070
     1
1070
    44
1040
1.0
1070
    74
1070
     0
1000
MTEXTEND
1000
MTEXTBEGIN
1070
    73
1070
     1
1070
    44
1040
1.0
1070
    74
1070
     0
1000
MTEXTEND
1000
MTEXTBEGIN
1070
    73
1070
     1
1070
    44
1040
1.0
1070
    74
1070
     0
1000
MTEXTEND
1000
MTEXTBEGIN
1070
    73
1070
     1
1070
    44
1040
1.0
1070
    74
1070
     0
1000
MTEXTEND
1000
MTEXTBEGIN
1070
    73
1070
     1
1070
    44
1040
1.0
1070
    74
1070
     0
1000
MTEXTEND
1000
MTEXTBEGIN
1070
    73
1070
     1
1070
    44
1040
1.0
1070
    74
1070
     0
1000
MTEXTEND
1000
MTEXTBEGIN
1070
    73
1070
     1
1070
    44
1040
1.0
1070
    74
1070
     0
1000
MTEXTEND
1000
MTEXTBEGIN
1070
    73
1070
     1
1070
    44
1040
1.0
1070
    74
1070
     0
1000
MTEXTEND
1000
MTEXTBEGIN
1070
    73
1070
     1
1070
    44
1040
1.0
1070
    74
1070
     0
1000
MTEXTEND
1000
MTEXTBEGIN
1070
    73
1070
     1
1070
    44
1040
1.0
1070
    74
1070
     0
1000
MTEXTEND
  0
TEXT
  5
24A3
330
1F
100
AcDbEntity
  8
SUNPO
 62
     7
100
AcDbText
 10
1603.142857142857
 20
3262.5
 30
0.0
 40
36.0
  1
124
  7
ADD
100
AcDbText
1001
ACAD
1000
MTEXTBEGIN
1070
    73
1070
     1
1070
    44
1040
1.0
1070
    74
1070
     0
1000
MTEXTEND
1000
MTEXTBEGIN
1070
    73
1070
     1
1070
    44
1040
1.0
1070
    74
1070
     0
1000
MTEXTEND
1000
MTEXTBEGIN
1070
    73
1070
     1
1070
    44
1040
1.0
1070
    74
1070
     0
1000
MTEXTEND
1000
MTEXTBEGIN
1070
    73
1070
     1
1070
    44
1040
1.0
1070
    74
1070
     0
1000
MTEXTEND
1000
MTEXTBEGIN
1070
    73
1070
     1
1070
    44
1040
1.0
1070
    74
1070
     0
1000
MTEXTEND
1000
MTEXTBEGIN
1070
    73
1070
     1
1070
    44
1040
1.0
1070
    74
1070
     0
1000
MTEXTEND
1000
MTEXTBEGIN
1070
    73
1070
     1
1070
    44
1040
1.0
1070
    74
1070
     0
1000
MTEXTEND
1000
MTEXTBEGIN
1070
    73
1070
     1
1070
    44
1040
1.0
1070
    74
1070
     0
1000
MTEXTEND
1000
MTEXTBEGIN
1070
    73
1070
     1
1070
    44
1040
1.0
1070
    74
1070
     0
1000
MTEXTEND
1000
MTEXTBEGIN
1070
    73
1070
     1
1070
    44
1040
1.0
1070
    74
1070
     0
1000
MTEXTEND
1000
MTEXTBEGIN
1070
    73
1070
     1
1070
    44
1040
1.0
1070
    74
1070
     0
1000
MTEXTEND
1000
MTEXTBEGIN
1070
    73
1070
     1
1070
    44
1040
1.0
1070
    74
1070
     0
1000
MTEXTEND
1000
MTEXTBEGIN
1070
    73
1070
     1
1070
    44
1040
1.0
1070
    74
1070
     0
1000
MTEXTEND
1000
MTEXTBEGIN
1070
    73
1070
     1
1070
    44
1040
1.0
1070
    74
1070
     0
1000
MTEXTEND
1000
MTEXTBEGIN
1070
    73
1070
     1
1070
    44
1040
1.0
1070
    74
1070
     0
1000
MTEXTEND
1000
MTEXTBEGIN
1070
    73
1070
     1
1070
    44
1040
1.0
1070
    74
1070
     0
1000
MTEXTEND
  0
TEXT
  5
24A4
330
1F
100
AcDbEntity
  8
SUNPO
 62
     7
100
AcDbText
 10
1448.571428571428
 20
3362.5
 30
0.0
 40
36.0
  1
440
  7
ADD
100
AcDbText
1001
ACAD
1000
MTEXTBEGIN
1070
    73
1070
     1
1070
    44
1040
1.0
1070
    74
1070
     0
1000
MTEXTEND
1000
MTEXTBEGIN
1070
    73
1070
     1
1070
    44
1040
1.0
1070
    74
1070
     0
1000
MTEXTEND
1000
MTEXTBEGIN
1070
    73
1070
     1
1070
    44
1040
1.0
1070
    74
1070
     0
1000
MTEXTEND
1000
MTEXTBEGIN
1070
    73
1070
     1
1070
    44
1040
1.0
1070
    74
1070
     0
1000
MTEXTEND
1000
MTEXTBEGIN
1070
    73
1070
     1
1070
    44
1040
1.0
1070
    74
1070
     0
1000
MTEXTEND
1000
MTEXTBEGIN
1070
    73
1070
     1
1070
    44
1040
1.0
1070
    74
1070
     0
1000
MTEXTEND
1000
MTEXTBEGIN
1070
    73
1070
     1
1070
    44
1040
1.0
1070
    74
1070
     0
1000
MTEXTEND
1000
MTEXTBEGIN
1070
    73
1070
     1
1070
    44
1040
1.0
1070
    74
1070
     0
1000
MTEXTEND
1000
MTEXTBEGIN
1070
    73
1070
     1
1070
    44
1040
1.0
1070
    74
1070
     0
1000
MTEXTEND
1000
MTEXTBEGIN
1070
    73
1070
     1
1070
    44
1040
1.0
1070
    74
1070
     0
1000
MTEXTEND
1000
MTEXTBEGIN
1070
    73
1070
     1
1070
    44
1040
1.0
1070
    74
1070
     0
1000
MTEXTEND
1000
MTEXTBEGIN
1070
    73
1070
     1
1070
    44
1040
1.0
1070
    74
1070
     0
1000
MTEXTEND
1000
MTEXTBEGIN
1070
    73
1070
     1
1070
    44
1040
1.0
1070
    74
1070
     0
1000
MTEXTEND
1000
MTEXTBEGIN
1070
    73
1070
     1
1070
    44
1040
1.0
1070
    74
1070
     0
1000
MTEXTEND
1000
MTEXTBEGIN
1070
    73
1070
     1
1070
    44
1040
1.0
1070
    74
1070
     0
1000
MTEXTEND
1000
MTEXTBEGIN
1070
    73
1070
     1
1070
    44
1040
1.0
1070
    74
1070
     0
1000
MTEXTEND
  0
TEXT
  5
24A5
330
1F
100
AcDbEntity
  8
SUNPO
 62
     7
100
AcDbText
 10
2437.5
 20
1528.571428571429
 30
0.0
 40
36.0
  1
300
 50
90.0
  7
ADD
100
AcDbText
1001
ACAD
1000
MTEXTBEGIN
1070
    73
1070
     1
1070
    44
1040
1.0
1070
    74
1070
     0
1000
MTEXTEND
1000
MTEXTBEGIN
1070
    73
1070
     1
1070
    44
1040
1.0
1070
    74
1070
     0
1000
MTEXTEND
1000
MTEXTBEGIN
1070
    73
1070
     1
1070
    44
1040
1.0
1070
    74
1070
     0
1000
MTEXTEND
1000
MTEXTBEGIN
1070
    73
1070
     1
1070
    44
1040
1.0
1070
    74
1070
     0
1000
MTEXTEND
1000
MTEXTBEGIN
1070
    73
1070
     1
1070
    44
1040
1.0
1070
    74
1070
     0
1000
MTEXTEND
1000
MTEXTBEGIN
1070
    73
1070
     1
1070
    44
1040
1.0
1070
    74
1070
     0
1000
MTEXTEND
1000
MTEXTBEGIN
1070
    73
1070
     1
1070
    44
1040
1.0
1070
    74
1070
     0
1000
MTEXTEND
1000
MTEXTBEGIN
1070
    73
1070
     1
1070
    44
1040
1.0
1070
    74
1070
     0
1000
MTEXTEND
1000
MTEXTBEGIN
1070
    73
1070
     1
1070
    44
1040
1.0
1070
    74
1070
     0
1000
MTEXTEND
1000
MTEXTBEGIN
1070
    73
1070
     1
1070
    44
1040
1.0
1070
    74
1070
     0
1000
MTEXTEND
1000
MTEXTBEGIN
1070
    73
1070
     1
1070
    44
1040
1.0
1070
    74
1070
     0
1000
MTEXTEND
1000
MTEXTBEGIN
1070
    73
1070
     1
1070
    44
1040
1.0
1070
    74
1070
     0
1000
MTEXTEND
1000
MTEXTBEGIN
1070
    73
1070
     1
1070
    44
1040
1.0
1070
    74
1070
     0
1000
MTEXTEND
1000
MTEXTBEGIN
1070
    73
1070
     1
1070
    44
1040
1.0
1070
    74
1070
     0
1000
MTEXTEND
1000
MTEXTBEGIN
1070
    73
1070
     1
1070
    44
1040
1.0
1070
    74
1070
     0
1000
MTEXTEND
1000
MTEXTBEGIN
1070
    73
1070
     1
1070
    44
1040
1.0
1070
    74
1070
     0
1000
MTEXTEND
  0
TEXT
  5
24A6
330
1F
100
AcDbEntity
  8
SUNPO
 62
     7
100
AcDbText
 10
2437.5
 20
1730.714285714286
 30
0.0
 40
36.0
  1
70
 50
90.0
  7
ADD
100
AcDbText
1001
ACAD
1000
MTEXTBEGIN
1070
    73
1070
     1
1070
    44
1040
1.0
1070
    74
1070
     0
1000
MTEXTEND
1000
MTEXTBEGIN
1070
    73
1070
     1
1070
    44
1040
1.0
1070
    74
1070
     0
1000
MTEXTEND
1000
MTEXTBEGIN
1070
    73
1070
     1
1070
    44
1040
1.0
1070
    74
1070
     0
1000
MTEXTEND
1000
MTEXTBEGIN
1070
    73
1070
     1
1070
    44
1040
1.0
1070
    74
1070
     0
1000
MTEXTEND
1000
MTEXTBEGIN
1070
    73
1070
     1
1070
    44
1040
1.0
1070
    74
1070
     0
1000
MTEXTEND
1000
MTEXTBEGIN
1070
    73
1070
     1
1070
    44
1040
1.0
1070
    74
1070
     0
1000
MTEXTEND
1000
MTEXTBEGIN
1070
    73
1070
     1
1070
    44
1040
1.0
1070
    74
1070
     0
1000
MTEXTEND
1000
MTEXTBEGIN
1070
    73
1070
     1
1070
    44
1040
1.0
1070
    74
1070
     0
1000
MTEXTEND
1000
MTEXTBEGIN
1070
    73
1070
     1
1070
    44
1040
1.0
1070
    74
1070
     0
1000
MTEXTEND
1000
MTEXTBEGIN
1070
    73
1070
     1
1070
    44
1040
1.0
1070
    74
1070
     0
1000
MTEXTEND
1000
MTEXTBEGIN
1070
    73
1070
     1
1070
    44
1040
1.0
1070
    74
1070
     0
1000
MTEXTEND
1000
MTEXTBEGIN
1070
    73
1070
     1
1070
    44
1040
1.0
1070
    74
1070
     0
1000
MTEXTEND
1000
MTEXTBEGIN
1070
    73
1070
     1
1070
    44
1040
1.0
1070
    74
1070
     0
1000
MTEXTEND
1000
MTEXTBEGIN
1070
    73
1070
     1
1070
    44
1040
1.0
1070
    74
1070
     0
1000
MTEXTEND
1000
MTEXTBEGIN
1070
    73
1070
     1
1070
    44
1040
1.0
1070
    74
1070
     0
1000
MTEXTEND
1000
MTEXTBEGIN
1070
    73
1070
     1
1070
    44
1040
1.0
1070
    74
1070
     0
1000
MTEXTEND
  0
TEXT
  5
24A7
330
1F
100
AcDbEntity
  8
SUNPO
 62
     7
100
AcDbText
 10
2439.833333333332
 20
1360.714285714286
 30
0.0
 40
36.0
  1
70
 50
90.0
  7
ADD
100
AcDbText
1001
ACAD
1000
MTEXTBEGIN
1070
    73
1070
     1
1070
    44
1040
1.0
1070
    74
1070
     0
1000
MTEXTEND
1000
MTEXTBEGIN
1070
    73
1070
     1
1070
    44
1040
1.0
1070
    74
1070
     0
1000
MTEXTEND
1000
MTEXTBEGIN
1070
    73
1070
     1
1070
    44
1040
1.0
1070
    74
1070
     0
1000
MTEXTEND
1000
MTEXTBEGIN
1070
    73
1070
     1
1070
    44
1040
1.0
1070
    74
1070
     0
1000
MTEXTEND
1000
MTEXTBEGIN
1070
    73
1070
     1
1070
    44
1040
1.0
1070
    74
1070
     0
1000
MTEXTEND
1000
MTEXTBEGIN
1070
    73
1070
     1
1070
    44
1040
1.0
1070
    74
1070
     0
1000
MTEXTEND
1000
MTEXTBEGIN
1070
    73
1070
     1
1070
    44
1040
1.0
1070
    74
1070
     0
1000
MTEXTEND
1000
MTEXTBEGIN
1070
    73
1070
     1
1070
    44
1040
1.0
1070
    74
1070
     0
1000
MTEXTEND
1000
MTEXTBEGIN
1070
    73
1070
     1
1070
    44
1040
1.0
1070
    74
1070
     0
1000
MTEXTEND
1000
MTEXTBEGIN
1070
    73
1070
     1
1070
    44
1040
1.0
1070
    74
1070
     0
1000
MTEXTEND
1000
MTEXTBEGIN
1070
    73
1070
     1
1070
    44
1040
1.0
1070
    74
1070
     0
1000
MTEXTEND
1000
MTEXTBEGIN
1070
    73
1070
     1
1070
    44
1040
1.0
1070
    74
1070
     0
1000
MTEXTEND
1000
MTEXTBEGIN
1070
    73
1070
     1
1070
    44
1040
1.0
1070
    74
1070
     0
1000
MTEXTEND
1000
MTEXTBEGIN
1070
    73
1070
     1
1070
    44
1040
1.0
1070
    74
1070
     0
1000
MTEXTEND
1000
MTEXTBEGIN
1070
    73
1070
     1
1070
    44
1040
1.0
1070
    74
1070
     0
1000
MTEXTEND
1000
MTEXTBEGIN
1070
    73
1070
     1
1070
    44
1040
1.0
1070
    74
1070
     0
1000
MTEXTEND
  0
TEXT
  5
24A8
330
1F
100
AcDbEntity
  8
SUNPO
 62
     7
100
AcDbText
 10
1937.499999999999
 20
2512.071428571429
 30
0.0
 40
36.0
  1
587
 50
90.0
  7
ADD
100
AcDbText
1001
ACAD
1000
MTEXTBEGIN
1070
    73
1070
     1
1070
    44
1040
1.0
1070
    74
1070
     0
1000
MTEXTEND
1000
MTEXTBEGIN
1070
    73
1070
     1
1070
    44
1040
1.0
1070
    74
1070
     0
1000
MTEXTEND
1000
MTEXTBEGIN
1070
    73
1070
     1
1070
    44
1040
1.0
1070
    74
1070
     0
1000
MTEXTEND
1000
MTEXTBEGIN
1070
    73
1070
     1
1070
    44
1040
1.0
1070
    74
1070
     0
1000
MTEXTEND
1000
MTEXTBEGIN
1070
    73
1070
     1
1070
    44
1040
1.0
1070
    74
1070
     0
1000
MTEXTEND
1000
MTEXTBEGIN
1070
    73
1070
     1
1070
    44
1040
1.0
1070
    74
1070
     0
1000
MTEXTEND
1000
MTEXTBEGIN
1070
    73
1070
     1
1070
    44
1040
1.0
1070
    74
1070
     0
1000
MTEXTEND
1000
MTEXTBEGIN
1070
    73
1070
     1
1070
    44
1040
1.0
1070
    74
1070
     0
1000
MTEXTEND
1000
MTEXTBEGIN
1070
    73
1070
     1
1070
    44
1040
1.0
1070
    74
1070
     0
1000
MTEXTEND
1000
MTEXTBEGIN
1070
    73
1070
     1
1070
    44
1040
1.0
1070
    74
1070
     0
1000
MTEXTEND
1000
MTEXTBEGIN
1070
    73
1070
     1
1070
    44
1040
1.0
1070
    74
1070
     0
1000
MTEXTEND
1000
MTEXTBEGIN
1070
    73
1070
     1
1070
    44
1040
1.0
1070
    74
1070
     0
1000
MTEXTEND
1000
MTEXTBEGIN
1070
    73
1070
     1
1070
    44
1040
1.0
1070
    74
1070
     0
1000
MTEXTEND
1000
MTEXTBEGIN
1070
    73
1070
     1
1070
    44
1040
1.0
1070
    74
1070
     0
1000
MTEXTEND
1000
MTEXTBEGIN
1070
    73
1070
     1
1070
    44
1040
1.0
1070
    74
1070
     0
1000
MTEXTEND
1000
MTEXTBEGIN
1070
    73
1070
     1
1070
    44
1040
1.0
1070
    74
1070
     0
1000
MTEXTEND
  0
TEXT
  5
24A9
330
1F
100
AcDbEntity
  8
SUNPO
 62
     7
100
AcDbText
 10
4787.499999999999
 20
2840.714285714286
 30
0.0
 40
36.0
  1
50
 50
90.0
  7
ADD
100
AcDbText
1001
ACAD
1000
MTEXTBEGIN
1070
    73
1070
     1
1070
    44
1040
1.0
1070
    74
1070
     0
1000
MTEXTEND
1000
MTEXTBEGIN
1070
    73
1070
     1
1070
    44
1040
1.0
1070
    74
1070
     0
1000
MTEXTEND
1000
MTEXTBEGIN
1070
    73
1070
     1
1070
    44
1040
1.0
1070
    74
1070
     0
1000
MTEXTEND
1000
MTEXTBEGIN
1070
    73
1070
     1
1070
    44
1040
1.0
1070
    74
1070
     0
1000
MTEXTEND
1000
MTEXTBEGIN
1070
    73
1070
     1
1070
    44
1040
1.0
1070
    74
1070
     0
1000
MTEXTEND
1000
MTEXTBEGIN
1070
    73
1070
     1
1070
    44
1040
1.0
1070
    74
1070
     0
1000
MTEXTEND
1000
MTEXTBEGIN
1070
    73
1070
     1
1070
    44
1040
1.0
1070
    74
1070
     0
1000
MTEXTEND
1000
MTEXTBEGIN
1070
    73
1070
     1
1070
    44
1040
1.0
1070
    74
1070
     0
1000
MTEXTEND
1000
MTEXTBEGIN
1070
    73
1070
     1
1070
    44
1040
1.0
1070
    74
1070
     0
1000
MTEXTEND
1000
MTEXTBEGIN
1070
    73
1070
     1
1070
    44
1040
1.0
1070
    74
1070
     0
1000
MTEXTEND
1000
MTEXTBEGIN
1070
    73
1070
     1
1070
    44
1040
1.0
1070
    74
1070
     0
1000
MTEXTEND
1000
MTEXTBEGIN
1070
    73
1070
     1
1070
    44
1040
1.0
1070
    74
1070
     0
1000
MTEXTEND
1000
MTEXTBEGIN
1070
    73
1070
     1
1070
    44
1040
1.0
1070
    74
1070
     0
1000
MTEXTEND
1000
MTEXTBEGIN
1070
    73
1070
     1
1070
    44
1040
1.0
1070
    74
1070
     0
1000
MTEXTEND
1000
MTEXTBEGIN
1070
    73
1070
     1
1070
    44
1040
1.0
1070
    74
1070
     0
1000
MTEXTEND
1000
MTEXTBEGIN
1070
    73
1070
     1
1070
    44
1040
1.0
1070
    74
1070
     0
1000
MTEXTEND
  0
TEXT
  5
24AA
330
1F
100
AcDbEntity
  8
SUNPO
 62
     7
100
AcDbText
 10
4437.499999999999
 20
2835.714285714285
 30
0.0
 40
36.0
  1
40
 50
90.0
  7
ADD
100
AcDbText
1001
ACAD
1000
MTEXTBEGIN
1070
    73
1070
     1
1070
    44
1040
1.0
1070
    74
1070
     0
1000
MTEXTEND
1000
MTEXTBEGIN
1070
    73
1070
     1
1070
    44
1040
1.0
1070
    74
1070
     0
1000
MTEXTEND
1000
MTEXTBEGIN
1070
    73
1070
     1
1070
    44
1040
1.0
1070
    74
1070
     0
1000
MTEXTEND
1000
MTEXTBEGIN
1070
    73
1070
     1
1070
    44
1040
1.0
1070
    74
1070
     0
1000
MTEXTEND
1000
MTEXTBEGIN
1070
    73
1070
     1
1070
    44
1040
1.0
1070
    74
1070
     0
1000
MTEXTEND
1000
MTEXTBEGIN
1070
    73
1070
     1
1070
    44
1040
1.0
1070
    74
1070
     0
1000
MTEXTEND
1000
MTEXTBEGIN
1070
    73
1070
     1
1070
    44
1040
1.0
1070
    74
1070
     0
1000
MTEXTEND
1000
MTEXTBEGIN
1070
    73
1070
     1
1070
    44
1040
1.0
1070
    74
1070
     0
1000
MTEXTEND
1000
MTEXTBEGIN
1070
    73
1070
     1
1070
    44
1040
1.0
1070
    74
1070
     0
1000
MTEXTEND
1000
MTEXTBEGIN
1070
    73
1070
     1
1070
    44
1040
1.0
1070
    74
1070
     0
1000
MTEXTEND
1000
MTEXTBEGIN
1070
    73
1070
     1
1070
    44
1040
1.0
1070
    74
1070
     0
1000
MTEXTEND
1000
MTEXTBEGIN
1070
    73
1070
     1
1070
    44
1040
1.0
1070
    74
1070
     0
1000
MTEXTEND
1000
MTEXTBEGIN
1070
    73
1070
     1
1070
    44
1040
1.0
1070
    74
1070
     0
1000
MTEXTEND
1000
MTEXTBEGIN
1070
    73
1070
     1
1070
    44
1040
1.0
1070
    74
1070
     0
1000
MTEXTEND
1000
MTEXTBEGIN
1070
    73
1070
     1
1070
    44
1040
1.0
1070
    74
1070
     0
1000
MTEXTEND
1000
MTEXTBEGIN
1070
    73
1070
     1
1070
    44
1040
1.0
1070
    74
1070
     0
1000
MTEXTEND
  0
TEXT
  5
24AB
330
1F
100
AcDbEntity
  8
SUNPO
 62
     7
100
AcDbText
 10
3581.42857142857
 20
3312.5
 30
0.0
 40
36.0
  1
2000
  7
ADD
100
AcDbText
1001
ACAD
1000
MTEXTBEGIN
1070
    73
1070
     1
1070
    44
1040
1.0
1070
    74
1070
     0
1000
MTEXTEND
1000
MTEXTBEGIN
1070
    73
1070
     1
1070
    44
1040
1.0
1070
    74
1070
     0
1000
MTEXTEND
1000
MTEXTBEGIN
1070
    73
1070
     1
1070
    44
1040
1.0
1070
    74
1070
     0
1000
MTEXTEND
1000
MTEXTBEGIN
1070
    73
1070
     1
1070
    44
1040
1.0
1070
    74
1070
     0
1000
MTEXTEND
1000
MTEXTBEGIN
1070
    73
1070
     1
1070
    44
1040
1.0
1070
    74
1070
     0
1000
MTEXTEND
1000
MTEXTBEGIN
1070
    73
1070
     1
1070
    44
1040
1.0
1070
    74
1070
     0
1000
MTEXTEND
1000
MTEXTBEGIN
1070
    73
1070
     1
1070
    44
1040
1.0
1070
    74
1070
     0
1000
MTEXTEND
1000
MTEXTBEGIN
1070
    73
1070
     1
1070
    44
1040
1.0
1070
    74
1070
     0
1000
MTEXTEND
1000
MTEXTBEGIN
1070
    73
1070
     1
1070
    44
1040
1.0
1070
    74
1070
     0
1000
MTEXTEND
1000
MTEXTBEGIN
1070
    73
1070
     1
1070
    44
1040
1.0
1070
    74
1070
     0
1000
MTEXTEND
1000
MTEXTBEGIN
1070
    73
1070
     1
1070
    44
1040
1.0
1070
    74
1070
     0
1000
MTEXTEND
1000
MTEXTBEGIN
1070
    73
1070
     1
1070
    44
1040
1.0
1070
    74
1070
     0
1000
MTEXTEND
1000
MTEXTBEGIN
1070
    73
1070
     1
1070
    44
1040
1.0
1070
    74
1070
     0
1000
MTEXTEND
1000
MTEXTBEGIN
1070
    73
1070
     1
1070
    44
1040
1.0
1070
    74
1070
     0
1000
MTEXTEND
1000
MTEXTBEGIN
1070
    73
1070
     1
1070
    44
1040
1.0
1070
    74
1070
     0
1000
MTEXTEND
1000
MTEXTBEGIN
1070
    73
1070
     1
1070
    44
1040
1.0
1070
    74
1070
     0
1000
MTEXTEND
  0
TEXT
  5
24AC
330
1F
100
AcDbEntity
  8
SUNPO
 62
     7
100
AcDbText
 10
4546.0
 20
3162.5
 30
0.0
 40
36.0
  1
100
  7
ADD
100
AcDbText
1001
ACAD
1000
MTEXTBEGIN
1070
    73
1070
     1
1070
    44
1040
1.0
1070
    74
1070
     0
1000
MTEXTEND
1000
MTEXTBEGIN
1070
    73
1070
     1
1070
    44
1040
1.0
1070
    74
1070
     0
1000
MTEXTEND
1000
MTEXTBEGIN
1070
    73
1070
     1
1070
    44
1040
1.0
1070
    74
1070
     0
1000
MTEXTEND
1000
MTEXTBEGIN
1070
    73
1070
     1
1070
    44
1040
1.0
1070
    74
1070
     0
1000
MTEXTEND
1000
MTEXTBEGIN
1070
    73
1070
     1
1070
    44
1040
1.0
1070
    74
1070
     0
1000
MTEXTEND
1000
MTEXTBEGIN
1070
    73
1070
     1
1070
    44
1040
1.0
1070
    74
1070
     0
1000
MTEXTEND
1000
MTEXTBEGIN
1070
    73
1070
     1
1070
    44
1040
1.0
1070
    74
1070
     0
1000
MTEXTEND
1000
MTEXTBEGIN
1070
    73
1070
     1
1070
    44
1040
1.0
1070
    74
1070
     0
1000
MTEXTEND
1000
MTEXTBEGIN
1070
    73
1070
     1
1070
    44
1040
1.0
1070
    74
1070
     0
1000
MTEXTEND
1000
MTEXTBEGIN
1070
    73
1070
     1
1070
    44
1040
1.0
1070
    74
1070
     0
1000
MTEXTEND
1000
MTEXTBEGIN
1070
    73
1070
     1
1070
    44
1040
1.0
1070
    74
1070
     0
1000
MTEXTEND
1000
MTEXTBEGIN
1070
    73
1070
     1
1070
    44
1040
1.0
1070
    74
1070
     0
1000
MTEXTEND
1000
MTEXTBEGIN
1070
    73
1070
     1
1070
    44
1040
1.0
1070
    74
1070
     0
1000
MTEXTEND
1000
MTEXTBEGIN
1070
    73
1070
     1
1070
    44
1040
1.0
1070
    74
1070
     0
1000
MTEXTEND
1000
MTEXTBEGIN
1070
    73
1070
     1
1070
    44
1040
1.0
1070
    74
1070
     0
1000
MTEXTEND
1000
MTEXTBEGIN
1070
    73
1070
     1
1070
    44
1040
1.0
1070
    74
1070
     0
1000
MTEXTEND
  0
TEXT
  5
24AD
330
1F
100
AcDbEntity
  8
SUNPO
 62
     7
100
AcDbText
 10
1467.499999999999
 20
2770.714285714285
 30
0.0
 40
36.0
  1
90
 50
90.0
  7
ADD
100
AcDbText
1001
ACAD
1000
MTEXTBEGIN
1070
    73
1070
     1
1070
    44
1040
1.0
1070
    74
1070
     0
1000
MTEXTEND
1000
MTEXTBEGIN
1070
    73
1070
     1
1070
    44
1040
1.0
1070
    74
1070
     0
1000
MTEXTEND
1000
MTEXTBEGIN
1070
    73
1070
     1
1070
    44
1040
1.0
1070
    74
1070
     0
1000
MTEXTEND
1000
MTEXTBEGIN
1070
    73
1070
     1
1070
    44
1040
1.0
1070
    74
1070
     0
1000
MTEXTEND
1000
MTEXTBEGIN
1070
    73
1070
     1
1070
    44
1040
1.0
1070
    74
1070
     0
1000
MTEXTEND
1000
MTEXTBEGIN
1070
    73
1070
     1
1070
    44
1040
1.0
1070
    74
1070
     0
1000
MTEXTEND
1000
MTEXTBEGIN
1070
    73
1070
     1
1070
    44
1040
1.0
1070
    74
1070
     0
1000
MTEXTEND
1000
MTEXTBEGIN
1070
    73
1070
     1
1070
    44
1040
1.0
1070
    74
1070
     0
1000
MTEXTEND
1000
MTEXTBEGIN
1070
    73
1070
     1
1070
    44
1040
1.0
1070
    74
1070
     0
1000
MTEXTEND
1000
MTEXTBEGIN
1070
    73
1070
     1
1070
    44
1040
1.0
1070
    74
1070
     0
1000
MTEXTEND
1000
MTEXTBEGIN
1070
    73
1070
     1
1070
    44
1040
1.0
1070
    74
1070
     0
1000
MTEXTEND
1000
MTEXTBEGIN
1070
    73
1070
     1
1070
    44
1040
1.0
1070
    74
1070
     0
1000
MTEXTEND
1000
MTEXTBEGIN
1070
    73
1070
     1
1070
    44
1040
1.0
1070
    74
1070
     0
1000
MTEXTEND
1000
MTEXTBEGIN
1070
    73
1070
     1
1070
    44
1040
1.0
1070
    74
1070
     0
1000
MTEXTEND
1000
MTEXTBEGIN
1070
    73
1070
     1
1070
    44
1040
1.0
1070
    74
1070
     0
1000
MTEXTEND
  0
TEXT
  5
24AE
330
1F
100
AcDbEntity
  8
SUNPO
 62
     7
100
AcDbText
 10
1280.714285714285
 20
2112.5
 30
0.0
 40
36.0
  1
70
  7
ADD
100
AcDbText
1001
ACAD
1000
MTEXTBEGIN
1070
    73
1070
     1
1070
    44
1040
1.0
1070
    74
1070
     0
1000
MTEXTEND
1000
MTEXTBEGIN
1070
    73
1070
     1
1070
    44
1040
1.0
1070
    74
1070
     0
1000
MTEXTEND
1000
MTEXTBEGIN
1070
    73
1070
     1
1070
    44
1040
1.0
1070
    74
1070
     0
1000
MTEXTEND
1000
MTEXTBEGIN
1070
    73
1070
     1
1070
    44
1040
1.0
1070
    74
1070
     0
1000
MTEXTEND
1000
MTEXTBEGIN
1070
    73
1070
     1
1070
    44
1040
1.0
1070
    74
1070
     0
1000
MTEXTEND
1000
MTEXTBEGIN
1070
    73
1070
     1
1070
    44
1040
1.0
1070
    74
1070
     0
1000
MTEXTEND
1000
MTEXTBEGIN
1070
    73
1070
     1
1070
    44
1040
1.0
1070
    74
1070
     0
1000
MTEXTEND
1000
MTEXTBEGIN
1070
    73
1070
     1
1070
    44
1040
1.0
1070
    74
1070
     0
1000
MTEXTEND
1000
MTEXTBEGIN
1070
    73
1070
     1
1070
    44
1040
1.0
1070
    74
1070
     0
1000
MTEXTEND
1000
MTEXTBEGIN
1070
    73
1070
     1
1070
    44
1040
1.0
1070
    74
1070
     0
1000
MTEXTEND
1000
MTEXTBEGIN
1070
    73
1070
     1
1070
    44
1040
1.0
1070
    74
1070
     0
1000
MTEXTEND
1000
MTEXTBEGIN
1070
    73
1070
     1
1070
    44
1040
1.0
1070
    74
1070
     0
1000
MTEXTEND
1000
MTEXTBEGIN
1070
    73
1070
     1
1070
    44
1040
1.0
1070
    74
1070
     0
1000
MTEXTEND
1000
MTEXTBEGIN
1070
    73
1070
     1
1070
    44
1040
1.0
1070
    74
1070
     0
1000
MTEXTEND
1000
MTEXTBEGIN
1070
    73
1070
     1
1070
    44
1040
1.0
1070
    74
1070
     0
1000
MTEXTEND
  0
TEXT
  5
24AF
330
1F
100
AcDbEntity
  8
SUNPO
 62
     7
100
AcDbText
 10
1650.714285714285
 20
2112.5
 30
0.0
 40
36.0
  1
70
  7
ADD
100
AcDbText
1001
ACAD
1000
MTEXTBEGIN
1070
    73
1070
     1
1070
    44
1040
1.0
1070
    74
1070
     0
1000
MTEXTEND
1000
MTEXTBEGIN
1070
    73
1070
     1
1070
    44
1040
1.0
1070
    74
1070
     0
1000
MTEXTEND
1000
MTEXTBEGIN
1070
    73
1070
     1
1070
    44
1040
1.0
1070
    74
1070
     0
1000
MTEXTEND
1000
MTEXTBEGIN
1070
    73
1070
     1
1070
    44
1040
1.0
1070
    74
1070
     0
1000
MTEXTEND
1000
MTEXTBEGIN
1070
    73
1070
     1
1070
    44
1040
1.0
1070
    74
1070
     0
1000
MTEXTEND
1000
MTEXTBEGIN
1070
    73
1070
     1
1070
    44
1040
1.0
1070
    74
1070
     0
1000
MTEXTEND
1000
MTEXTBEGIN
1070
    73
1070
     1
1070
    44
1040
1.0
1070
    74
1070
     0
1000
MTEXTEND
1000
MTEXTBEGIN
1070
    73
1070
     1
1070
    44
1040
1.0
1070
    74
1070
     0
1000
MTEXTEND
1000
MTEXTBEGIN
1070
    73
1070
     1
1070
    44
1040
1.0
1070
    74
1070
     0
1000
MTEXTEND
1000
MTEXTBEGIN
1070
    73
1070
     1
1070
    44
1040
1.0
1070
    74
1070
     0
1000
MTEXTEND
1000
MTEXTBEGIN
1070
    73
1070
     1
1070
    44
1040
1.0
1070
    74
1070
     0
1000
MTEXTEND
1000
MTEXTBEGIN
1070
    73
1070
     1
1070
    44
1040
1.0
1070
    74
1070
     0
1000
MTEXTEND
1000
MTEXTBEGIN
1070
    73
1070
     1
1070
    44
1040
1.0
1070
    74
1070
     0
1000
MTEXTEND
1000
MTEXTBEGIN
1070
    73
1070
     1
1070
    44
1040
1.0
1070
    74
1070
     0
1000
MTEXTEND
1000
MTEXTBEGIN
1070
    73
1070
     1
1070
    44
1040
1.0
1070
    74
1070
     0
1000
MTEXTEND
  0
TEXT
  5
24B0
330
1F
100
AcDbEntity
  8
SUNPO
 62
     7
100
AcDbText
 10
1448.571428571428
 20
2112.5
 30
0.0
 40
36.0
  1
300
  7
ADD
100
AcDbText
1001
ACAD
1000
MTEXTBEGIN
1070
    73
1070
     1
1070
    44
1040
1.0
1070
    74
1070
     0
1000
MTEXTEND
1000
MTEXTBEGIN
1070
    73
1070
     1
1070
    44
1040
1.0
1070
    74
1070
     0
1000
MTEXTEND
1000
MTEXTBEGIN
1070
    73
1070
     1
1070
    44
1040
1.0
1070
    74
1070
     0
1000
MTEXTEND
1000
MTEXTBEGIN
1070
    73
1070
     1
1070
    44
1040
1.0
1070
    74
1070
     0
1000
MTEXTEND
1000
MTEXTBEGIN
1070
    73
1070
     1
1070
    44
1040
1.0
1070
    74
1070
     0
1000
MTEXTEND
1000
MTEXTBEGIN
1070
    73
1070
     1
1070
    44
1040
1.0
1070
    74
1070
     0
1000
MTEXTEND
1000
MTEXTBEGIN
1070
    73
1070
     1
1070
    44
1040
1.0
1070
    74
1070
     0
1000
MTEXTEND
1000
MTEXTBEGIN
1070
    73
1070
     1
1070
    44
1040
1.0
1070
    74
1070
     0
1000
MTEXTEND
1000
MTEXTBEGIN
1070
    73
1070
     1
1070
    44
1040
1.0
1070
    74
1070
     0
1000
MTEXTEND
1000
MTEXTBEGIN
1070
    73
1070
     1
1070
    44
1040
1.0
1070
    74
1070
     0
1000
MTEXTEND
1000
MTEXTBEGIN
1070
    73
1070
     1
1070
    44
1040
1.0
1070
    74
1070
     0
1000
MTEXTEND
1000
MTEXTBEGIN
1070
    73
1070
     1
1070
    44
1040
1.0
1070
    74
1070
     0
1000
MTEXTEND
1000
MTEXTBEGIN
1070
    73
1070
     1
1070
    44
1040
1.0
1070
    74
1070
     0
1000
MTEXTEND
1000
MTEXTBEGIN
1070
    73
1070
     1
1070
    44
1040
1.0
1070
    74
1070
     0
1000
MTEXTEND
1000
MTEXTBEGIN
1070
    73
1070
     1
1070
    44
1040
1.0
1070
    74
1070
     0
1000
MTEXTEND
  0
LINE
  5
24B1
330
1F
100
AcDbEntity
  8
SUNPO
100
AcDbLine
 10
1367.124264991113
 20
2867.635032772918
 30
0.0
 11
1295.443803539692
 21
2874.410831331852
 31
0.0
1001
ACAD
1000
DSTYLE
1002
{
1070
     5
1000

1070
    40
1040
20.0
1070
    41
1040
1.399999999999999
1070
    77
1070
     0
1070
   140
1040
1.8
1070
   141
1040
1.399999999999999
1070
   147
1040
0.625
1070
   342
1005
0
1002
}
  0
LINE
  5
24B2
330
1F
100
AcDbEntity
  8
SUNPO
100
AcDbLine
 10
1632.875735008886
 20
2867.635032772918
 30
0.0
 11
1704.556196460308
 21
2874.410831331852
 31
0.0
210
0.0
220
0.0
230
-1.0
1001
ACAD
1000
DSTYLE
1002
{
1070
     5
1000

1070
    40
1040
20.0
1070
    41
1040
1.399999999999999
1070
    77
1070
     0
1070
   140
1040
1.8
1070
   141
1040
1.399999999999999
1070
   147
1040
0.625
1070
   342
1005
0
1002
}
  0
LINE
  5
24B3
330
1F
100
AcDbEntity
  8
SUNPO
100
AcDbLine
 10
1737.810840270268
 20
2875.693118082998
 30
0.0
 11
1780.0
 21
2920.0
 31
0.0
1001
ACAD
1000
DSTYLE
1002
{
1070
     5
1000

1070
    40
1040
20.0
1070
    41
1040
1.399999999999999
1070
    77
1070
     0
1070
   140
1040
1.8
1070
   141
1040
1.399999999999999
1070
   147
1040
0.625
1070
   342
1005
0
1002
}
  0
LINE
  5
24B4
330
1F
100
AcDbEntity
  8
SUNPO
100
AcDbLine
 10
1780.0
 20
2920.0
 30
0.0
 11
1860.0
 21
2920.0
 31
0.0
1001
ACAD
1000
DSTYLE
1002
{
1070
     5
1000

1070
    40
1040
20.0
1070
    41
1040
1.399999999999999
1070
    77
1070
     0
1070
   140
1040
1.8
1070
   141
1040
1.399999999999999
1070
   147
1040
0.625
1070
   342
1005
0
1002
}
  0
LINE
  5
24B5
330
1F
100
AcDbEntity
  8
SUNPO
100
AcDbLine
 10
1726.439339988146
 20
2261.877163124018
 30
0.0
 11
1820.0
 21
2160.0
 31
0.0
1001
ACAD
1000
DSTYLE
1002
{
1070
     5
1000

1070
    40
1040
20.0
1070
    41
1040
1.399999999999999
1070
    77
1070
     0
1070
   140
1040
1.8
1070
   141
1040
1.399999999999999
1070
   147
1040
0.625
1070
   342
1005
0
1002
}
  0
LINE
  5
24B6
330
1F
100
AcDbEntity
  8
SUNPO
100
AcDbLine
 10
1820.0
 20
2160.0
 30
0.0
 11
1940.0
 21
2160.0
 31
0.0
1001
ACAD
1000
DSTYLE
1002
{
1070
     5
1000

1070
    40
1040
20.0
1070
    41
1040
1.399999999999999
1070
    77
1070
     0
1070
   140
1040
1.8
1070
   141
1040
1.399999999999999
1070
   147
1040
0.625
1070
   342
1005
0
1002
}
  0
TEXT
  5
24B7
330
1F
100
AcDbEntity
  8
SUNPO
 62
     7
100
AcDbText
 10
1580.975391883506
 20
2308.801549941776
 30
0.0
 40
36.0
  1
R250
 50
282.7509194864351
  7
ADD
100
AcDbText
1001
ACAD
1000
MTEXTBEGIN
1070
    73
1070
     1
1070
    44
1040
1.0
1070
    74
1070
     0
1000
MTEXTEND
1000
MTEXTBEGIN
1070
    73
1070
     1
1070
    44
1040
1.0
1070
    74
1070
     0
1000
MTEXTEND
1000
MTEXTBEGIN
1070
    73
1070
     1
1070
    44
1040
1.0
1070
    74
1070
     0
1000
MTEXTEND
1000
MTEXTBEGIN
1070
    73
1070
     1
1070
    44
1040
1.0
1070
    74
1070
     0
1000
MTEXTEND
1000
MTEXTBEGIN
1070
    73
1070
     1
1070
    44
1040
1.0
1070
    74
1070
     0
1000
MTEXTEND
  0
TEXT
  5
24B8
330
1F
100
AcDbEntity
  8
SUNPO
 62
     7
100
AcDbText
 10
1212.443892268164
 20
2325.117622099144
 30
0.0
 40
36.0
  1
R50
 50
34.05379823372558
  7
ADD
100
AcDbText
1001
ACAD
1000
MTEXTBEGIN
1070
    73
1070
     1
1070
    44
1040
1.0
1070
    74
1070
     0
1000
MTEXTEND
1000
MTEXTBEGIN
1070
    73
1070
     1
1070
    44
1040
1.0
1070
    74
1070
     0
1000
MTEXTEND
1000
MTEXTBEGIN
1070
    73
1070
     1
1070
    44
1040
1.0
1070
    74
1070
     0
1000
MTEXTEND
1000
MTEXTBEGIN
1070
    73
1070
     1
1070
    44
1040
1.0
1070
    74
1070
     0
1000
MTEXTEND
1000
MTEXTBEGIN
1070
    73
1070
     1
1070
    44
1040
1.0
1070
    74
1070
     0
1000
MTEXTEND
  0
TEXT
  5
24B9
330
1F
100
AcDbEntity
  8
SUNPO
 62
     7
100
AcDbText
 10
1222.884034082282
 20
2837.589368138303
 30
0.0
 40
36.0
  1
R50
 50
327.5148694564032
  7
ADD
100
AcDbText
1001
ACAD
1000
MTEXTBEGIN
1070
    73
1070
     1
1070
    44
1040
1.0
1070
    74
1070
     0
1000
MTEXTEND
1000
MTEXTBEGIN
1070
    73
1070
     1
1070
    44
1040
1.0
1070
    74
1070
     0
1000
MTEXTEND
1000
MTEXTBEGIN
1070
    73
1070
     1
1070
    44
1040
1.0
1070
    74
1070
     0
1000
MTEXTEND
1000
MTEXTBEGIN
1070
    73
1070
     1
1070
    44
1040
1.0
1070
    74
1070
     0
1000
MTEXTEND
1000
MTEXTBEGIN
1070
    73
1070
     1
1070
    44
1040
1.0
1070
    74
1070
     0
1000
MTEXTEND
  0
TEXT
  5
24BA
330
1F
100
AcDbEntity
  8
SUNPO
 62
     7
100
AcDbText
 10
3581.42857142857
 20
1962.5
 30
0.0
 40
36.0
  1
2000
  7
ADD
100
AcDbText
1001
ACAD
1000
MTEXTBEGIN
1070
    73
1070
     1
1070
    44
1040
1.0
1070
    74
1070
     0
1000
MTEXTEND
1000
MTEXTBEGIN
1070
    73
1070
     1
1070
    44
1040
1.0
1070
    74
1070
     0
1000
MTEXTEND
1000
MTEXTBEGIN
1070
    73
1070
     1
1070
    44
1040
1.0
1070
    74
1070
     0
1000
MTEXTEND
1000
MTEXTBEGIN
1070
    73
1070
     1
1070
    44
1040
1.0
1070
    74
1070
     0
1000
MTEXTEND
  0
VIEWPORT
  5
72
330
1B
100
AcDbEntity
 67
     1
  8
0
100
AcDbViewport
 10
645.8325449029127
 20
277.0
 30
0.0
 40
1380.967339805825
 41
628.4520000000001
 68
     2
 69
     1
1001
ACAD
1000
MVIEW
1002
{
1070
    16
1010
0.0
1020
0.0
1030
0.0
1010
0.0
1020
0.0
1030
1.0
1040
0.0
1040
628.4520000000001
1040
645.8325449029127
1040
277.0
1040
50.0
1040
0.0
1040
0.0
1070
     0
1070
   100
1070
     1
1070
     1
1070
     0
1070
     0
1070
     0
1070
     0
1040
0.0
1040
0.0
1040
0.0
1040
10.0
1040
10.0
1040
10.0
1040
10.0
1070
     0
1002
{
1002
}
1002
}
  0
VIEWPORT
  5
74
330
1B
100
AcDbEntity
 67
     1
  8
VIEWPORT
100
AcDbViewport
 10
414.3779638919211
 20
277.3177265058034
 30
0.0
 40
840.0353682728887
 41
567.2285469943826
 68
     1
 69
     2
1001
ACAD
1000
MVIEW
1002
{
1070
    16
1010
0.0
1020
0.0
1030
0.0
1010
0.0
1020
0.0
1030
1.0
1040
0.0
1040
579.5583043546323
1040
424.4938908624541
1040
286.1973242720074
1040
50.0
1040
0.0
1040
0.0
1070
     0
1070
   100
1070
     1
1070
     1
1070
     0
1070
     0
1070
     0
1070
     0
1040
0.0
1040
0.0
1040
0.0
1040
10.0
1040
10.0
1040
10.0
1040
10.0
1070
     0
1002
{
1002
}
1002
}
  0
ENDSEC
  0
SECTION
  2
OBJECTS
  0
DICTIONARY
  5
C
330
0
100
AcDbDictionary
  3
ACAD_GROUP
350
D
  3
ACAD_LAYOUT
350
1A
  3
ACAD_MLINESTYLE
350
17
  3
ACAD_PLOTSETTINGS
350
19
  3
DWGPROPS
350
4C7
1001
ACAD
1000
TREAT_AS_HARD
1070
     0
  0
DICTIONARY
  5
19D3
330
1F
100
AcDbDictionary
  3
ACAD_LAYOUTSELFREF
350
24BD
1001
ACAD
1000
TREAT_AS_HARD
1070
     1
  0
DICTIONARY
  5
19D5
330
1B
100
AcDbDictionary
  3
ACAD_LAYOUTSELFREF
350
24BC
1001
ACAD
1000
TREAT_AS_HARD
1070
     1
  0
DICTIONARY
  5
D
102
{ACAD_REACTORS
330
C
102
}
330
C
100
AcDbDictionary
1001
ACAD
1000
TREAT_AS_HARD
1070
     0
  0
DICTIONARY
  5
1A
102
{ACAD_REACTORS
330
C
102
}
330
C
100
AcDbDictionary
1001
ACAD
1000
TREAT_AS_HARD
1070
     0
  0
DICTIONARY
  5
17
102
{ACAD_REACTORS
330
C
102
}
330
C
100
AcDbDictionary
  3
STANDARD
350
18
1001
ACAD
1000
TREAT_AS_HARD
1070
     0
  0
DICTIONARY
  5
19
102
{ACAD_REACTORS
330
C
102
}
330
C
100
AcDbDictionary
1001
ACAD
1000
TREAT_AS_HARD
1070
     0
  0
XRECORD
  5
4C7
102
{ACAD_REACTORS
330
C
102
}
330
C
100
AcDbXrecord
  1
DWGPROPS COOKIE
  2
印刷用テスト
  3
AutoCAD2000による建築設計
  4
鈴木 裕二
  6

  7

  8
U2
  9

300
=
301
=
302
=
303
=
304
=
305
=
306
=
307
=
308
=
309
=
 40
0.7653446875
 41
2451285.4846114
 42
2451333.689743032
  1

 90
        0
  0
XRECORD
  5
24BD
102
{ACAD_REACTORS
330
19D3
102
}
330
19D3
100
AcDbXrecord
340
1F
  0
XRECORD
  5
24BC
102
{ACAD_REACTORS
330
19D5
102
}
330
19D5
100
AcDbXrecord
340
1B
  0
MLINESTYLE
  5
18
102
{ACAD_REACTORS
330
17
102
}
330
17
100
AcDbMlineStyle
  2
STANDARD
 70
     0
  3

 62
   256
 51
90.0
 52
90.0
 71
     2
 49
0.5
 62
   256
  6
BYLAYER
 49
-0.5
 62
   256
  6
BYLAYER
  0
ENDSEC
  0
EOF
