  0
SECTION
  2
HEADER
  9
$ACADVER
  1
AC1012
  9
$DWGCODEPAGE
  3
dos932
  9
$INSBASE
 10
0.0
 20
0.0
 30
0.0
  9
$EXTMIN
 10
0.0
 20
0.0
 30
0.0
  9
$EXTMAX
 10
5940.0
 20
4200.0
 30
0.0
  9
$LIMMIN
 10
0.0
 20
0.0
  9
$LIMMAX
 10
5940.0
 20
4200.0
  9
$ORTHOMODE
 70
     1
  9
$REGENMODE
 70
     1
  9
$FILLMODE
 70
     1
  9
$QTEXTMODE
 70
     0
  9
$MIRRTEXT
 70
     0
  9
$DRAGMODE
 70
     2
  9
$LTSCALE
 40
10.0
  9
$OSMODE
 70
    39
  9
$ATTMODE
 70
     1
  9
$TEXTSIZE
 40
50.0
  9
$TRACEWID
 40
1.0
  9
$TEXTSTYLE
  7
ADD
  9
$CLAYER
  8
SUNPO
  9
$CELTYPE
  6
BYLAYER
  9
$CECOLOR
 62
   256
  9
$CELTSCALE
 40
1.0
  9
$DELOBJ
 70
     1
  9
$DISPSILH
 70
     0
  9
$DIMSCALE
 40
20.0
  9
$DIMASZ
 40
1.399999999999999
  9
$DIMEXO
 40
1.0
  9
$DIMDLI
 40
7.0
  9
$DIMRND
 40
0.0
  9
$DIMDLE
 40
0.0
  9
$DIMEXE
 40
0.5
  9
$DIMTP
 40
0.0
  9
$DIMTM
 40
0.0
  9
$DIMTXT
 40
1.8
  9
$DIMCEN
 40
1.399999999999999
  9
$DIMTSZ
 40
0.0
  9
$DIMTOL
 70
     0
  9
$DIMLIM
 70
     0
  9
$DIMTIH
 70
     0
  9
$DIMTOH
 70
     0
  9
$DIMSE1
 70
     0
  9
$DIMSE2
 70
     0
  9
$DIMTAD
 70
     1
  9
$DIMZIN
 70
     8
  9
$DIMBLK
  1

  9
$DIMASO
 70
     1
  9
$DIMSHO
 70
     1
  9
$DIMPOST
  1

  9
$DIMAPOST
  1

  9
$DIMALT
 70
     0
  9
$DIMALTD
 70
     3
  9
$DIMALTF
 40
0.03937007874016
  9
$DIMLFAC
 40
1.0
  9
$DIMTOFL
 70
     1
  9
$DIMTVP
 40
0.7
  9
$DIMTIX
 70
     1
  9
$DIMSOXD
 70
     0
  9
$DIMSAH
 70
     0
  9
$DIMBLK1
  1

  9
$DIMBLK2
  1

  9
$DIMSTYLE
  2
ADD
  9
$DIMCLRD
 70
   144
  9
$DIMCLRE
 70
   144
  9
$DIMCLRT
 70
     7
  9
$DIMTFAC
 40
1.0
  9
$DIMGAP
 40
0.625
  9
$DIMJUST
 70
     0
  9
$DIMSD1
 70
     0
  9
$DIMSD2
 70
     0
  9
$DIMTOLJ
 70
     2
  9
$DIMTZIN
 70
     8
  9
$DIMALTZ
 70
     0
  9
$DIMALTTZ
 70
     0
  9
$DIMFIT
 70
     5
  9
$DIMUPT
 70
     0
  9
$DIMUNIT
 70
     2
  9
$DIMDEC
 70
     1
  9
$DIMTDEC
 70
     1
  9
$DIMALTU
 70
     2
  9
$DIMALTTD
 70
     3
  9
$DIMTXSTY
  7
ADD
  9
$DIMAUNIT
 70
     0
  9
$LUNITS
 70
     2
  9
$LUPREC
 70
     4
  9
$SKETCHINC
 40
1.0
  9
$FILLETRAD
 40
20.0
  9
$AUNITS
 70
     0
  9
$AUPREC
 70
     1
  9
$MENU
  1
.
  9
$ELEVATION
 40
0.0
  9
$PELEVATION
 40
0.0
  9
$THICKNESS
 40
0.0
  9
$LIMCHECK
 70
     0
  9
$BLIPMODE
 70
     0
  9
$CHAMFERA
 40
25.0
  9
$CHAMFERB
 40
25.0
  9
$CHAMFERC
 40
20.0
  9
$CHAMFERD
 40
0.0
  9
$SKPOLY
 70
     0
  9
$TDCREATE
 40
2451801.142532870
  9
$TDUPDATE
 40
2451857.922474884
  9
$TDINDWG
 40
0.4272195486
  9
$TDUSRTIMER
 40
0.4272195486
  9
$USRTIMER
 70
     1
  9
$ANGBASE
 50
0.0
  9
$ANGDIR
 70
     0
  9
$PDMODE
 70
     0
  9
$PDSIZE
 40
0.0
  9
$PLINEWID
 40
0.0
  9
$COORDS
 70
     2
  9
$SPLFRAME
 70
     0
  9
$SPLINETYPE
 70
     6
  9
$SPLINESEGS
 70
     8
  9
$ATTDIA
 70
     0
  9
$ATTREQ
 70
     1
  9
$HANDLING
 70
 10241
  9
$HANDSEED
  5
214E
  9
$SURFTAB1
 70
     6
  9
$SURFTAB2
 70
     6
  9
$SURFTYPE
 70
     6
  9
$SURFU
 70
     6
  9
$SURFV
 70
     6
  9
$UCSNAME
  2

  9
$UCSORG
 10
0.0
 20
0.0
 30
0.0
  9
$UCSXDIR
 10
1.0
 20
0.0
 30
0.0
  9
$UCSYDIR
 10
0.0
 20
1.0
 30
0.0
  9
$PUCSNAME
  2

  9
$PUCSORG
 10
0.0
 20
0.0
 30
0.0
  9
$PUCSXDIR
 10
1.0
 20
0.0
 30
0.0
  9
$PUCSYDIR
 10
0.0
 20
1.0
 30
0.0
  9
$USERI1
 70
     0
  9
$USERI2
 70
     0
  9
$USERI3
 70
     0
  9
$USERI4
 70
     0
  9
$USERI5
 70
     0
  9
$USERR1
 40
841.0
  9
$USERR2
 40
594.0
  9
$USERR3
 40
1.0
  9
$USERR4
 40
0.0
  9
$USERR5
 40
0.0
  9
$WORLDVIEW
 70
     1
  9
$SHADEDGE
 70
     3
  9
$SHADEDIF
 70
    70
  9
$TILEMODE
 70
     1
  9
$MAXACTVP
 70
    48
  9
$PINSBASE
 10
0.0
 20
0.0
 30
0.0
  9
$PLIMCHECK
 70
     0
  9
$PEXTMIN
 10
-5.639720244523232
 20
-6.296546991387913
 30
0.0
  9
$PEXTMAX
 10
834.3956480283654
 20
560.9320000029947
 30
0.0
  9
$PLIMMIN
 10
-7.500000000000001
 20
-20.0
  9
$PLIMMAX
 10
833.5000000000002
 20
574.0000000000001
  9
$UNITMODE
 70
     0
  9
$VISRETAIN
 70
     1
  9
$PLINEGEN
 70
     0
  9
$PSLTSCALE
 70
     1
  9
$TREEDEPTH
 70
  3020
  9
$PICKSTYLE
 70
     1
  9
$CMLSTYLE
  2
STANDARD
  9
$CMLJUST
 70
     0
  9
$CMLSCALE
 40
20.0
  9
$SAVEIMAGES
 70
     1
  0
ENDSEC
  0
SECTION
  2
CLASSES
  0
CLASS
  1
ACDBDICTIONARYWDFLT
  2
AcDbDictionaryWithDefault
  3
AutoCAD 2000
 90
    32768
280
     0
281
     0
  0
CLASS
  1
ACDBPLACEHOLDER
  2
AcDbPlaceHolder
  3
AutoCAD 2000
 90
    32768
280
     0
281
     0
  0
CLASS
  1
LAYOUT
  2
AcDbLayout
  3
AutoCAD 2000
 90
    32768
280
     0
281
     0
  0
CLASS
  1
RTEXT
  2
RText
  3
RText|AutoCAD Express Tool|expresstools@autodesk.com
 90
    32768
280
     0
281
     1
  0
CLASS
  1
DICTIONARYVAR
  2
AcDbDictionaryVar
  3
AutoCAD 2000
 90
    32768
280
     0
281
     0
  0
CLASS
  1
LONG_TRANSACTION
  2
AcDbLongTransaction
  3
AutoCAD 2000
 90
    32768
280
     0
281
     0
  0
CLASS
  1
LWPOLYLINE
  2
AcDbPolyline
  3
AutoCAD 2000
 90
    32768
280
     0
281
     1
  0
CLASS
  1
HATCH
  2
AcDbHatch
  3
AutoCAD 2000
 90
    32768
280
     0
281
     1
  0
CLASS
  1
XRECORD
  2
AcDbXrecord
  3
AutoCAD 2000
 90
    32768
280
     0
281
     0
  0
CLASS
  1
LONG_TRANSACTION
  2
AcDbLongTransaction
  3
AutoCAD 2000
 90
    32768
280
     0
281
     0
  0
CLASS
  1
LWPOLYLINE
  2
AcDbPolyline
  3
AutoCAD 2000
 90
    32768
280
     0
281
     1
  0
CLASS
  1
HATCH
  2
AcDbHatch
  3
AutoCAD 2000
 90
    32768
280
     0
281
     1
  0
CLASS
  1
XRECORD
  2
AcDbXrecord
  3
AutoCAD 2000
 90
    32768
280
     0
281
     0
  0
CLASS
  1
LONG_TRANSACTION
  2
AcDbLongTransaction
  3
AutoCAD 2000
 90
    32768
280
     0
281
     0
  0
CLASS
  1
LWPOLYLINE
  2
AcDbPolyline
  3
AutoCAD 2000
 90
    32768
280
     0
281
     1
  0
CLASS
  1
HATCH
  2
AcDbHatch
  3
AutoCAD 2000
 90
    32768
280
     0
281
     1
  0
CLASS
  1
XRECORD
  2
AcDbXrecord
  3
AutoCAD 2000
 90
    32768
280
     0
281
     0
  0
CLASS
  1
LONG_TRANSACTION
  2
AcDbLongTransaction
  3
AutoCAD 2000
 90
    32768
280
     0
281
     0
  0
CLASS
  1
LWPOLYLINE
  2
AcDbPolyline
  3
AutoCAD 2000
 90
    32768
280
     0
281
     1
  0
CLASS
  1
HATCH
  2
AcDbHatch
  3
AutoCAD 2000
 90
    32768
280
     0
281
     1
  0
CLASS
  1
XRECORD
  2
AcDbXrecord
  3
AutoCAD 2000
 90
    32768
280
     0
281
     0
  0
CLASS
  1
LONG_TRANSACTION
  2
AcDbLongTransaction
  3
AutoCAD 2000
 90
    32768
280
     0
281
     0
  0
CLASS
  1
LWPOLYLINE
  2
AcDbPolyline
  3
AutoCAD 2000
 90
    32768
280
     0
281
     1
  0
CLASS
  1
HATCH
  2
AcDbHatch
  3
AutoCAD 2000
 90
    32768
280
     0
281
     1
  0
CLASS
  1
XRECORD
  2
AcDbXrecord
  3
AutoCAD 2000
 90
    32768
280
     0
281
     0
  0
CLASS
  1
LONG_TRANSACTION
  2
AcDbLongTransaction
  3
AutoCAD 2000
 90
    32768
280
     0
281
     0
  0
CLASS
  1
LWPOLYLINE
  2
AcDbPolyline
  3
AutoCAD 2000
 90
    32768
280
     0
281
     1
  0
CLASS
  1
HATCH
  2
AcDbHatch
  3
AutoCAD 2000
 90
    32768
280
     0
281
     1
  0
CLASS
  1
XRECORD
  2
AcDbXrecord
  3
AutoCAD 2000
 90
    32768
280
     0
281
     0
  0
CLASS
  1
LONG_TRANSACTION
  2
AcDbLongTransaction
  3
AutoCAD 2000
 90
    32768
280
     0
281
     0
  0
CLASS
  1
LWPOLYLINE
  2
AcDbPolyline
  3
AutoCAD 2000
 90
    32768
280
     0
281
     1
  0
CLASS
  1
HATCH
  2
AcDbHatch
  3
AutoCAD 2000
 90
    32768
280
     0
281
     1
  0
CLASS
  1
XRECORD
  2
AcDbXrecord
  3
AutoCAD 2000
 90
    32768
280
     0
281
     0
  0
CLASS
  1
LONG_TRANSACTION
  2
AcDbLongTransaction
  3
AutoCAD 2000
 90
    32768
280
     0
281
     0
  0
CLASS
  1
LWPOLYLINE
  2
AcDbPolyline
  3
AutoCAD 2000
 90
    32768
280
     0
281
     1
  0
CLASS
  1
HATCH
  2
AcDbHatch
  3
AutoCAD 2000
 90
    32768
280
     0
281
     1
  0
CLASS
  1
XRECORD
  2
AcDbXrecord
  3
AutoCAD 2000
 90
    32768
280
     0
281
     0
  0
CLASS
  1
LONG_TRANSACTION
  2
AcDbLongTransaction
  3
AutoCAD 2000
 90
    32768
280
     0
281
     0
  0
CLASS
  1
LWPOLYLINE
  2
AcDbPolyline
  3
AutoCAD 2000
 90
    32768
280
     0
281
     1
  0
CLASS
  1
HATCH
  2
AcDbHatch
  3
AutoCAD 2000
 90
    32768
280
     0
281
     1
  0
CLASS
  1
XRECORD
  2
AcDbXrecord
  3
AutoCAD 2000
 90
    32768
280
     0
281
     0
  0
CLASS
  1
LONG_TRANSACTION
  2
AcDbLongTransaction
  3
AutoCAD 2000
 90
    32768
280
     0
281
     0
  0
CLASS
  1
LWPOLYLINE
  2
AcDbPolyline
  3
AutoCAD 2000
 90
    32768
280
     0
281
     1
  0
CLASS
  1
HATCH
  2
AcDbHatch
  3
AutoCAD 2000
 90
    32768
280
     0
281
     1
  0
CLASS
  1
XRECORD
  2
AcDbXrecord
  3
AutoCAD 2000
 90
    32768
280
     0
281
     0
  0
CLASS
  1
LONG_TRANSACTION
  2
AcDbLongTransaction
  3
AutoCAD 2000
 90
    32768
280
     0
281
     0
  0
CLASS
  1
LWPOLYLINE
  2
AcDbPolyline
  3
AutoCAD 2000
 90
    32768
280
     0
281
     1
  0
CLASS
  1
HATCH
  2
AcDbHatch
  3
AutoCAD 2000
 90
    32768
280
     0
281
     1
  0
CLASS
  1
XRECORD
  2
AcDbXrecord
  3
AutoCAD 2000
 90
    32768
280
     0
281
     0
  0
CLASS
  1
LONG_TRANSACTION
  2
AcDbLongTransaction
  3
AutoCAD 2000
 90
    32768
280
     0
281
     0
  0
CLASS
  1
LWPOLYLINE
  2
AcDbPolyline
  3
AutoCAD 2000
 90
    32768
280
     0
281
     1
  0
CLASS
  1
HATCH
  2
AcDbHatch
  3
AutoCAD 2000
 90
    32768
280
     0
281
     1
  0
CLASS
  1
XRECORD
  2
AcDbXrecord
  3
AutoCAD 2000
 90
    32768
280
     0
281
     0
  0
CLASS
  1
LONG_TRANSACTION
  2
AcDbLongTransaction
  3
AutoCAD 2000
 90
    32768
280
     0
281
     0
  0
CLASS
  1
LWPOLYLINE
  2
AcDbPolyline
  3
AutoCAD 2000
 90
    32768
280
     0
281
     1
  0
CLASS
  1
HATCH
  2
AcDbHatch
  3
AutoCAD 2000
 90
    32768
280
     0
281
     1
  0
CLASS
  1
XRECORD
  2
AcDbXrecord
  3
AutoCAD 2000
 90
    32768
280
     0
281
     0
  0
CLASS
  1
LONG_TRANSACTION
  2
AcDbLongTransaction
  3
AutoCAD 2000
 90
    32768
280
     0
281
     0
  0
CLASS
  1
LWPOLYLINE
  2
AcDbPolyline
  3
AutoCAD 2000
 90
    32768
280
     0
281
     1
  0
CLASS
  1
HATCH
  2
AcDbHatch
  3
AutoCAD 2000
 90
    32768
280
     0
281
     1
  0
CLASS
  1
XRECORD
  2
AcDbXrecord
  3
AutoCAD 2000
 90
    32768
280
     0
281
     0
  0
CLASS
  1
LONG_TRANSACTION
  2
AcDbLongTransaction
  3
AutoCAD 2000
 90
    32768
280
     0
281
     0
  0
CLASS
  1
LWPOLYLINE
  2
AcDbPolyline
  3
AutoCAD 2000
 90
    32768
280
     0
281
     1
  0
CLASS
  1
HATCH
  2
AcDbHatch
  3
AutoCAD 2000
 90
    32768
280
     0
281
     1
  0
CLASS
  1
XRECORD
  2
AcDbXrecord
  3
AutoCAD 2000
 90
    32768
280
     0
281
     0
  0
ENDSEC
  0
SECTION
  2
TABLES
  0
TABLE
  2
VPORT
  5
8
330
0
100
AcDbSymbolTable
 70
     2
  0
VPORT
  5
213E
330
8
100
AcDbSymbolTableRecord
100
AcDbViewportTableRecord
  2
*ACTIVE
 70
     0
 10
0.0
 20
0.0
 11
1.0
 21
1.0
 12
2970.000013830139
 22
2315.861655865738
 13
0.0
 23
0.0
 14
50.0
 24
50.0
 15
10.0
 25
10.0
 16
0.0
 26
0.0
 36
1.0
 17
0.0
 27
0.0
 37
0.0
 40
4719.182193760837
 41
2.198738170347003
 42
50.0
 43
0.0
 44
0.0
 50
0.0
 51
0.0
 71
     0
 72
   200
 73
     1
 74
     1
 75
     0
 76
     0
 77
     0
 78
     0
  0
ENDTAB
  0
TABLE
  2
LTYPE
  5
5
330
0
100
AcDbSymbolTable
 70
     5
  0
LTYPE
  5
14
330
5
100
AcDbSymbolTableRecord
100
AcDbLinetypeTableRecord
  2
BYBLOCK
 70
     0
  3

 72
    65
 73
     0
 40
0.0
  0
LTYPE
  5
15
330
5
100
AcDbSymbolTableRecord
100
AcDbLinetypeTableRecord
  2
BYLAYER
 70
     0
  3

 72
    65
 73
     0
 40
0.0
  0
LTYPE
  5
16
330
5
100
AcDbSymbolTableRecord
100
AcDbLinetypeTableRecord
  2
CONTINUOUS
 70
     0
  3
Solid line
 72
    65
 73
     0
 40
0.0
  0
LTYPE
  5
555
330
5
100
AcDbSymbolTableRecord
100
AcDbLinetypeTableRecord
  2
CENTER
 70
     0
  3
Center ____ _ ____ _ ____ _ ____ _ ____ _ ____
 72
    65
 73
     4
 40
50.8
 49
31.75
 74
     0
 49
-6.349999999999999
 74
     0
 49
6.349999999999999
 74
     0
 49
-6.349999999999999
 74
     0
  0
LTYPE
  5
556
330
5
100
AcDbSymbolTableRecord
100
AcDbLinetypeTableRecord
  2
HIDDEN
 70
     0
  3
Hidden __ __ __ __ __ __ __ __ __ __ __ __ __ _
 72
    65
 73
     2
 40
9.524999999999998
 49
6.349999999999999
 74
     0
 49
-3.174999999999999
 74
     0
  0
LTYPE
  5
557
330
5
100
AcDbSymbolTableRecord
100
AcDbLinetypeTableRecord
  2
HIDDEN2
 70
     0
  3
Hidden (.5x) _ _ _ _ _ _ _ _ _ _ _ _ _ _ _ _ _
 72
    65
 73
     2
 40
4.762499999999999
 49
3.174999999999999
 74
     0
 49
-1.587499999999999
 74
     0
  0
LTYPE
  5
558
330
5
100
AcDbSymbolTableRecord
100
AcDbLinetypeTableRecord
  2
PHANTOM
 70
     0
  3
Phantom ______  __  __  ______  __  __  ______
 72
    65
 73
     6
 40
63.5
 49
31.75
 74
     0
 49
-6.349999999999999
 74
     0
 49
6.349999999999999
 74
     0
 49
-6.349999999999999
 74
     0
 49
6.349999999999999
 74
     0
 49
-6.349999999999999
 74
     0
  0
ENDTAB
  0
TABLE
  2
LAYER
  5
2
330
0
100
AcDbSymbolTable
 70
    22
  0
LAYER
  5
10
330
2
100
AcDbSymbolTableRecord
100
AcDbLayerTableRecord
  2
0
 70
     0
 62
     7
  6
CONTINUOUS
  0
LAYER
  5
75
330
2
100
AcDbSymbolTableRecord
100
AcDbLayerTableRecord
  2
VIEWPORT
 70
     0
 62
     1
  6
CONTINUOUS
  0
LAYER
  5
504
330
2
100
AcDbSymbolTableRecord
100
AcDbLayerTableRecord
  2
DEFPOINTS
 70
     0
 62
     7
  6
CONTINUOUS
  0
LAYER
  5
505
330
2
100
AcDbSymbolTableRecord
100
AcDbLayerTableRecord
  2
1C1
 70
     0
 62
   254
  6
CONTINUOUS
  0
LAYER
  5
506
330
2
100
AcDbSymbolTableRecord
100
AcDbLayerTableRecord
  2
1C2
 70
     0
 62
   254
  6
CONTINUOUS
  0
LAYER
  5
507
330
2
100
AcDbSymbolTableRecord
100
AcDbLayerTableRecord
  2
2C1
 70
     0
 62
   144
  6
CONTINUOUS
  0
LAYER
  5
508
330
2
100
AcDbSymbolTableRecord
100
AcDbLayerTableRecord
  2
2C2
 70
     0
 62
   144
  6
CONTINUOUS
  0
LAYER
  5
509
330
2
100
AcDbSymbolTableRecord
100
AcDbLayerTableRecord
  2
2H1
 70
     0
 62
   144
  6
HIDDEN
  0
LAYER
  5
50A
330
2
100
AcDbSymbolTableRecord
100
AcDbLayerTableRecord
  2
2H2
 70
     0
 62
   144
  6
HIDDEN2
  0
LAYER
  5
50B
330
2
100
AcDbSymbolTableRecord
100
AcDbLayerTableRecord
  2
2P1
 70
     0
 62
   144
  6
PHANTOM
  0
LAYER
  5
50C
330
2
100
AcDbSymbolTableRecord
100
AcDbLayerTableRecord
  2
3C1
 70
     0
 62
     7
  6
CONTINUOUS
  0
LAYER
  5
50D
330
2
100
AcDbSymbolTableRecord
100
AcDbLayerTableRecord
  2
3C2
 70
     0
 62
     7
  6
CONTINUOUS
  0
LAYER
  5
50E
330
2
100
AcDbSymbolTableRecord
100
AcDbLayerTableRecord
  2
3C3
 70
     0
 62
     7
  6
CONTINUOUS
  0
LAYER
  5
50F
330
2
100
AcDbSymbolTableRecord
100
AcDbLayerTableRecord
  2
4H1
 70
     0
 62
     6
  6
HIDDEN
  0
LAYER
  5
510
330
2
100
AcDbSymbolTableRecord
100
AcDbLayerTableRecord
  2
4H2
 70
     0
 62
     6
  6
HIDDEN2
  0
LAYER
  5
511
330
2
100
AcDbSymbolTableRecord
100
AcDbLayerTableRecord
  2
5C1
 70
     0
 62
    55
  6
CONTINUOUS
  0
LAYER
  5
512
330
2
100
AcDbSymbolTableRecord
100
AcDbLayerTableRecord
  2
5C2
 70
     0
 62
    55
  6
CONTINUOUS
  0
LAYER
  5
513
330
2
100
AcDbSymbolTableRecord
100
AcDbLayerTableRecord
  2
8C1
 70
     0
 62
    92
  6
CONTINUOUS
  0
LAYER
  5
514
330
2
100
AcDbSymbolTableRecord
100
AcDbLayerTableRecord
  2
HOJO
 70
     0
 62
     5
  6
CONTINUOUS
  0
LAYER
  5
515
330
2
100
AcDbSymbolTableRecord
100
AcDbLayerTableRecord
  2
KIJUN
 70
     0
 62
     1
  6
CENTER
  0
LAYER
  5
516
330
2
100
AcDbSymbolTableRecord
100
AcDbLayerTableRecord
  2
MOJI
 70
     0
 62
     7
  6
CONTINUOUS
  0
LAYER
  5
517
330
2
100
AcDbSymbolTableRecord
100
AcDbLayerTableRecord
  2
SUNPO
 70
     0
 62
   144
  6
CONTINUOUS
  0
ENDTAB
  0
TABLE
  2
STYLE
  5
3
330
0
100
AcDbSymbolTable
 70
     6
  0
STYLE
  5
11
330
3
100
AcDbSymbolTableRecord
100
AcDbTextStyleTableRecord
  2
STANDARD
 70
     0
 40
0.0
 41
1.0
 50
0.0
 71
     0
 42
2.5
  3
txt
  4

  0
STYLE
  5
2C
330
3
100
AcDbSymbolTableRecord
100
AcDbTextStyleTableRecord
  2

 70
     1
 40
0.0
 41
1.0
 50
0.0
 71
     0
 42
2.5
  3
ltypeshp.shx
  4

  0
STYLE
  5
18E
330
3
100
AcDbSymbolTableRecord
100
AcDbTextStyleTableRecord
  2
ADD
 70
     0
 40
0.0
 41
1.0
 50
0.0
 71
     0
 42
50.0
  3
romans.shx
  4
bigfont.shx
  0
STYLE
  5
191
330
3
100
AcDbSymbolTableRecord
100
AcDbTextStyleTableRecord
  2
MSG
 70
     0
 40
0.0
 41
1.0
 50
0.0
 71
     0
 42
2.5
  3
MS Gothic.ttf
  4

1001
ACAD
1000
MS Gothic
1071
    32817
  0
STYLE
  5
5C8
330
3
100
AcDbSymbolTableRecord
100
AcDbTextStyleTableRecord
  2
STANDARD15
 70
     0
 40
0.0
 41
1.0
 50
15.0
 71
     0
 42
2.5
  3
ROMANS
  4
bigfont
  0
STYLE
  5
5C9
330
3
100
AcDbSymbolTableRecord
100
AcDbTextStyleTableRecord
  2
ROMANS15
 70
     0
 40
0.0
 41
1.0
 50
15.0
 71
     0
 42
2.5
  3
romans
  4

  0
ENDTAB
  0
TABLE
  2
VIEW
  5
6
330
0
100
AcDbSymbolTable
 70
     1
  0
VIEW
  5
54D
330
6
100
AcDbSymbolTableRecord
100
AcDbViewTableRecord
  2
ALL
 70
     0
 40
594.0
 10
420.5
 20
297.0
 41
865.125
 11
0.0
 21
0.0
 31
1.0
 12
0.0
 22
0.0
 32
0.0
 42
50.0
 43
0.0
 44
0.0
 50
0.0
 71
     0
  0
ENDTAB
  0
TABLE
  2
UCS
  5
7
330
0
100
AcDbSymbolTable
 70
     0
  0
ENDTAB
  0
TABLE
  2
APPID
  5
9
330
0
100
AcDbSymbolTable
 70
     4
  0
APPID
  5
12
330
9
100
AcDbSymbolTableRecord
100
AcDbRegAppTableRecord
  2
ACAD
 70
     0
  0
APPID
  5
5CB
330
9
100
AcDbSymbolTableRecord
100
AcDbRegAppTableRecord
  2
ARAIGUMI_YOHEKI
 70
     0
  0
APPID
  5
5CC
330
9
100
AcDbSymbolTableRecord
100
AcDbRegAppTableRecord
  2
CONTENTTABDATA
 70
     0
  0
APPID
  5
5CD
330
9
100
AcDbSymbolTableRecord
100
AcDbRegAppTableRecord
  2
CONTENTCURRENTTAB
 70
     0
  0
ENDTAB
  0
TABLE
  2
DIMSTYLE
  5
A
330
0
100
AcDbSymbolTable
 70
    10
  0
DIMSTYLE
105
27
330
A
100
AcDbSymbolTableRecord
100
AcDbDimStyleTableRecord
  2
ISO-25
 70
     0
  3

  4

  5

  6

  7

 40
1.0
 41
2.5
 42
0.625
 43
3.75
 44
1.25
 45
0.0
 46
0.0
 47
0.0
 48
0.0
140
2.5
141
2.5
142
0.0
143
0.03937007874016
144
1.0
145
0.0
146
1.0
147
0.625
 71
     0
 72
     0
 73
     0
 74
     0
 75
     0
 76
     0
 77
     1
 78
     8
170
     0
171
     3
172
     1
173
     0
174
     0
175
     0
176
     0
177
     0
178
     0
270
     2
271
     2
272
     2
273
     2
274
     3
340
11
275
     0
280
     0
281
     0
282
     0
283
     0
284
     8
285
     0
286
     0
287
     3
288
     0
  0
DIMSTYLE
105
197
330
A
100
AcDbSymbolTableRecord
100
AcDbDimStyleTableRecord
  2
ADD
 70
     0
  3

  4

  5

  6

  7

 40
1.0
 41
2.5
 42
1.0
 43
7.0
 44
0.5
 45
0.0
 46
0.0
 47
0.0
 48
0.0
140
2.5
141
2.5
142
0.0
143
0.03937007874016
144
1.0
145
0.7
146
1.0
147
0.625
 71
     0
 72
     0
 73
     0
 74
     0
 75
     0
 76
     0
 77
     1
 78
     8
170
     0
171
     3
172
     1
173
     0
174
     1
175
     0
176
   144
177
   144
178
     7
270
     2
271
     1
272
     1
273
     2
274
     3
340
18E
275
     0
280
     0
281
     0
282
     0
283
     2
284
     8
285
     0
286
     0
287
     5
288
     0
  0
DIMSTYLE
105
3E6
330
A
100
AcDbSymbolTableRecord
100
AcDbDimStyleTableRecord
  2
ADD$2
 70
     0
  3

  4

  5

  6

  7

 40
1.0
 41
2.5
 42
1.0
 43
7.0
 44
0.5
 45
0.0
 46
0.0
 47
0.0
 48
0.0
140
2.5
141
2.5
142
0.0
143
0.03937007874016
144
1.0
145
0.7
146
1.0
147
0.625
 71
     0
 72
     0
 73
     0
 74
     0
 75
     0
 76
     0
 77
     1
 78
     8
170
     0
171
     3
172
     1
173
     0
174
     1
175
     0
176
   144
177
   144
178
     7
270
     2
271
     1
272
     1
273
     2
274
     3
340
18E
275
     0
280
     0
281
     0
282
     0
283
     2
284
     8
285
     0
286
     0
287
     5
288
     0
  0
DIMSTYLE
105
3E7
102
{ACAD_REACTORS
330
1E24
330
170C
330
16CD
330
16C3
330
16AA
102
}
330
A
100
AcDbSymbolTableRecord
100
AcDbDimStyleTableRecord
  2
ADD$4
 70
     0
  3

  4

  5

  6

  7

 40
1.0
 41
2.5
 42
1.0
 43
7.0
 44
0.5
 45
0.0
 46
0.0
 47
0.0
 48
0.0
140
2.5
141
2.5
142
0.0
143
0.03937007874016
144
1.0
145
0.0
146
1.0
147
0.625
 71
     0
 72
     0
 73
     0
 74
     0
 75
     0
 76
     0
 77
     1
 78
     8
170
     0
171
     3
172
     1
173
     0
174
     1
175
     0
176
   144
177
   144
178
     7
270
     2
271
     1
272
     1
273
     2
274
     3
340
18E
275
     0
280
     0
281
     0
282
     0
283
     2
284
     8
285
     0
286
     0
287
     5
288
     0
  0
DIMSTYLE
105
3E8
330
A
100
AcDbSymbolTableRecord
100
AcDbDimStyleTableRecord
  2
ADD$3
 70
     0
  3

  4

  5

  6

  7

 40
1.0
 41
2.5
 42
1.0
 43
7.0
 44
0.5
 45
0.0
 46
0.0
 47
0.0
 48
0.0
140
2.5
141
2.5
142
0.0
143
0.03937007874016
144
1.0
145
0.0
146
1.0
147
0.625
 71
     0
 72
     0
 73
     0
 74
     0
 75
     0
 76
     0
 77
     1
 78
     8
170
     0
171
     3
172
     1
173
     0
174
     1
175
     0
176
   144
177
   144
178
     7
270
     2
271
     1
272
     1
273
     2
274
     3
340
18E
275
     0
280
     0
281
     0
282
     0
283
     2
284
     8
285
     0
286
     0
287
     5
288
     0
  0
DIMSTYLE
105
3E9
330
A
100
AcDbSymbolTableRecord
100
AcDbDimStyleTableRecord
  2
ADD$6
 70
     0
  3

  4

  5

  6

  7

 40
1.0
 41
2.5
 42
1.0
 43
7.0
 44
0.5
 45
0.0
 46
0.0
 47
0.0
 48
0.0
140
2.5
141
2.5
142
0.0
143
0.03937007874016
144
1.0
145
0.0
146
1.0
147
0.625
 71
     0
 72
     0
 73
     0
 74
     0
 75
     0
 76
     0
 77
     1
 78
     8
170
     0
171
     3
172
     1
173
     0
174
     1
175
     0
176
   144
177
   144
178
     7
270
     2
271
     1
272
     1
273
     2
274
     3
340
18E
275
     0
280
     0
281
     0
282
     0
283
     2
284
     8
285
     0
286
     0
287
     5
288
     0
  0
DIMSTYLE
105
3EA
330
A
100
AcDbSymbolTableRecord
100
AcDbDimStyleTableRecord
  2
ADD$7
 70
     0
  3

  4

  5

  6

  7

 40
1.0
 41
2.5
 42
1.0
 43
7.0
 44
0.5
 45
0.0
 46
0.0
 47
0.0
 48
0.0
140
2.5
141
2.5
142
0.0
143
0.03937007874016
144
1.0
145
0.0
146
1.0
147
0.625
 71
     0
 72
     0
 73
     0
 74
     0
 75
     0
 76
     0
 77
     0
 78
     8
170
     0
171
     3
172
     1
173
     0
174
     1
175
     0
176
   144
177
   144
178
     7
270
     2
271
     1
272
     1
273
     2
274
     3
340
18E
275
     0
280
     0
281
     0
282
     0
283
     2
284
     8
285
     0
286
     0
287
     5
288
     0
  0
DIMSTYLE
105
518
330
A
100
AcDbSymbolTableRecord
100
AcDbDimStyleTableRecord
  2
STANDARD
 70
     0
  3

  4

  5

  6

  7

 40
1.0
 41
0.18
 42
0.0625
 43
0.38
 44
0.18
 45
0.0
 46
0.0
 47
0.0
 48
0.0
140
0.18
141
0.09
142
0.0
143
25.4
144
1.0
145
0.0
146
1.0
147
0.09
 71
     0
 72
     0
 73
     1
 74
     1
 75
     0
 76
     0
 77
     0
 78
     0
170
     0
171
     2
172
     0
173
     0
174
     0
175
     0
176
     0
177
     0
178
     0
270
     2
271
     4
272
     4
273
     2
274
     2
340
11
275
     0
280
     0
281
     0
282
     0
283
     1
284
     0
285
     0
286
     0
287
     3
288
     0
  0
DIMSTYLE
105
550
102
{ACAD_REACTORS
330
1EB0
330
1941
330
1932
330
1923
330
18F6
330
17BD
330
17B0
330
17A3
330
1771
330
168D
330
167E
330
1671
330
1655
330
1614
330
15E1
330
1549
330
12B0
330
12A3
330
1296
330
1289
330
127C
330
1262
330
1253
330
1246
330
1239
102
}
330
A
100
AcDbSymbolTableRecord
100
AcDbDimStyleTableRecord
  2
ADD$0
 70
     0
  3

  4

  5

  6

  7

 40
1.0
 41
2.2
 42
1.0
 43
7.0
 44
0.5
 45
0.0
 46
0.0
 47
0.0
 48
0.0
140
2.5
141
2.5
142
0.0
143
0.03937007874016
144
1.0
145
0.7
146
1.0
147
0.625
 71
     0
 72
     0
 73
     0
 74
     0
 75
     0
 76
     0
 77
     1
 78
     8
170
     0
171
     3
172
     1
173
     0
174
     1
175
     0
176
   144
177
   144
178
     7
270
     2
271
     1
272
     1
273
     2
274
     3
340
18E
275
     0
280
     0
281
     0
282
     0
283
     2
284
     8
285
     0
286
     0
287
     5
288
     0
  0
DIMSTYLE
105
59B
330
A
100
AcDbSymbolTableRecord
100
AcDbDimStyleTableRecord
  2
ADD_M
 70
     0
  3

  4

  5

  6

  7

 40
1.0
 41
2.5
 42
1.0
 43
7.0
 44
0.5
 45
0.0
 46
0.0
 47
0.0
 48
0.0
140
2.5
141
2.5
142
0.0
143
0.03937007874016
144
1.0
145
0.7
146
1.0
147
0.625
 71
     0
 72
     0
 73
     0
 74
     0
 75
     0
 76
     0
 77
     1
 78
     8
170
     0
171
     3
172
     1
173
     0
174
     1
175
     0
176
   144
177
   144
178
     7
270
     2
271
     1
272
     1
273
     2
274
     3
340
18E
275
     0
280
     0
281
     0
282
     0
283
     2
284
     8
285
     0
286
     0
287
     5
288
     0
  0
ENDTAB
  0
TABLE
  2
BLOCK_RECORD
  5
1
330
0
100
AcDbSymbolTable
 70
    35
  0
BLOCK_RECORD
  5
1F
102
{ACAD_XDICTIONARY
360
1873
102
}
330
1
100
AcDbSymbolTableRecord
100
AcDbBlockTableRecord
  2
*MODEL_SPACE
  0
BLOCK_RECORD
  5
1B
102
{ACAD_XDICTIONARY
360
1875
102
}
330
1
100
AcDbSymbolTableRecord
100
AcDbBlockTableRecord
  2
*PAPER_SPACE
  0
BLOCK_RECORD
  5
192
330
1
100
AcDbSymbolTableRecord
100
AcDbBlockTableRecord
  2
_DOT
  0
BLOCK_RECORD
  5
5CE
330
1
100
AcDbSymbolTableRecord
100
AcDbBlockTableRecord
  2
A4
  0
BLOCK_RECORD
  5
636
330
1
100
AcDbSymbolTableRecord
100
AcDbBlockTableRecord
  2
_OPEN90
  0
BLOCK_RECORD
  5
63C
330
1
100
AcDbSymbolTableRecord
100
AcDbBlockTableRecord
  2
_OPEN30
  0
BLOCK_RECORD
  5
FDC
330
1
100
AcDbSymbolTableRecord
100
AcDbBlockTableRecord
  2
_DATUMFILLED
  0
BLOCK_RECORD
  5
123A
330
1
100
AcDbSymbolTableRecord
100
AcDbBlockTableRecord
  2
*D5
  0
BLOCK_RECORD
  5
1247
330
1
100
AcDbSymbolTableRecord
100
AcDbBlockTableRecord
  2
*D6
  0
BLOCK_RECORD
  5
1254
330
1
100
AcDbSymbolTableRecord
100
AcDbBlockTableRecord
  2
*D7
  0
BLOCK_RECORD
  5
1263
330
1
100
AcDbSymbolTableRecord
100
AcDbBlockTableRecord
  2
*D8
  0
BLOCK_RECORD
  5
127D
330
1
100
AcDbSymbolTableRecord
100
AcDbBlockTableRecord
  2
*D9
  0
BLOCK_RECORD
  5
128A
330
1
100
AcDbSymbolTableRecord
100
AcDbBlockTableRecord
  2
*D10
  0
BLOCK_RECORD
  5
1297
330
1
100
AcDbSymbolTableRecord
100
AcDbBlockTableRecord
  2
*D11
  0
BLOCK_RECORD
  5
12A4
330
1
100
AcDbSymbolTableRecord
100
AcDbBlockTableRecord
  2
*D12
  0
BLOCK_RECORD
  5
12B1
330
1
100
AcDbSymbolTableRecord
100
AcDbBlockTableRecord
  2
*D13
  0
BLOCK_RECORD
  5
154A
330
1
100
AcDbSymbolTableRecord
100
AcDbBlockTableRecord
  2
*D14
  0
BLOCK_RECORD
  5
15E2
330
1
100
AcDbSymbolTableRecord
100
AcDbBlockTableRecord
  2
*D15
  0
BLOCK_RECORD
  5
1615
330
1
100
AcDbSymbolTableRecord
100
AcDbBlockTableRecord
  2
*D16
  0
BLOCK_RECORD
  5
1656
330
1
100
AcDbSymbolTableRecord
100
AcDbBlockTableRecord
  2
*D17
  0
BLOCK_RECORD
  5
1672
330
1
100
AcDbSymbolTableRecord
100
AcDbBlockTableRecord
  2
*D18
  0
BLOCK_RECORD
  5
167F
330
1
100
AcDbSymbolTableRecord
100
AcDbBlockTableRecord
  2
*D19
  0
BLOCK_RECORD
  5
168E
330
1
100
AcDbSymbolTableRecord
100
AcDbBlockTableRecord
  2
*D20
  0
BLOCK_RECORD
  5
16AB
330
1
100
AcDbSymbolTableRecord
100
AcDbBlockTableRecord
  2
*D21
  0
BLOCK_RECORD
  5
16C4
330
1
100
AcDbSymbolTableRecord
100
AcDbBlockTableRecord
  2
*D22
  0
BLOCK_RECORD
  5
16CE
330
1
100
AcDbSymbolTableRecord
100
AcDbBlockTableRecord
  2
*D23
  0
BLOCK_RECORD
  5
170D
330
1
100
AcDbSymbolTableRecord
100
AcDbBlockTableRecord
  2
*D24
  0
BLOCK_RECORD
  5
1772
330
1
100
AcDbSymbolTableRecord
100
AcDbBlockTableRecord
  2
*D25
  0
BLOCK_RECORD
  5
17A4
330
1
100
AcDbSymbolTableRecord
100
AcDbBlockTableRecord
  2
*D26
  0
BLOCK_RECORD
  5
17B1
330
1
100
AcDbSymbolTableRecord
100
AcDbBlockTableRecord
  2
*D27
  0
BLOCK_RECORD
  5
17BE
330
1
100
AcDbSymbolTableRecord
100
AcDbBlockTableRecord
  2
*D28
  0
BLOCK_RECORD
  5
18F7
330
1
100
AcDbSymbolTableRecord
100
AcDbBlockTableRecord
  2
*D29
  0
BLOCK_RECORD
  5
1924
330
1
100
AcDbSymbolTableRecord
100
AcDbBlockTableRecord
  2
*D30
  0
BLOCK_RECORD
  5
1933
330
1
100
AcDbSymbolTableRecord
100
AcDbBlockTableRecord
  2
*D31
  0
BLOCK_RECORD
  5
1942
330
1
100
AcDbSymbolTableRecord
100
AcDbBlockTableRecord
  2
*D32
  0
BLOCK_RECORD
  5
1E25
330
1
100
AcDbSymbolTableRecord
100
AcDbBlockTableRecord
  2
*D33
  0
BLOCK_RECORD
  5
1EB1
330
1
100
AcDbSymbolTableRecord
100
AcDbBlockTableRecord
  2
*D34
  0
ENDTAB
  0
ENDSEC
  0
SECTION
  2
BLOCKS
  0
BLOCK
  5
20
330
1F
100
AcDbEntity
  8
0
100
AcDbBlockBegin
  2
*MODEL_SPACE
 70
     0
 10
0.0
 20
0.0
 30
0.0
  3
*MODEL_SPACE
  1

  0
ENDBLK
  5
21
330
1F
100
AcDbEntity
  8
0
100
AcDbBlockEnd
  0
BLOCK
  5
1C
330
1B
100
AcDbEntity
 67
     1
  8
0
100
AcDbBlockBegin
  2
*PAPER_SPACE
 70
     0
 10
0.0
 20
0.0
 30
0.0
  3
*PAPER_SPACE
  1

  0
ENDBLK
  5
1D
330
1B
100
AcDbEntity
 67
     1
  8
0
100
AcDbBlockEnd
  0
BLOCK
  5
195
330
192
100
AcDbEntity
  8
0
100
AcDbBlockBegin
  2
_DOT
 70
     0
 10
0.0
 20
0.0
 30
0.0
  3
_DOT
  1

  0
POLYLINE
  5
193
330
192
100
AcDbEntity
  8
0
 62
     0
100
AcDb2dPolyline
 66
     1
 10
0.0
 20
0.0
 30
0.0
 70
     1
 40
0.5
 41
0.5
  0
VERTEX
  5
2141
330
193
100
AcDbEntity
  8
0
 62
     0
100
AcDbVertex
100
AcDb2dVertex
 10
-0.25
 20
0.0
 30
0.0
 42
1.0
  0
VERTEX
  5
2142
330
193
100
AcDbEntity
  8
0
 62
     0
100
AcDbVertex
100
AcDb2dVertex
 10
0.25
 20
0.0
 30
0.0
 42
1.0
  0
SEQEND
  5
2143
330
193
100
AcDbEntity
  8
0
 62
     0
  0
LINE
  5
194
330
192
100
AcDbEntity
  8
0
 62
     0
100
AcDbLine
 10
-0.5
 20
0.0
 30
0.0
 11
-1.0
 21
0.0
 31
0.0
  0
ENDBLK
  5
196
330
192
100
AcDbEntity
  8
0
100
AcDbBlockEnd
  0
BLOCK
  5
5D1
330
5CE
100
AcDbEntity
  8
0
100
AcDbBlockBegin
  2
A4
 70
     0
 10
0.0
 20
0.0
 30
0.0
  3
A4
  1

  0
POLYLINE
  5
5CF
330
5CE
100
AcDbEntity
  8
HOJO
100
AcDb2dPolyline
 66
     1
 10
0.0
 20
0.0
 30
0.0
 70
     1
  0
VERTEX
  5
2144
330
5CF
100
AcDbEntity
  8
HOJO
100
AcDbVertex
100
AcDb2dVertex
 10
0.0
 20
0.0
 30
0.0
  0
VERTEX
  5
2145
330
5CF
100
AcDbEntity
  8
HOJO
100
AcDbVertex
100
AcDb2dVertex
 10
297.0
 20
0.0
 30
0.0
  0
VERTEX
  5
2146
330
5CF
100
AcDbEntity
  8
HOJO
100
AcDbVertex
100
AcDb2dVertex
 10
297.0
 20
210.0
 30
0.0
  0
VERTEX
  5
2147
330
5CF
100
AcDbEntity
  8
HOJO
100
AcDbVertex
100
AcDb2dVertex
 10
0.0
 20
210.0
 30
0.0
  0
SEQEND
  5
2148
330
5CF
100
AcDbEntity
  8
HOJO
  0
POLYLINE
  5
5D0
330
5CE
100
AcDbEntity
  8
HOJO
100
AcDb2dPolyline
 66
     1
 10
0.0
 20
0.0
 30
0.0
 70
     1
  0
VERTEX
  5
2149
330
5D0
100
AcDbEntity
  8
HOJO
100
AcDbVertex
100
AcDb2dVertex
 10
18.0
 20
13.0
 30
0.0
  0
VERTEX
  5
214A
330
5D0
100
AcDbEntity
  8
HOJO
100
AcDbVertex
100
AcDb2dVertex
 10
279.0
 20
13.0
 30
0.0
  0
VERTEX
  5
214B
330
5D0
100
AcDbEntity
  8
HOJO
100
AcDbVertex
100
AcDb2dVertex
 10
279.0
 20
197.0
 30
0.0
  0
VERTEX
  5
214C
330
5D0
100
AcDbEntity
  8
HOJO
100
AcDbVertex
100
AcDb2dVertex
 10
18.0
 20
197.0
 30
0.0
  0
SEQEND
  5
214D
330
5D0
100
AcDbEntity
  8
HOJO
  0
ENDBLK
  5
5D2
330
5CE
100
AcDbEntity
  8
0
100
AcDbBlockEnd
  0
BLOCK
  5
63A
330
636
100
AcDbEntity
  8
0
100
AcDbBlockBegin
  2
_OPEN90
 70
     0
 10
0.0
 20
0.0
 30
0.0
  3
_OPEN90
  1

  0
LINE
  5
637
330
636
100
AcDbEntity
  8
SUNPO
 62
     0
100
AcDbLine
 10
-0.5
 20
0.5
 30
0.0
 11
0.0
 21
0.0
 31
0.0
  0
LINE
  5
638
330
636
100
AcDbEntity
  8
SUNPO
 62
     0
100
AcDbLine
 10
0.0
 20
0.0
 30
0.0
 11
-0.5
 21
-0.5
 31
0.0
  0
LINE
  5
639
330
636
100
AcDbEntity
  8
SUNPO
 62
     0
100
AcDbLine
 10
0.0
 20
0.0
 30
0.0
 11
-1.0
 21
0.0
 31
0.0
  0
ENDBLK
  5
63B
330
636
100
AcDbEntity
  8
0
100
AcDbBlockEnd
  0
BLOCK
  5
640
330
63C
100
AcDbEntity
  8
0
100
AcDbBlockBegin
  2
_OPEN30
 70
     0
 10
0.0
 20
0.0
 30
0.0
  3
_OPEN30
  1

  0
LINE
  5
63D
330
63C
100
AcDbEntity
  8
SUNPO
 62
     0
100
AcDbLine
 10
-1.0
 20
0.26794919
 30
0.0
 11
0.0
 21
0.0
 31
0.0
  0
LINE
  5
63E
330
63C
100
AcDbEntity
  8
SUNPO
 62
     0
100
AcDbLine
 10
0.0
 20
0.0
 30
0.0
 11
-1.0
 21
-0.26794919
 31
0.0
  0
LINE
  5
63F
330
63C
100
AcDbEntity
  8
SUNPO
 62
     0
100
AcDbLine
 10
0.0
 20
0.0
 30
0.0
 11
-1.0
 21
0.0
 31
0.0
  0
ENDBLK
  5
641
330
63C
100
AcDbEntity
  8
0
100
AcDbBlockEnd
  0
BLOCK
  5
FDE
330
FDC
100
AcDbEntity
  8
0
100
AcDbBlockBegin
  2
_DATUMFILLED
 70
     0
 10
0.0
 20
0.0
 30
0.0
  3
_DATUMFILLED
  1

  0
SOLID
  5
FDD
330
FDC
100
AcDbEntity
  8
MOJI
 62
     0
100
AcDbTrace
 10
0.0
 20
0.5773502700000001
 30
0.0
 11
-1.0
 21
0.0
 31
0.0
 12
0.0
 22
-0.5773502700000001
 32
0.0
 13
0.0
 23
-0.5773502700000001
 33
0.0
  0
ENDBLK
  5
FDF
330
FDC
100
AcDbEntity
  8
0
100
AcDbBlockEnd
  0
BLOCK
  5
1244
330
123A
100
AcDbEntity
  8
0
100
AcDbBlockBegin
  2
*D5
 70
     1
 10
0.0
 20
0.0
 30
0.0
  3
*D5
  1

  0
LINE
  5
14EE
330
123A
100
AcDbEntity
  8
SUNPO
 62
   144
100
AcDbLine
 10
1789.999999999999
 20
2270.0
 30
0.0
 11
1910.0
 21
2270.0
 31
0.0
  0
LINE
  5
14EF
330
123A
100
AcDbEntity
  8
SUNPO
 62
   144
100
AcDbLine
 10
1789.999999999999
 20
2360.0
 30
0.0
 11
1910.0
 21
2360.0
 31
0.0
  0
LINE
  5
14F0
330
123A
100
AcDbEntity
  8
SUNPO
 62
   144
100
AcDbLine
 10
1900.0
 20
2298.0
 30
0.0
 11
1900.0
 21
2332.0
 31
0.0
  0
SOLID
  5
14F1
330
123A
100
AcDbEntity
  8
SUNPO
 62
   144
100
AcDbTrace
 10
1895.333333333333
 20
2298.0
 30
0.0
 11
1904.666666666666
 21
2298.0
 31
0.0
 12
1900.0
 22
2270.0
 32
0.0
 13
1900.0
 23
2270.0
 33
0.0
  0
SOLID
  5
14F2
330
123A
100
AcDbEntity
  8
SUNPO
 62
   144
100
AcDbTrace
 10
1895.333333333333
 20
2332.0
 30
0.0
 11
1904.666666666666
 21
2332.0
 31
0.0
 12
1900.0
 22
2360.0
 32
0.0
 13
1900.0
 23
2360.0
 33
0.0
  0
MTEXT
  5
14F3
330
123A
100
AcDbEntity
  8
SUNPO
 62
     7
100
AcDbMText
 10
1868.5
 20
2315.0
 30
0.0
 40
38.0
 41
0.0
 71
     5
 72
     1
  1
\A2;90
  7
ADD
 11
0.0000000000000001
 21
1.0
 31
0.0
1001
ACAD
1000
MTEXTBEGIN
1070
    73
1070
     1
1070
    44
1040
1.0
1070
    74
1070
     0
1000
MTEXTEND
1000
MTEXTBEGIN
1070
    73
1070
     1
1070
    44
1040
1.0
1070
    74
1070
     0
1000
MTEXTEND
1000
MTEXTBEGIN
1070
    73
1070
     1
1070
    44
1040
1.0
1070
    74
1070
     0
1000
MTEXTEND
1000
MTEXTBEGIN
1070
    73
1070
     1
1070
    44
1040
1.0
1070
    74
1070
     0
1000
MTEXTEND
1000
MTEXTBEGIN
1070
    73
1070
     1
1070
    44
1040
1.0
1070
    74
1070
     0
1000
MTEXTEND
1000
MTEXTBEGIN
1070
    73
1070
     1
1070
    44
1040
1.0
1070
    74
1070
     0
1000
MTEXTEND
1000
MTEXTBEGIN
1070
    73
1070
     1
1070
    44
1040
1.0
1070
    74
1070
     0
1000
MTEXTEND
1000
MTEXTBEGIN
1070
    73
1070
     1
1070
    44
1040
1.0
1070
    74
1070
     0
1000
MTEXTEND
1000
MTEXTBEGIN
1070
    73
1070
     1
1070
    44
1040
1.0
1070
    74
1070
     0
1000
MTEXTEND
1000
MTEXTBEGIN
1070
    73
1070
     1
1070
    44
1040
1.0
1070
    74
1070
     0
1000
MTEXTEND
1000
MTEXTBEGIN
1070
    73
1070
     1
1070
    44
1040
1.0
1070
    74
1070
     0
1000
MTEXTEND
1000
MTEXTBEGIN
1070
    73
1070
     1
1070
    44
1040
1.0
1070
    74
1070
     0
1000
MTEXTEND
1000
MTEXTBEGIN
1070
    73
1070
     1
1070
    44
1040
1.0
1070
    74
1070
     0
1000
MTEXTEND
1000
MTEXTBEGIN
1070
    73
1070
     1
1070
    44
1040
1.0
1070
    74
1070
     0
1000
MTEXTEND
1000
MTEXTBEGIN
1070
    73
1070
     1
1070
    44
1040
1.0
1070
    74
1070
     0
1000
MTEXTEND
  0
POINT
  5
14F4
330
123A
100
AcDbEntity
  8
DEFPOINTS
 62
     0
100
AcDbPoint
 10
1769.999999999999
 20
2270.0
 30
0.0
  0
POINT
  5
14F5
330
123A
100
AcDbEntity
  8
DEFPOINTS
 62
     0
100
AcDbPoint
 10
1769.999999999999
 20
2360.0
 30
0.0
  0
POINT
  5
14F6
330
123A
100
AcDbEntity
  8
DEFPOINTS
 62
     0
100
AcDbPoint
 10
1900.0
 20
2360.0
 30
0.0
  0
ENDBLK
  5
1245
330
123A
100
AcDbEntity
  8
0
100
AcDbBlockEnd
  0
BLOCK
  5
1251
330
1247
100
AcDbEntity
  8
0
100
AcDbBlockBegin
  2
*D6
 70
     1
 10
0.0
 20
0.0
 30
0.0
  3
*D6
  1

  0
LINE
  5
14E5
330
1247
100
AcDbEntity
  8
SUNPO
 62
   144
100
AcDbLine
 10
1789.999999999999
 20
2360.0
 30
0.0
 11
1909.999999999999
 21
2360.0
 31
0.0
  0
LINE
  5
14E6
330
1247
100
AcDbEntity
  8
SUNPO
 62
   144
100
AcDbLine
 10
1790.0
 20
2760.0
 30
0.0
 11
1910.0
 21
2760.0
 31
0.0
  0
LINE
  5
14E7
330
1247
100
AcDbEntity
  8
SUNPO
 62
   144
100
AcDbLine
 10
1899.999999999999
 20
2388.0
 30
0.0
 11
1900.0
 21
2732.0
 31
0.0
  0
SOLID
  5
14E8
330
1247
100
AcDbEntity
  8
SUNPO
 62
   144
100
AcDbTrace
 10
1895.333333333333
 20
2388.0
 30
0.0
 11
1904.666666666666
 21
2388.0
 31
0.0
 12
1899.999999999999
 22
2360.0
 32
0.0
 13
1899.999999999999
 23
2360.0
 33
0.0
  0
SOLID
  5
14E9
330
1247
100
AcDbEntity
  8
SUNPO
 62
   144
100
AcDbTrace
 10
1895.333333333333
 20
2732.0
 30
0.0
 11
1904.666666666666
 21
2732.0
 31
0.0
 12
1900.0
 22
2760.0
 32
0.0
 13
1900.0
 23
2760.0
 33
0.0
  0
MTEXT
  5
14EA
330
1247
100
AcDbEntity
  8
SUNPO
 62
     7
100
AcDbMText
 10
1868.499999999999
 20
2560.0
 30
0.0
 40
38.0
 41
0.0
 71
     5
 72
     1
  1
\A2;400
  7
ADD
 11
0.0000000000000001
 21
1.0
 31
0.0
1001
ACAD
1000
MTEXTBEGIN
1070
    73
1070
     1
1070
    44
1040
1.0
1070
    74
1070
     0
1000
MTEXTEND
1000
MTEXTBEGIN
1070
    73
1070
     1
1070
    44
1040
1.0
1070
    74
1070
     0
1000
MTEXTEND
1000
MTEXTBEGIN
1070
    73
1070
     1
1070
    44
1040
1.0
1070
    74
1070
     0
1000
MTEXTEND
1000
MTEXTBEGIN
1070
    73
1070
     1
1070
    44
1040
1.0
1070
    74
1070
     0
1000
MTEXTEND
1000
MTEXTBEGIN
1070
    73
1070
     1
1070
    44
1040
1.0
1070
    74
1070
     0
1000
MTEXTEND
1000
MTEXTBEGIN
1070
    73
1070
     1
1070
    44
1040
1.0
1070
    74
1070
     0
1000
MTEXTEND
1000
MTEXTBEGIN
1070
    73
1070
     1
1070
    44
1040
1.0
1070
    74
1070
     0
1000
MTEXTEND
1000
MTEXTBEGIN
1070
    73
1070
     1
1070
    44
1040
1.0
1070
    74
1070
     0
1000
MTEXTEND
1000
MTEXTBEGIN
1070
    73
1070
     1
1070
    44
1040
1.0
1070
    74
1070
     0
1000
MTEXTEND
1000
MTEXTBEGIN
1070
    73
1070
     1
1070
    44
1040
1.0
1070
    74
1070
     0
1000
MTEXTEND
1000
MTEXTBEGIN
1070
    73
1070
     1
1070
    44
1040
1.0
1070
    74
1070
     0
1000
MTEXTEND
1000
MTEXTBEGIN
1070
    73
1070
     1
1070
    44
1040
1.0
1070
    74
1070
     0
1000
MTEXTEND
1000
MTEXTBEGIN
1070
    73
1070
     1
1070
    44
1040
1.0
1070
    74
1070
     0
1000
MTEXTEND
1000
MTEXTBEGIN
1070
    73
1070
     1
1070
    44
1040
1.0
1070
    74
1070
     0
1000
MTEXTEND
1000
MTEXTBEGIN
1070
    73
1070
     1
1070
    44
1040
1.0
1070
    74
1070
     0
1000
MTEXTEND
  0
POINT
  5
14EB
330
1247
100
AcDbEntity
  8
DEFPOINTS
 62
     0
100
AcDbPoint
 10
1769.999999999999
 20
2360.0
 30
0.0
  0
POINT
  5
14EC
330
1247
100
AcDbEntity
  8
DEFPOINTS
 62
     0
100
AcDbPoint
 10
1770.0
 20
2760.0
 30
0.0
  0
POINT
  5
14ED
330
1247
100
AcDbEntity
  8
DEFPOINTS
 62
     0
100
AcDbPoint
 10
1900.0
 20
2760.0
 30
0.0
  0
ENDBLK
  5
1252
330
1247
100
AcDbEntity
  8
0
100
AcDbBlockEnd
  0
BLOCK
  5
1260
330
1254
100
AcDbEntity
  8
0
100
AcDbBlockBegin
  2
*D7
 70
     1
 10
0.0
 20
0.0
 30
0.0
  3
*D7
  1

  0
LINE
  5
14DA
330
1254
100
AcDbEntity
  8
SUNPO
 62
   144
100
AcDbLine
 10
1790.0
 20
2760.0
 30
0.0
 11
1910.0
 21
2760.0
 31
0.0
  0
LINE
  5
14DB
330
1254
100
AcDbEntity
  8
SUNPO
 62
   144
100
AcDbLine
 10
1790.0
 20
2860.0
 30
0.0
 11
1910.0
 21
2860.0
 31
0.0
  0
LINE
  5
14DC
330
1254
100
AcDbEntity
  8
SUNPO
 62
   144
100
AcDbLine
 10
1900.0
 20
2732.0
 30
0.0
 11
1900.0
 21
2704.0
 31
0.0
  0
LINE
  5
14DD
330
1254
100
AcDbEntity
  8
SUNPO
 62
   144
100
AcDbLine
 10
1900.0
 20
2888.0
 30
0.0
 11
1900.0
 21
2916.0
 31
0.0
  0
LINE
  5
14DE
330
1254
100
AcDbEntity
  8
SUNPO
 62
   144
100
AcDbLine
 10
1900.0
 20
2760.0
 30
0.0
 11
1900.0
 21
2860.0
 31
0.0
  0
SOLID
  5
14DF
330
1254
100
AcDbEntity
  8
SUNPO
 62
   144
100
AcDbTrace
 10
1895.333333333333
 20
2732.0
 30
0.0
 11
1904.666666666666
 21
2732.0
 31
0.0
 12
1900.0
 22
2760.0
 32
0.0
 13
1900.0
 23
2760.0
 33
0.0
  0
SOLID
  5
14E0
330
1254
100
AcDbEntity
  8
SUNPO
 62
   144
100
AcDbTrace
 10
1895.333333333333
 20
2888.0
 30
0.0
 11
1904.666666666666
 21
2888.0
 31
0.0
 12
1900.0
 22
2860.0
 32
0.0
 13
1900.0
 23
2860.0
 33
0.0
  0
MTEXT
  5
14E1
330
1254
100
AcDbEntity
  8
SUNPO
 62
     7
100
AcDbMText
 10
1868.499999999999
 20
2810.0
 30
0.0
 40
38.0
 41
0.0
 71
     5
 72
     1
  1
\A2;100
  7
ADD
 11
0.0000000000000001
 21
1.0
 31
0.0
1001
ACAD
1000
MTEXTBEGIN
1070
    73
1070
     1
1070
    44
1040
1.0
1070
    74
1070
     0
1000
MTEXTEND
1000
MTEXTBEGIN
1070
    73
1070
     1
1070
    44
1040
1.0
1070
    74
1070
     0
1000
MTEXTEND
1000
MTEXTBEGIN
1070
    73
1070
     1
1070
    44
1040
1.0
1070
    74
1070
     0
1000
MTEXTEND
1000
MTEXTBEGIN
1070
    73
1070
     1
1070
    44
1040
1.0
1070
    74
1070
     0
1000
MTEXTEND
1000
MTEXTBEGIN
1070
    73
1070
     1
1070
    44
1040
1.0
1070
    74
1070
     0
1000
MTEXTEND
1000
MTEXTBEGIN
1070
    73
1070
     1
1070
    44
1040
1.0
1070
    74
1070
     0
1000
MTEXTEND
1000
MTEXTBEGIN
1070
    73
1070
     1
1070
    44
1040
1.0
1070
    74
1070
     0
1000
MTEXTEND
1000
MTEXTBEGIN
1070
    73
1070
     1
1070
    44
1040
1.0
1070
    74
1070
     0
1000
MTEXTEND
1000
MTEXTBEGIN
1070
    73
1070
     1
1070
    44
1040
1.0
1070
    74
1070
     0
1000
MTEXTEND
1000
MTEXTBEGIN
1070
    73
1070
     1
1070
    44
1040
1.0
1070
    74
1070
     0
1000
MTEXTEND
1000
MTEXTBEGIN
1070
    73
1070
     1
1070
    44
1040
1.0
1070
    74
1070
     0
1000
MTEXTEND
1000
MTEXTBEGIN
1070
    73
1070
     1
1070
    44
1040
1.0
1070
    74
1070
     0
1000
MTEXTEND
1000
MTEXTBEGIN
1070
    73
1070
     1
1070
    44
1040
1.0
1070
    74
1070
     0
1000
MTEXTEND
1000
MTEXTBEGIN
1070
    73
1070
     1
1070
    44
1040
1.0
1070
    74
1070
     0
1000
MTEXTEND
1000
MTEXTBEGIN
1070
    73
1070
     1
1070
    44
1040
1.0
1070
    74
1070
     0
1000
MTEXTEND
  0
POINT
  5
14E2
330
1254
100
AcDbEntity
  8
DEFPOINTS
 62
     0
100
AcDbPoint
 10
1770.0
 20
2760.0
 30
0.0
  0
POINT
  5
14E3
330
1254
100
AcDbEntity
  8
DEFPOINTS
 62
     0
100
AcDbPoint
 10
1770.0
 20
2860.0
 30
0.0
  0
POINT
  5
14E4
330
1254
100
AcDbEntity
  8
DEFPOINTS
 62
     0
100
AcDbPoint
 10
1900.0
 20
2860.0
 30
0.0
  0
ENDBLK
  5
1261
330
1254
100
AcDbEntity
  8
0
100
AcDbBlockEnd
  0
BLOCK
  5
126D
330
1263
100
AcDbEntity
  8
0
100
AcDbBlockBegin
  2
*D8
 70
     1
 10
0.0
 20
0.0
 30
0.0
  3
*D8
  1

  0
LINE
  5
14D1
330
1263
100
AcDbEntity
  8
SUNPO
 62
   144
100
AcDbLine
 10
1790.0
 20
2860.0
 30
0.0
 11
2010.0
 21
2860.0
 31
0.0
  0
LINE
  5
14D2
330
1263
100
AcDbEntity
  8
SUNPO
 62
   144
100
AcDbLine
 10
1789.999999999999
 20
2270.0
 30
0.0
 11
2010.0
 21
2270.0
 31
0.0
  0
LINE
  5
14D3
330
1263
100
AcDbEntity
  8
SUNPO
 62
   144
100
AcDbLine
 10
2000.0
 20
2832.0
 30
0.0
 11
2000.0
 21
2298.0
 31
0.0
  0
SOLID
  5
14D4
330
1263
100
AcDbEntity
  8
SUNPO
 62
   144
100
AcDbTrace
 10
1995.333333333333
 20
2832.0
 30
0.0
 11
2004.666666666667
 21
2832.0
 31
0.0
 12
2000.0
 22
2860.0
 32
0.0
 13
2000.0
 23
2860.0
 33
0.0
  0
SOLID
  5
14D5
330
1263
100
AcDbEntity
  8
SUNPO
 62
   144
100
AcDbTrace
 10
1995.333333333333
 20
2298.0
 30
0.0
 11
2004.666666666666
 21
2298.0
 31
0.0
 12
2000.0
 22
2270.0
 32
0.0
 13
2000.0
 23
2270.0
 33
0.0
  0
MTEXT
  5
14D6
330
1263
100
AcDbEntity
  8
SUNPO
 62
     7
100
AcDbMText
 10
1968.499999999999
 20
2565.0
 30
0.0
 40
38.0
 41
0.0
 71
     5
 72
     1
  1
\A2;590
  7
ADD
 11
0.0000000000000001
 21
1.0
 31
0.0
1001
ACAD
1000
MTEXTBEGIN
1070
    73
1070
     1
1070
    44
1040
1.0
1070
    74
1070
     0
1000
MTEXTEND
1000
MTEXTBEGIN
1070
    73
1070
     1
1070
    44
1040
1.0
1070
    74
1070
     0
1000
MTEXTEND
1000
MTEXTBEGIN
1070
    73
1070
     1
1070
    44
1040
1.0
1070
    74
1070
     0
1000
MTEXTEND
1000
MTEXTBEGIN
1070
    73
1070
     1
1070
    44
1040
1.0
1070
    74
1070
     0
1000
MTEXTEND
1000
MTEXTBEGIN
1070
    73
1070
     1
1070
    44
1040
1.0
1070
    74
1070
     0
1000
MTEXTEND
1000
MTEXTBEGIN
1070
    73
1070
     1
1070
    44
1040
1.0
1070
    74
1070
     0
1000
MTEXTEND
1000
MTEXTBEGIN
1070
    73
1070
     1
1070
    44
1040
1.0
1070
    74
1070
     0
1000
MTEXTEND
1000
MTEXTBEGIN
1070
    73
1070
     1
1070
    44
1040
1.0
1070
    74
1070
     0
1000
MTEXTEND
1000
MTEXTBEGIN
1070
    73
1070
     1
1070
    44
1040
1.0
1070
    74
1070
     0
1000
MTEXTEND
1000
MTEXTBEGIN
1070
    73
1070
     1
1070
    44
1040
1.0
1070
    74
1070
     0
1000
MTEXTEND
1000
MTEXTBEGIN
1070
    73
1070
     1
1070
    44
1040
1.0
1070
    74
1070
     0
1000
MTEXTEND
1000
MTEXTBEGIN
1070
    73
1070
     1
1070
    44
1040
1.0
1070
    74
1070
     0
1000
MTEXTEND
1000
MTEXTBEGIN
1070
    73
1070
     1
1070
    44
1040
1.0
1070
    74
1070
     0
1000
MTEXTEND
1000
MTEXTBEGIN
1070
    73
1070
     1
1070
    44
1040
1.0
1070
    74
1070
     0
1000
MTEXTEND
1000
MTEXTBEGIN
1070
    73
1070
     1
1070
    44
1040
1.0
1070
    74
1070
     0
1000
MTEXTEND
  0
POINT
  5
14D7
330
1263
100
AcDbEntity
  8
DEFPOINTS
 62
     0
100
AcDbPoint
 10
1770.0
 20
2860.0
 30
0.0
  0
POINT
  5
14D8
330
1263
100
AcDbEntity
  8
DEFPOINTS
 62
     0
100
AcDbPoint
 10
1769.999999999999
 20
2270.0
 30
0.0
  0
POINT
  5
14D9
330
1263
100
AcDbEntity
  8
DEFPOINTS
 62
     0
100
AcDbPoint
 10
2000.0
 20
2270.0
 30
0.0
  0
ENDBLK
  5
126E
330
1263
100
AcDbEntity
  8
0
100
AcDbBlockEnd
  0
BLOCK
  5
1287
330
127D
100
AcDbEntity
  8
0
100
AcDbBlockBegin
  2
*D9
 70
     1
 10
0.0
 20
0.0
 30
0.0
  3
*D9
  1

  0
LINE
  5
14C8
330
127D
100
AcDbEntity
  8
SUNPO
 62
   144
100
AcDbLine
 10
1422.5
 20
3052.321101437184
 30
0.0
 11
1422.5
 21
3160.0
 31
0.0
  0
LINE
  5
14C9
330
127D
100
AcDbEntity
  8
SUNPO
 62
   144
100
AcDbLine
 10
1577.499999999999
 20
3052.321101437183
 30
0.0
 11
1577.499999999999
 21
3160.0
 31
0.0
  0
LINE
  5
14CA
330
127D
100
AcDbEntity
  8
SUNPO
 62
   144
100
AcDbLine
 10
1450.5
 20
3150.0
 30
0.0
 11
1549.499999999999
 21
3150.0
 31
0.0
  0
SOLID
  5
14CB
330
127D
100
AcDbEntity
  8
SUNPO
 62
   144
100
AcDbTrace
 10
1450.5
 20
3154.666666666666
 30
0.0
 11
1450.5
 21
3145.333333333333
 31
0.0
 12
1422.5
 22
3150.0
 32
0.0
 13
1422.5
 23
3150.0
 33
0.0
  0
SOLID
  5
14CC
330
127D
100
AcDbEntity
  8
SUNPO
 62
   144
100
AcDbTrace
 10
1549.499999999999
 20
3154.666666666666
 30
0.0
 11
1549.499999999999
 21
3145.333333333333
 31
0.0
 12
1577.499999999999
 22
3150.0
 32
0.0
 13
1577.499999999999
 23
3150.0
 33
0.0
  0
MTEXT
  5
14CD
330
127D
100
AcDbEntity
  8
SUNPO
 62
     7
100
AcDbMText
 10
1500.0
 20
3181.5
 30
0.0
 40
38.0
 41
0.0
 71
     5
 72
     1
  1
\A2;155
  7
ADD
1001
ACAD
1000
MTEXTBEGIN
1070
    73
1070
     1
1070
    44
1040
1.0
1070
    74
1070
     0
1000
MTEXTEND
1000
MTEXTBEGIN
1070
    73
1070
     1
1070
    44
1040
1.0
1070
    74
1070
     0
1000
MTEXTEND
1000
MTEXTBEGIN
1070
    73
1070
     1
1070
    44
1040
1.0
1070
    74
1070
     0
1000
MTEXTEND
1000
MTEXTBEGIN
1070
    73
1070
     1
1070
    44
1040
1.0
1070
    74
1070
     0
1000
MTEXTEND
1000
MTEXTBEGIN
1070
    73
1070
     1
1070
    44
1040
1.0
1070
    74
1070
     0
1000
MTEXTEND
1000
MTEXTBEGIN
1070
    73
1070
     1
1070
    44
1040
1.0
1070
    74
1070
     0
1000
MTEXTEND
1000
MTEXTBEGIN
1070
    73
1070
     1
1070
    44
1040
1.0
1070
    74
1070
     0
1000
MTEXTEND
1000
MTEXTBEGIN
1070
    73
1070
     1
1070
    44
1040
1.0
1070
    74
1070
     0
1000
MTEXTEND
1000
MTEXTBEGIN
1070
    73
1070
     1
1070
    44
1040
1.0
1070
    74
1070
     0
1000
MTEXTEND
1000
MTEXTBEGIN
1070
    73
1070
     1
1070
    44
1040
1.0
1070
    74
1070
     0
1000
MTEXTEND
1000
MTEXTBEGIN
1070
    73
1070
     1
1070
    44
1040
1.0
1070
    74
1070
     0
1000
MTEXTEND
1000
MTEXTBEGIN
1070
    73
1070
     1
1070
    44
1040
1.0
1070
    74
1070
     0
1000
MTEXTEND
1000
MTEXTBEGIN
1070
    73
1070
     1
1070
    44
1040
1.0
1070
    74
1070
     0
1000
MTEXTEND
1000
MTEXTBEGIN
1070
    73
1070
     1
1070
    44
1040
1.0
1070
    74
1070
     0
1000
MTEXTEND
1000
MTEXTBEGIN
1070
    73
1070
     1
1070
    44
1040
1.0
1070
    74
1070
     0
1000
MTEXTEND
  0
POINT
  5
14CE
330
127D
100
AcDbEntity
  8
DEFPOINTS
 62
     0
100
AcDbPoint
 10
1422.5
 20
3032.321101437183
 30
0.0
  0
POINT
  5
14CF
330
127D
100
AcDbEntity
  8
DEFPOINTS
 62
     0
100
AcDbPoint
 10
1577.499999999999
 20
3032.321101437183
 30
0.0
  0
POINT
  5
14D0
330
127D
100
AcDbEntity
  8
DEFPOINTS
 62
     0
100
AcDbPoint
 10
1577.499999999999
 20
3150.0
 30
0.0
  0
ENDBLK
  5
1288
330
127D
100
AcDbEntity
  8
0
100
AcDbBlockEnd
  0
BLOCK
  5
1294
330
128A
100
AcDbEntity
  8
0
100
AcDbBlockBegin
  2
*D10
 70
     1
 10
0.0
 20
0.0
 30
0.0
  3
*D10
  1

  0
LINE
  5
14BF
330
128A
100
AcDbEntity
  8
SUNPO
 62
   144
100
AcDbLine
 10
1404.0
 20
2869.999999999999
 30
0.0
 11
1404.0
 21
3260.0
 31
0.0
  0
LINE
  5
14C0
330
128A
100
AcDbEntity
  8
SUNPO
 62
   144
100
AcDbLine
 10
1596.0
 20
2869.999999999999
 30
0.0
 11
1596.0
 21
3260.0
 31
0.0
  0
LINE
  5
14C1
330
128A
100
AcDbEntity
  8
SUNPO
 62
   144
100
AcDbLine
 10
1432.0
 20
3250.0
 30
0.0
 11
1568.0
 21
3250.0
 31
0.0
  0
SOLID
  5
14C2
330
128A
100
AcDbEntity
  8
SUNPO
 62
   144
100
AcDbTrace
 10
1432.0
 20
3254.666666666667
 30
0.0
 11
1432.0
 21
3245.333333333333
 31
0.0
 12
1404.0
 22
3250.0
 32
0.0
 13
1404.0
 23
3250.0
 33
0.0
  0
SOLID
  5
14C3
330
128A
100
AcDbEntity
  8
SUNPO
 62
   144
100
AcDbTrace
 10
1568.0
 20
3254.666666666667
 30
0.0
 11
1568.0
 21
3245.333333333333
 31
0.0
 12
1596.0
 22
3250.0
 32
0.0
 13
1596.0
 23
3250.0
 33
0.0
  0
MTEXT
  5
14C4
330
128A
100
AcDbEntity
  8
SUNPO
 62
     7
100
AcDbMText
 10
1500.0
 20
3281.499999999999
 30
0.0
 40
38.0
 41
0.0
 71
     5
 72
     1
  1
\A2;192
  7
ADD
1001
ACAD
1000
MTEXTBEGIN
1070
    73
1070
     1
1070
    44
1040
1.0
1070
    74
1070
     0
1000
MTEXTEND
1000
MTEXTBEGIN
1070
    73
1070
     1
1070
    44
1040
1.0
1070
    74
1070
     0
1000
MTEXTEND
1000
MTEXTBEGIN
1070
    73
1070
     1
1070
    44
1040
1.0
1070
    74
1070
     0
1000
MTEXTEND
1000
MTEXTBEGIN
1070
    73
1070
     1
1070
    44
1040
1.0
1070
    74
1070
     0
1000
MTEXTEND
1000
MTEXTBEGIN
1070
    73
1070
     1
1070
    44
1040
1.0
1070
    74
1070
     0
1000
MTEXTEND
1000
MTEXTBEGIN
1070
    73
1070
     1
1070
    44
1040
1.0
1070
    74
1070
     0
1000
MTEXTEND
1000
MTEXTBEGIN
1070
    73
1070
     1
1070
    44
1040
1.0
1070
    74
1070
     0
1000
MTEXTEND
1000
MTEXTBEGIN
1070
    73
1070
     1
1070
    44
1040
1.0
1070
    74
1070
     0
1000
MTEXTEND
1000
MTEXTBEGIN
1070
    73
1070
     1
1070
    44
1040
1.0
1070
    74
1070
     0
1000
MTEXTEND
1000
MTEXTBEGIN
1070
    73
1070
     1
1070
    44
1040
1.0
1070
    74
1070
     0
1000
MTEXTEND
1000
MTEXTBEGIN
1070
    73
1070
     1
1070
    44
1040
1.0
1070
    74
1070
     0
1000
MTEXTEND
1000
MTEXTBEGIN
1070
    73
1070
     1
1070
    44
1040
1.0
1070
    74
1070
     0
1000
MTEXTEND
1000
MTEXTBEGIN
1070
    73
1070
     1
1070
    44
1040
1.0
1070
    74
1070
     0
1000
MTEXTEND
1000
MTEXTBEGIN
1070
    73
1070
     1
1070
    44
1040
1.0
1070
    74
1070
     0
1000
MTEXTEND
1000
MTEXTBEGIN
1070
    73
1070
     1
1070
    44
1040
1.0
1070
    74
1070
     0
1000
MTEXTEND
  0
POINT
  5
14C5
330
128A
100
AcDbEntity
  8
DEFPOINTS
 62
     0
100
AcDbPoint
 10
1404.0
 20
2849.999999999999
 30
0.0
  0
POINT
  5
14C6
330
128A
100
AcDbEntity
  8
DEFPOINTS
 62
     0
100
AcDbPoint
 10
1596.0
 20
2849.999999999999
 30
0.0
  0
POINT
  5
14C7
330
128A
100
AcDbEntity
  8
DEFPOINTS
 62
     0
100
AcDbPoint
 10
1596.0
 20
3250.0
 30
0.0
  0
ENDBLK
  5
1295
330
128A
100
AcDbEntity
  8
0
100
AcDbBlockEnd
  0
BLOCK
  5
12A1
330
1297
100
AcDbEntity
  8
0
100
AcDbBlockBegin
  2
*D11
 70
     1
 10
0.0
 20
0.0
 30
0.0
  3
*D11
  1

  0
LINE
  5
14B6
330
1297
100
AcDbEntity
  8
SUNPO
 62
   144
100
AcDbLine
 10
1596.0
 20
2870.0
 30
0.0
 11
1596.0
 21
3260.0
 31
0.0
  0
LINE
  5
14B7
330
1297
100
AcDbEntity
  8
SUNPO
 62
   144
100
AcDbLine
 10
1770.0
 20
2880.0
 30
0.0
 11
1770.0
 21
3260.0
 31
0.0
  0
LINE
  5
14B8
330
1297
100
AcDbEntity
  8
SUNPO
 62
   144
100
AcDbLine
 10
1624.0
 20
3250.0
 30
0.0
 11
1742.0
 21
3250.0
 31
0.0
  0
SOLID
  5
14B9
330
1297
100
AcDbEntity
  8
SUNPO
 62
   144
100
AcDbTrace
 10
1624.0
 20
3254.666666666667
 30
0.0
 11
1624.0
 21
3245.333333333333
 31
0.0
 12
1596.0
 22
3250.0
 32
0.0
 13
1596.0
 23
3250.0
 33
0.0
  0
SOLID
  5
14BA
330
1297
100
AcDbEntity
  8
SUNPO
 62
   144
100
AcDbTrace
 10
1742.0
 20
3254.666666666667
 30
0.0
 11
1742.0
 21
3245.333333333333
 31
0.0
 12
1770.0
 22
3250.0
 32
0.0
 13
1770.0
 23
3250.0
 33
0.0
  0
MTEXT
  5
14BB
330
1297
100
AcDbEntity
  8
SUNPO
 62
     7
100
AcDbMText
 10
1683.0
 20
3281.499999999999
 30
0.0
 40
38.0
 41
0.0
 71
     5
 72
     1
  1
\A2;174
  7
ADD
1001
ACAD
1000
MTEXTBEGIN
1070
    73
1070
     1
1070
    44
1040
1.0
1070
    74
1070
     0
1000
MTEXTEND
1000
MTEXTBEGIN
1070
    73
1070
     1
1070
    44
1040
1.0
1070
    74
1070
     0
1000
MTEXTEND
1000
MTEXTBEGIN
1070
    73
1070
     1
1070
    44
1040
1.0
1070
    74
1070
     0
1000
MTEXTEND
1000
MTEXTBEGIN
1070
    73
1070
     1
1070
    44
1040
1.0
1070
    74
1070
     0
1000
MTEXTEND
1000
MTEXTBEGIN
1070
    73
1070
     1
1070
    44
1040
1.0
1070
    74
1070
     0
1000
MTEXTEND
1000
MTEXTBEGIN
1070
    73
1070
     1
1070
    44
1040
1.0
1070
    74
1070
     0
1000
MTEXTEND
1000
MTEXTBEGIN
1070
    73
1070
     1
1070
    44
1040
1.0
1070
    74
1070
     0
1000
MTEXTEND
1000
MTEXTBEGIN
1070
    73
1070
     1
1070
    44
1040
1.0
1070
    74
1070
     0
1000
MTEXTEND
1000
MTEXTBEGIN
1070
    73
1070
     1
1070
    44
1040
1.0
1070
    74
1070
     0
1000
MTEXTEND
1000
MTEXTBEGIN
1070
    73
1070
     1
1070
    44
1040
1.0
1070
    74
1070
     0
1000
MTEXTEND
1000
MTEXTBEGIN
1070
    73
1070
     1
1070
    44
1040
1.0
1070
    74
1070
     0
1000
MTEXTEND
1000
MTEXTBEGIN
1070
    73
1070
     1
1070
    44
1040
1.0
1070
    74
1070
     0
1000
MTEXTEND
1000
MTEXTBEGIN
1070
    73
1070
     1
1070
    44
1040
1.0
1070
    74
1070
     0
1000
MTEXTEND
1000
MTEXTBEGIN
1070
    73
1070
     1
1070
    44
1040
1.0
1070
    74
1070
     0
1000
MTEXTEND
1000
MTEXTBEGIN
1070
    73
1070
     1
1070
    44
1040
1.0
1070
    74
1070
     0
1000
MTEXTEND
  0
POINT
  5
14BC
330
1297
100
AcDbEntity
  8
DEFPOINTS
 62
     0
100
AcDbPoint
 10
1596.0
 20
2850.0
 30
0.0
  0
POINT
  5
14BD
330
1297
100
AcDbEntity
  8
DEFPOINTS
 62
     0
100
AcDbPoint
 10
1770.0
 20
2860.0
 30
0.0
  0
POINT
  5
14BE
330
1297
100
AcDbEntity
  8
DEFPOINTS
 62
     0
100
AcDbPoint
 10
1770.0
 20
3250.0
 30
0.0
  0
ENDBLK
  5
12A2
330
1297
100
AcDbEntity
  8
0
100
AcDbBlockEnd
  0
BLOCK
  5
12AE
330
12A4
100
AcDbEntity
  8
0
100
AcDbBlockBegin
  2
*D12
 70
     1
 10
0.0
 20
0.0
 30
0.0
  3
*D12
  1

  0
LINE
  5
14AD
330
12A4
100
AcDbEntity
  8
SUNPO
 62
   144
100
AcDbLine
 10
1404.0
 20
2869.999999999999
 30
0.0
 11
1404.0
 21
3260.0
 31
0.0
  0
LINE
  5
14AE
330
12A4
100
AcDbEntity
  8
SUNPO
 62
   144
100
AcDbLine
 10
1230.0
 20
2880.0
 30
0.0
 11
1230.0
 21
3260.0
 31
0.0
  0
LINE
  5
14AF
330
12A4
100
AcDbEntity
  8
SUNPO
 62
   144
100
AcDbLine
 10
1376.0
 20
3250.0
 30
0.0
 11
1258.0
 21
3250.0
 31
0.0
  0
SOLID
  5
14B0
330
12A4
100
AcDbEntity
  8
SUNPO
 62
   144
100
AcDbTrace
 10
1376.0
 20
3254.666666666667
 30
0.0
 11
1376.0
 21
3245.333333333333
 31
0.0
 12
1404.0
 22
3250.0
 32
0.0
 13
1404.0
 23
3250.0
 33
0.0
  0
SOLID
  5
14B1
330
12A4
100
AcDbEntity
  8
SUNPO
 62
   144
100
AcDbTrace
 10
1258.0
 20
3254.666666666667
 30
0.0
 11
1258.0
 21
3245.333333333333
 31
0.0
 12
1230.0
 22
3250.0
 32
0.0
 13
1230.0
 23
3250.0
 33
0.0
  0
MTEXT
  5
14B2
330
12A4
100
AcDbEntity
  8
SUNPO
 62
     7
100
AcDbMText
 10
1317.0
 20
3281.499999999999
 30
0.0
 40
38.0
 41
0.0
 71
     5
 72
     1
  1
\A2;174
  7
ADD
1001
ACAD
1000
MTEXTBEGIN
1070
    73
1070
     1
1070
    44
1040
1.0
1070
    74
1070
     0
1000
MTEXTEND
1000
MTEXTBEGIN
1070
    73
1070
     1
1070
    44
1040
1.0
1070
    74
1070
     0
1000
MTEXTEND
1000
MTEXTBEGIN
1070
    73
1070
     1
1070
    44
1040
1.0
1070
    74
1070
     0
1000
MTEXTEND
1000
MTEXTBEGIN
1070
    73
1070
     1
1070
    44
1040
1.0
1070
    74
1070
     0
1000
MTEXTEND
1000
MTEXTBEGIN
1070
    73
1070
     1
1070
    44
1040
1.0
1070
    74
1070
     0
1000
MTEXTEND
1000
MTEXTBEGIN
1070
    73
1070
     1
1070
    44
1040
1.0
1070
    74
1070
     0
1000
MTEXTEND
1000
MTEXTBEGIN
1070
    73
1070
     1
1070
    44
1040
1.0
1070
    74
1070
     0
1000
MTEXTEND
1000
MTEXTBEGIN
1070
    73
1070
     1
1070
    44
1040
1.0
1070
    74
1070
     0
1000
MTEXTEND
1000
MTEXTBEGIN
1070
    73
1070
     1
1070
    44
1040
1.0
1070
    74
1070
     0
1000
MTEXTEND
1000
MTEXTBEGIN
1070
    73
1070
     1
1070
    44
1040
1.0
1070
    74
1070
     0
1000
MTEXTEND
1000
MTEXTBEGIN
1070
    73
1070
     1
1070
    44
1040
1.0
1070
    74
1070
     0
1000
MTEXTEND
1000
MTEXTBEGIN
1070
    73
1070
     1
1070
    44
1040
1.0
1070
    74
1070
     0
1000
MTEXTEND
1000
MTEXTBEGIN
1070
    73
1070
     1
1070
    44
1040
1.0
1070
    74
1070
     0
1000
MTEXTEND
1000
MTEXTBEGIN
1070
    73
1070
     1
1070
    44
1040
1.0
1070
    74
1070
     0
1000
MTEXTEND
1000
MTEXTBEGIN
1070
    73
1070
     1
1070
    44
1040
1.0
1070
    74
1070
     0
1000
MTEXTEND
  0
POINT
  5
14B3
330
12A4
100
AcDbEntity
  8
DEFPOINTS
 62
     0
100
AcDbPoint
 10
1404.0
 20
2849.999999999999
 30
0.0
  0
POINT
  5
14B4
330
12A4
100
AcDbEntity
  8
DEFPOINTS
 62
     0
100
AcDbPoint
 10
1230.0
 20
2860.0
 30
0.0
  0
POINT
  5
14B5
330
12A4
100
AcDbEntity
  8
DEFPOINTS
 62
     0
100
AcDbPoint
 10
1230.0
 20
3250.0
 30
0.0
  0
ENDBLK
  5
12AF
330
12A4
100
AcDbEntity
  8
0
100
AcDbBlockEnd
  0
BLOCK
  5
12BB
330
12B1
100
AcDbEntity
  8
0
100
AcDbBlockBegin
  2
*D13
 70
     1
 10
0.0
 20
0.0
 30
0.0
  3
*D13
  1

  0
LINE
  5
14A4
330
12B1
100
AcDbEntity
  8
SUNPO
 62
   144
100
AcDbLine
 10
1230.0
 20
2880.0
 30
0.0
 11
1230.0
 21
3360.0
 31
0.0
  0
LINE
  5
14A5
330
12B1
100
AcDbEntity
  8
SUNPO
 62
   144
100
AcDbLine
 10
1770.0
 20
2880.0
 30
0.0
 11
1770.0
 21
3360.0
 31
0.0
  0
LINE
  5
14A6
330
12B1
100
AcDbEntity
  8
SUNPO
 62
   144
100
AcDbLine
 10
1258.0
 20
3350.0
 30
0.0
 11
1742.0
 21
3350.0
 31
0.0
  0
SOLID
  5
14A7
330
12B1
100
AcDbEntity
  8
SUNPO
 62
   144
100
AcDbTrace
 10
1258.0
 20
3354.666666666666
 30
0.0
 11
1258.0
 21
3345.333333333333
 31
0.0
 12
1230.0
 22
3350.0
 32
0.0
 13
1230.0
 23
3350.0
 33
0.0
  0
SOLID
  5
14A8
330
12B1
100
AcDbEntity
  8
SUNPO
 62
   144
100
AcDbTrace
 10
1742.0
 20
3354.666666666666
 30
0.0
 11
1742.0
 21
3345.333333333333
 31
0.0
 12
1770.0
 22
3350.0
 32
0.0
 13
1770.0
 23
3350.0
 33
0.0
  0
MTEXT
  5
14A9
330
12B1
100
AcDbEntity
  8
SUNPO
 62
     7
100
AcDbMText
 10
1500.0
 20
3381.499999999999
 30
0.0
 40
38.0
 41
0.0
 71
     5
 72
     1
  1
\A2;540
  7
ADD
1001
ACAD
1000
MTEXTBEGIN
1070
    73
1070
     1
1070
    44
1040
1.0
1070
    74
1070
     0
1000
MTEXTEND
1000
MTEXTBEGIN
1070
    73
1070
     1
1070
    44
1040
1.0
1070
    74
1070
     0
1000
MTEXTEND
1000
MTEXTBEGIN
1070
    73
1070
     1
1070
    44
1040
1.0
1070
    74
1070
     0
1000
MTEXTEND
1000
MTEXTBEGIN
1070
    73
1070
     1
1070
    44
1040
1.0
1070
    74
1070
     0
1000
MTEXTEND
1000
MTEXTBEGIN
1070
    73
1070
     1
1070
    44
1040
1.0
1070
    74
1070
     0
1000
MTEXTEND
1000
MTEXTBEGIN
1070
    73
1070
     1
1070
    44
1040
1.0
1070
    74
1070
     0
1000
MTEXTEND
1000
MTEXTBEGIN
1070
    73
1070
     1
1070
    44
1040
1.0
1070
    74
1070
     0
1000
MTEXTEND
1000
MTEXTBEGIN
1070
    73
1070
     1
1070
    44
1040
1.0
1070
    74
1070
     0
1000
MTEXTEND
1000
MTEXTBEGIN
1070
    73
1070
     1
1070
    44
1040
1.0
1070
    74
1070
     0
1000
MTEXTEND
1000
MTEXTBEGIN
1070
    73
1070
     1
1070
    44
1040
1.0
1070
    74
1070
     0
1000
MTEXTEND
1000
MTEXTBEGIN
1070
    73
1070
     1
1070
    44
1040
1.0
1070
    74
1070
     0
1000
MTEXTEND
1000
MTEXTBEGIN
1070
    73
1070
     1
1070
    44
1040
1.0
1070
    74
1070
     0
1000
MTEXTEND
1000
MTEXTBEGIN
1070
    73
1070
     1
1070
    44
1040
1.0
1070
    74
1070
     0
1000
MTEXTEND
1000
MTEXTBEGIN
1070
    73
1070
     1
1070
    44
1040
1.0
1070
    74
1070
     0
1000
MTEXTEND
1000
MTEXTBEGIN
1070
    73
1070
     1
1070
    44
1040
1.0
1070
    74
1070
     0
1000
MTEXTEND
  0
POINT
  5
14AA
330
12B1
100
AcDbEntity
  8
DEFPOINTS
 62
     0
100
AcDbPoint
 10
1230.0
 20
2860.0
 30
0.0
  0
POINT
  5
14AB
330
12B1
100
AcDbEntity
  8
DEFPOINTS
 62
     0
100
AcDbPoint
 10
1770.0
 20
2860.0
 30
0.0
  0
POINT
  5
14AC
330
12B1
100
AcDbEntity
  8
DEFPOINTS
 62
     0
100
AcDbPoint
 10
1770.0
 20
3350.0
 30
0.0
  0
ENDBLK
  5
12BC
330
12B1
100
AcDbEntity
  8
0
100
AcDbBlockEnd
  0
BLOCK
  5
1556
330
154A
100
AcDbEntity
  8
0
100
AcDbBlockBegin
  2
*D14
 70
     1
 10
0.0
 20
0.0
 30
0.0
  3
*D14
  1

  0
LINE
  5
154B
330
154A
100
AcDbEntity
  8
SUNPO
 62
   144
100
AcDbLine
 10
2630.0
 20
2900.0
 30
0.0
 11
2540.0
 21
2900.0
 31
0.0
  0
LINE
  5
154C
330
154A
100
AcDbEntity
  8
SUNPO
 62
   144
100
AcDbLine
 10
2630.0
 20
2850.0
 30
0.0
 11
2540.0
 21
2850.0
 31
0.0
  0
LINE
  5
154D
330
154A
100
AcDbEntity
  8
SUNPO
 62
   144
100
AcDbLine
 10
2550.0
 20
2928.0
 30
0.0
 11
2550.0
 21
2956.0
 31
0.0
  0
LINE
  5
154E
330
154A
100
AcDbEntity
  8
SUNPO
 62
   144
100
AcDbLine
 10
2550.0
 20
2822.0
 30
0.0
 11
2550.0
 21
2794.0
 31
0.0
  0
LINE
  5
154F
330
154A
100
AcDbEntity
  8
SUNPO
 62
   144
100
AcDbLine
 10
2550.0
 20
2900.0
 30
0.0
 11
2550.0
 21
2850.0
 31
0.0
  0
SOLID
  5
1550
330
154A
100
AcDbEntity
  8
SUNPO
 62
   144
100
AcDbTrace
 10
2545.333333333333
 20
2928.0
 30
0.0
 11
2554.666666666666
 21
2928.0
 31
0.0
 12
2550.0
 22
2900.0
 32
0.0
 13
2550.0
 23
2900.0
 33
0.0
  0
SOLID
  5
1551
330
154A
100
AcDbEntity
  8
SUNPO
 62
   144
100
AcDbTrace
 10
2545.333333333333
 20
2822.0
 30
0.0
 11
2554.666666666666
 21
2822.0
 31
0.0
 12
2550.0
 22
2850.0
 32
0.0
 13
2550.0
 23
2850.0
 33
0.0
  0
MTEXT
  5
1552
330
154A
100
AcDbEntity
  8
SUNPO
 62
     7
100
AcDbMText
 10
2518.499999999999
 20
2875.0
 30
0.0
 40
38.0
 41
0.0
 71
     5
 72
     1
  1
\A2;50
  7
ADD
 11
0.0000000000000001
 21
1.0
 31
0.0
1001
ACAD
1000
MTEXTBEGIN
1070
    73
1070
     1
1070
    44
1040
1.0
1070
    74
1070
     0
1000
MTEXTEND
1000
MTEXTBEGIN
1070
    73
1070
     1
1070
    44
1040
1.0
1070
    74
1070
     0
1000
MTEXTEND
1000
MTEXTBEGIN
1070
    73
1070
     1
1070
    44
1040
1.0
1070
    74
1070
     0
1000
MTEXTEND
1000
MTEXTBEGIN
1070
    73
1070
     1
1070
    44
1040
1.0
1070
    74
1070
     0
1000
MTEXTEND
1000
MTEXTBEGIN
1070
    73
1070
     1
1070
    44
1040
1.0
1070
    74
1070
     0
1000
MTEXTEND
1000
MTEXTBEGIN
1070
    73
1070
     1
1070
    44
1040
1.0
1070
    74
1070
     0
1000
MTEXTEND
1000
MTEXTBEGIN
1070
    73
1070
     1
1070
    44
1040
1.0
1070
    74
1070
     0
1000
MTEXTEND
1000
MTEXTBEGIN
1070
    73
1070
     1
1070
    44
1040
1.0
1070
    74
1070
     0
1000
MTEXTEND
1000
MTEXTBEGIN
1070
    73
1070
     1
1070
    44
1040
1.0
1070
    74
1070
     0
1000
MTEXTEND
1000
MTEXTBEGIN
1070
    73
1070
     1
1070
    44
1040
1.0
1070
    74
1070
     0
1000
MTEXTEND
1000
MTEXTBEGIN
1070
    73
1070
     1
1070
    44
1040
1.0
1070
    74
1070
     0
1000
MTEXTEND
1000
MTEXTBEGIN
1070
    73
1070
     1
1070
    44
1040
1.0
1070
    74
1070
     0
1000
MTEXTEND
1000
MTEXTBEGIN
1070
    73
1070
     1
1070
    44
1040
1.0
1070
    74
1070
     0
1000
MTEXTEND
1000
MTEXTBEGIN
1070
    73
1070
     1
1070
    44
1040
1.0
1070
    74
1070
     0
1000
MTEXTEND
1000
MTEXTBEGIN
1070
    73
1070
     1
1070
    44
1040
1.0
1070
    74
1070
     0
1000
MTEXTEND
  0
POINT
  5
1553
330
154A
100
AcDbEntity
  8
DEFPOINTS
 62
     0
100
AcDbPoint
 10
2650.0
 20
2900.0
 30
0.0
  0
POINT
  5
1554
330
154A
100
AcDbEntity
  8
DEFPOINTS
 62
     0
100
AcDbPoint
 10
2650.0
 20
2850.0
 30
0.0
  0
POINT
  5
1555
330
154A
100
AcDbEntity
  8
DEFPOINTS
 62
     0
100
AcDbPoint
 10
2550.0
 20
2850.0
 30
0.0
  0
ENDBLK
  5
1557
330
154A
100
AcDbEntity
  8
0
100
AcDbBlockEnd
  0
BLOCK
  5
15EE
330
15E2
100
AcDbEntity
  8
0
100
AcDbBlockBegin
  2
*D15
 70
     1
 10
0.0
 20
0.0
 30
0.0
  3
*D15
  1

  0
LINE
  5
15E3
330
15E2
100
AcDbEntity
  8
SUNPO
 62
   144
100
AcDbLine
 10
2769.999999999999
 20
2890.0
 30
0.0
 11
2910.0
 21
2890.0
 31
0.0
  0
LINE
  5
15E4
330
15E2
100
AcDbEntity
  8
SUNPO
 62
   144
100
AcDbLine
 10
2770.0
 20
2850.0
 30
0.0
 11
2910.0
 21
2850.0
 31
0.0
  0
LINE
  5
15E5
330
15E2
100
AcDbEntity
  8
SUNPO
 62
   144
100
AcDbLine
 10
2900.0
 20
2918.0
 30
0.0
 11
2900.0
 21
2946.0
 31
0.0
  0
LINE
  5
15E6
330
15E2
100
AcDbEntity
  8
SUNPO
 62
   144
100
AcDbLine
 10
2900.0
 20
2822.0
 30
0.0
 11
2900.0
 21
2794.0
 31
0.0
  0
LINE
  5
15E7
330
15E2
100
AcDbEntity
  8
SUNPO
 62
   144
100
AcDbLine
 10
2900.0
 20
2890.0
 30
0.0
 11
2900.0
 21
2850.0
 31
0.0
  0
SOLID
  5
15E8
330
15E2
100
AcDbEntity
  8
SUNPO
 62
   144
100
AcDbTrace
 10
2895.333333333333
 20
2918.0
 30
0.0
 11
2904.666666666667
 21
2918.0
 31
0.0
 12
2900.0
 22
2890.0
 32
0.0
 13
2900.0
 23
2890.0
 33
0.0
  0
SOLID
  5
15E9
330
15E2
100
AcDbEntity
  8
SUNPO
 62
   144
100
AcDbTrace
 10
2895.333333333333
 20
2822.0
 30
0.0
 11
2904.666666666667
 21
2822.0
 31
0.0
 12
2900.0
 22
2850.0
 32
0.0
 13
2900.0
 23
2850.0
 33
0.0
  0
MTEXT
  5
15EA
330
15E2
100
AcDbEntity
  8
SUNPO
 62
     7
100
AcDbMText
 10
2868.499999999999
 20
2870.0
 30
0.0
 40
38.0
 41
0.0
 71
     5
 72
     1
  1
\A2;40
  7
ADD
 11
0.0000000000000001
 21
1.0
 31
0.0
1001
ACAD
1000
MTEXTBEGIN
1070
    73
1070
     1
1070
    44
1040
1.0
1070
    74
1070
     0
1000
MTEXTEND
1000
MTEXTBEGIN
1070
    73
1070
     1
1070
    44
1040
1.0
1070
    74
1070
     0
1000
MTEXTEND
1000
MTEXTBEGIN
1070
    73
1070
     1
1070
    44
1040
1.0
1070
    74
1070
     0
1000
MTEXTEND
1000
MTEXTBEGIN
1070
    73
1070
     1
1070
    44
1040
1.0
1070
    74
1070
     0
1000
MTEXTEND
1000
MTEXTBEGIN
1070
    73
1070
     1
1070
    44
1040
1.0
1070
    74
1070
     0
1000
MTEXTEND
1000
MTEXTBEGIN
1070
    73
1070
     1
1070
    44
1040
1.0
1070
    74
1070
     0
1000
MTEXTEND
1000
MTEXTBEGIN
1070
    73
1070
     1
1070
    44
1040
1.0
1070
    74
1070
     0
1000
MTEXTEND
1000
MTEXTBEGIN
1070
    73
1070
     1
1070
    44
1040
1.0
1070
    74
1070
     0
1000
MTEXTEND
1000
MTEXTBEGIN
1070
    73
1070
     1
1070
    44
1040
1.0
1070
    74
1070
     0
1000
MTEXTEND
1000
MTEXTBEGIN
1070
    73
1070
     1
1070
    44
1040
1.0
1070
    74
1070
     0
1000
MTEXTEND
1000
MTEXTBEGIN
1070
    73
1070
     1
1070
    44
1040
1.0
1070
    74
1070
     0
1000
MTEXTEND
1000
MTEXTBEGIN
1070
    73
1070
     1
1070
    44
1040
1.0
1070
    74
1070
     0
1000
MTEXTEND
1000
MTEXTBEGIN
1070
    73
1070
     1
1070
    44
1040
1.0
1070
    74
1070
     0
1000
MTEXTEND
1000
MTEXTBEGIN
1070
    73
1070
     1
1070
    44
1040
1.0
1070
    74
1070
     0
1000
MTEXTEND
1000
MTEXTBEGIN
1070
    73
1070
     1
1070
    44
1040
1.0
1070
    74
1070
     0
1000
MTEXTEND
  0
POINT
  5
15EB
330
15E2
100
AcDbEntity
  8
DEFPOINTS
 62
     0
100
AcDbPoint
 10
2750.0
 20
2890.0
 30
0.0
  0
POINT
  5
15EC
330
15E2
100
AcDbEntity
  8
DEFPOINTS
 62
     0
100
AcDbPoint
 10
2750.0
 20
2850.0
 30
0.0
  0
POINT
  5
15ED
330
15E2
100
AcDbEntity
  8
DEFPOINTS
 62
     0
100
AcDbPoint
 10
2900.0
 20
2850.0
 30
0.0
  0
ENDBLK
  5
15EF
330
15E2
100
AcDbEntity
  8
0
100
AcDbBlockEnd
  0
BLOCK
  5
1621
330
1615
100
AcDbEntity
  8
0
100
AcDbBlockBegin
  2
*D16
 70
     1
 10
0.0
 20
0.0
 30
0.0
  3
*D16
  1

  0
LINE
  5
1616
330
1615
100
AcDbEntity
  8
SUNPO
 62
   144
100
AcDbLine
 10
2649.999999999999
 20
3070.0
 30
0.0
 11
2649.999999999999
 21
3160.0
 31
0.0
  0
LINE
  5
1617
330
1615
100
AcDbEntity
  8
SUNPO
 62
   144
100
AcDbLine
 10
2750.0
 20
3070.0
 30
0.0
 11
2750.0
 21
3160.0
 31
0.0
  0
LINE
  5
1618
330
1615
100
AcDbEntity
  8
SUNPO
 62
   144
100
AcDbLine
 10
2621.999999999999
 20
3150.0
 30
0.0
 11
2593.999999999999
 21
3150.0
 31
0.0
  0
LINE
  5
1619
330
1615
100
AcDbEntity
  8
SUNPO
 62
   144
100
AcDbLine
 10
2778.0
 20
3150.0
 30
0.0
 11
2805.999999999999
 21
3150.0
 31
0.0
  0
LINE
  5
161A
330
1615
100
AcDbEntity
  8
SUNPO
 62
   144
100
AcDbLine
 10
2649.999999999999
 20
3150.0
 30
0.0
 11
2750.0
 21
3150.0
 31
0.0
  0
SOLID
  5
161B
330
1615
100
AcDbEntity
  8
SUNPO
 62
   144
100
AcDbTrace
 10
2621.999999999999
 20
3154.666666666666
 30
0.0
 11
2621.999999999999
 21
3145.333333333333
 31
0.0
 12
2649.999999999999
 22
3150.0
 32
0.0
 13
2649.999999999999
 23
3150.0
 33
0.0
  0
SOLID
  5
161C
330
1615
100
AcDbEntity
  8
SUNPO
 62
   144
100
AcDbTrace
 10
2778.0
 20
3154.666666666666
 30
0.0
 11
2778.0
 21
3145.333333333333
 31
0.0
 12
2750.0
 22
3150.0
 32
0.0
 13
2750.0
 23
3150.0
 33
0.0
  0
MTEXT
  5
161D
330
1615
100
AcDbEntity
  8
SUNPO
 62
     7
100
AcDbMText
 10
2699.999999999999
 20
3181.5
 30
0.0
 40
38.0
 41
0.0
 71
     5
 72
     1
  1
\A2;100
  7
ADD
1001
ACAD
1000
MTEXTBEGIN
1070
    73
1070
     1
1070
    44
1040
1.0
1070
    74
1070
     0
1000
MTEXTEND
1000
MTEXTBEGIN
1070
    73
1070
     1
1070
    44
1040
1.0
1070
    74
1070
     0
1000
MTEXTEND
1000
MTEXTBEGIN
1070
    73
1070
     1
1070
    44
1040
1.0
1070
    74
1070
     0
1000
MTEXTEND
1000
MTEXTBEGIN
1070
    73
1070
     1
1070
    44
1040
1.0
1070
    74
1070
     0
1000
MTEXTEND
1000
MTEXTBEGIN
1070
    73
1070
     1
1070
    44
1040
1.0
1070
    74
1070
     0
1000
MTEXTEND
1000
MTEXTBEGIN
1070
    73
1070
     1
1070
    44
1040
1.0
1070
    74
1070
     0
1000
MTEXTEND
1000
MTEXTBEGIN
1070
    73
1070
     1
1070
    44
1040
1.0
1070
    74
1070
     0
1000
MTEXTEND
1000
MTEXTBEGIN
1070
    73
1070
     1
1070
    44
1040
1.0
1070
    74
1070
     0
1000
MTEXTEND
1000
MTEXTBEGIN
1070
    73
1070
     1
1070
    44
1040
1.0
1070
    74
1070
     0
1000
MTEXTEND
1000
MTEXTBEGIN
1070
    73
1070
     1
1070
    44
1040
1.0
1070
    74
1070
     0
1000
MTEXTEND
1000
MTEXTBEGIN
1070
    73
1070
     1
1070
    44
1040
1.0
1070
    74
1070
     0
1000
MTEXTEND
1000
MTEXTBEGIN
1070
    73
1070
     1
1070
    44
1040
1.0
1070
    74
1070
     0
1000
MTEXTEND
1000
MTEXTBEGIN
1070
    73
1070
     1
1070
    44
1040
1.0
1070
    74
1070
     0
1000
MTEXTEND
1000
MTEXTBEGIN
1070
    73
1070
     1
1070
    44
1040
1.0
1070
    74
1070
     0
1000
MTEXTEND
1000
MTEXTBEGIN
1070
    73
1070
     1
1070
    44
1040
1.0
1070
    74
1070
     0
1000
MTEXTEND
  0
POINT
  5
161E
330
1615
100
AcDbEntity
  8
DEFPOINTS
 62
     0
100
AcDbPoint
 10
2649.999999999999
 20
3050.0
 30
0.0
  0
POINT
  5
161F
330
1615
100
AcDbEntity
  8
DEFPOINTS
 62
     0
100
AcDbPoint
 10
2750.0
 20
3050.0
 30
0.0
  0
POINT
  5
1620
330
1615
100
AcDbEntity
  8
DEFPOINTS
 62
     0
100
AcDbPoint
 10
2750.0
 20
3150.0
 30
0.0
  0
ENDBLK
  5
1622
330
1615
100
AcDbEntity
  8
0
100
AcDbBlockEnd
  0
BLOCK
  5
1660
330
1656
100
AcDbEntity
  8
0
100
AcDbBlockBegin
  2
*D17
 70
     1
 10
0.0
 20
0.0
 30
0.0
  3
*D17
  1

  0
LINE
  5
1657
330
1656
100
AcDbEntity
  8
SUNPO
 62
   144
100
AcDbLine
 10
2629.999999999999
 20
1680.0
 30
0.0
 11
2540.0
 21
1680.0
 31
0.0
  0
LINE
  5
1658
330
1656
100
AcDbEntity
  8
SUNPO
 62
   144
100
AcDbLine
 10
2629.999999999999
 20
1480.0
 30
0.0
 11
2540.0
 21
1480.0
 31
0.0
  0
LINE
  5
1659
330
1656
100
AcDbEntity
  8
SUNPO
 62
   144
100
AcDbLine
 10
2550.0
 20
1652.0
 30
0.0
 11
2550.0
 21
1508.0
 31
0.0
  0
SOLID
  5
165A
330
1656
100
AcDbEntity
  8
SUNPO
 62
   144
100
AcDbTrace
 10
2545.333333333333
 20
1652.0
 30
0.0
 11
2554.666666666666
 21
1652.0
 31
0.0
 12
2550.0
 22
1680.0
 32
0.0
 13
2550.0
 23
1680.0
 33
0.0
  0
SOLID
  5
165B
330
1656
100
AcDbEntity
  8
SUNPO
 62
   144
100
AcDbTrace
 10
2545.333333333333
 20
1508.0
 30
0.0
 11
2554.666666666666
 21
1508.0
 31
0.0
 12
2550.0
 22
1480.0
 32
0.0
 13
2550.0
 23
1480.0
 33
0.0
  0
MTEXT
  5
165C
330
1656
100
AcDbEntity
  8
SUNPO
 62
     7
100
AcDbMText
 10
2518.499999999999
 20
1580.0
 30
0.0
 40
38.0
 41
0.0
 71
     5
 72
     1
  1
\A2;200
  7
ADD
 11
0.0000000000000001
 21
1.0
 31
0.0
1001
ACAD
1000
MTEXTBEGIN
1070
    73
1070
     1
1070
    44
1040
1.0
1070
    74
1070
     0
1000
MTEXTEND
1000
MTEXTBEGIN
1070
    73
1070
     1
1070
    44
1040
1.0
1070
    74
1070
     0
1000
MTEXTEND
1000
MTEXTBEGIN
1070
    73
1070
     1
1070
    44
1040
1.0
1070
    74
1070
     0
1000
MTEXTEND
1000
MTEXTBEGIN
1070
    73
1070
     1
1070
    44
1040
1.0
1070
    74
1070
     0
1000
MTEXTEND
1000
MTEXTBEGIN
1070
    73
1070
     1
1070
    44
1040
1.0
1070
    74
1070
     0
1000
MTEXTEND
1000
MTEXTBEGIN
1070
    73
1070
     1
1070
    44
1040
1.0
1070
    74
1070
     0
1000
MTEXTEND
1000
MTEXTBEGIN
1070
    73
1070
     1
1070
    44
1040
1.0
1070
    74
1070
     0
1000
MTEXTEND
1000
MTEXTBEGIN
1070
    73
1070
     1
1070
    44
1040
1.0
1070
    74
1070
     0
1000
MTEXTEND
1000
MTEXTBEGIN
1070
    73
1070
     1
1070
    44
1040
1.0
1070
    74
1070
     0
1000
MTEXTEND
1000
MTEXTBEGIN
1070
    73
1070
     1
1070
    44
1040
1.0
1070
    74
1070
     0
1000
MTEXTEND
1000
MTEXTBEGIN
1070
    73
1070
     1
1070
    44
1040
1.0
1070
    74
1070
     0
1000
MTEXTEND
1000
MTEXTBEGIN
1070
    73
1070
     1
1070
    44
1040
1.0
1070
    74
1070
     0
1000
MTEXTEND
1000
MTEXTBEGIN
1070
    73
1070
     1
1070
    44
1040
1.0
1070
    74
1070
     0
1000
MTEXTEND
1000
MTEXTBEGIN
1070
    73
1070
     1
1070
    44
1040
1.0
1070
    74
1070
     0
1000
MTEXTEND
1000
MTEXTBEGIN
1070
    73
1070
     1
1070
    44
1040
1.0
1070
    74
1070
     0
1000
MTEXTEND
  0
POINT
  5
165D
330
1656
100
AcDbEntity
  8
DEFPOINTS
 62
     0
100
AcDbPoint
 10
2649.999999999999
 20
1680.0
 30
0.0
  0
POINT
  5
165E
330
1656
100
AcDbEntity
  8
DEFPOINTS
 62
     0
100
AcDbPoint
 10
2649.999999999999
 20
1480.0
 30
0.0
  0
POINT
  5
165F
330
1656
100
AcDbEntity
  8
DEFPOINTS
 62
     0
100
AcDbPoint
 10
2550.0
 20
1480.0
 30
0.0
  0
ENDBLK
  5
1661
330
1656
100
AcDbEntity
  8
0
100
AcDbBlockEnd
  0
BLOCK
  5
167C
330
1672
100
AcDbEntity
  8
0
100
AcDbBlockBegin
  2
*D18
 70
     1
 10
0.0
 20
0.0
 30
0.0
  3
*D18
  1

  0
LINE
  5
1673
330
1672
100
AcDbEntity
  8
SUNPO
 62
   144
100
AcDbLine
 10
2629.999999999999
 20
1780.0
 30
0.0
 11
2440.0
 21
1780.0
 31
0.0
  0
LINE
  5
1674
330
1672
100
AcDbEntity
  8
SUNPO
 62
   144
100
AcDbLine
 10
2629.999999999999
 20
1380.0
 30
0.0
 11
2440.0
 21
1380.0
 31
0.0
  0
LINE
  5
1675
330
1672
100
AcDbEntity
  8
SUNPO
 62
   144
100
AcDbLine
 10
2450.0
 20
1752.0
 30
0.0
 11
2450.0
 21
1408.0
 31
0.0
  0
SOLID
  5
1676
330
1672
100
AcDbEntity
  8
SUNPO
 62
   144
100
AcDbTrace
 10
2445.333333333334
 20
1752.0
 30
0.0
 11
2454.666666666666
 21
1752.0
 31
0.0
 12
2450.0
 22
1780.0
 32
0.0
 13
2450.0
 23
1780.0
 33
0.0
  0
SOLID
  5
1677
330
1672
100
AcDbEntity
  8
SUNPO
 62
   144
100
AcDbTrace
 10
2445.333333333334
 20
1408.0
 30
0.0
 11
2454.666666666666
 21
1408.0
 31
0.0
 12
2450.0
 22
1380.0
 32
0.0
 13
2450.0
 23
1380.0
 33
0.0
  0
MTEXT
  5
1678
330
1672
100
AcDbEntity
  8
SUNPO
 62
     7
100
AcDbMText
 10
2418.499999999999
 20
1580.0
 30
0.0
 40
38.0
 41
0.0
 71
     5
 72
     1
  1
\A2;400
  7
ADD
 11
0.0000000000000001
 21
1.0
 31
0.0
1001
ACAD
1000
MTEXTBEGIN
1070
    73
1070
     1
1070
    44
1040
1.0
1070
    74
1070
     0
1000
MTEXTEND
1000
MTEXTBEGIN
1070
    73
1070
     1
1070
    44
1040
1.0
1070
    74
1070
     0
1000
MTEXTEND
1000
MTEXTBEGIN
1070
    73
1070
     1
1070
    44
1040
1.0
1070
    74
1070
     0
1000
MTEXTEND
1000
MTEXTBEGIN
1070
    73
1070
     1
1070
    44
1040
1.0
1070
    74
1070
     0
1000
MTEXTEND
1000
MTEXTBEGIN
1070
    73
1070
     1
1070
    44
1040
1.0
1070
    74
1070
     0
1000
MTEXTEND
1000
MTEXTBEGIN
1070
    73
1070
     1
1070
    44
1040
1.0
1070
    74
1070
     0
1000
MTEXTEND
1000
MTEXTBEGIN
1070
    73
1070
     1
1070
    44
1040
1.0
1070
    74
1070
     0
1000
MTEXTEND
1000
MTEXTBEGIN
1070
    73
1070
     1
1070
    44
1040
1.0
1070
    74
1070
     0
1000
MTEXTEND
1000
MTEXTBEGIN
1070
    73
1070
     1
1070
    44
1040
1.0
1070
    74
1070
     0
1000
MTEXTEND
1000
MTEXTBEGIN
1070
    73
1070
     1
1070
    44
1040
1.0
1070
    74
1070
     0
1000
MTEXTEND
1000
MTEXTBEGIN
1070
    73
1070
     1
1070
    44
1040
1.0
1070
    74
1070
     0
1000
MTEXTEND
1000
MTEXTBEGIN
1070
    73
1070
     1
1070
    44
1040
1.0
1070
    74
1070
     0
1000
MTEXTEND
1000
MTEXTBEGIN
1070
    73
1070
     1
1070
    44
1040
1.0
1070
    74
1070
     0
1000
MTEXTEND
1000
MTEXTBEGIN
1070
    73
1070
     1
1070
    44
1040
1.0
1070
    74
1070
     0
1000
MTEXTEND
1000
MTEXTBEGIN
1070
    73
1070
     1
1070
    44
1040
1.0
1070
    74
1070
     0
1000
MTEXTEND
  0
POINT
  5
1679
330
1672
100
AcDbEntity
  8
DEFPOINTS
 62
     0
100
AcDbPoint
 10
2649.999999999999
 20
1780.0
 30
0.0
  0
POINT
  5
167A
330
1672
100
AcDbEntity
  8
DEFPOINTS
 62
     0
100
AcDbPoint
 10
2649.999999999999
 20
1380.0
 30
0.0
  0
POINT
  5
167B
330
1672
100
AcDbEntity
  8
DEFPOINTS
 62
     0
100
AcDbPoint
 10
2450.0
 20
1380.0
 30
0.0
  0
ENDBLK
  5
167D
330
1672
100
AcDbEntity
  8
0
100
AcDbBlockEnd
  0
BLOCK
  5
168B
330
167F
100
AcDbEntity
  8
0
100
AcDbBlockBegin
  2
*D19
 70
     1
 10
0.0
 20
0.0
 30
0.0
  3
*D19
  1

  0
LINE
  5
1680
330
167F
100
AcDbEntity
  8
SUNPO
 62
   144
100
AcDbLine
 10
2629.999999999999
 20
1780.0
 30
0.0
 11
2440.0
 21
1780.0
 31
0.0
  0
LINE
  5
1681
330
167F
100
AcDbEntity
  8
SUNPO
 62
   144
100
AcDbLine
 10
2629.999999999999
 20
1850.0
 30
0.0
 11
2440.0
 21
1850.0
 31
0.0
  0
LINE
  5
1682
330
167F
100
AcDbEntity
  8
SUNPO
 62
   144
100
AcDbLine
 10
2450.0
 20
1752.0
 30
0.0
 11
2450.0
 21
1724.0
 31
0.0
  0
LINE
  5
1683
330
167F
100
AcDbEntity
  8
SUNPO
 62
   144
100
AcDbLine
 10
2450.0
 20
1878.0
 30
0.0
 11
2450.0
 21
1906.0
 31
0.0
  0
LINE
  5
1684
330
167F
100
AcDbEntity
  8
SUNPO
 62
   144
100
AcDbLine
 10
2450.0
 20
1780.0
 30
0.0
 11
2450.0
 21
1850.0
 31
0.0
  0
SOLID
  5
1685
330
167F
100
AcDbEntity
  8
SUNPO
 62
   144
100
AcDbTrace
 10
2445.333333333334
 20
1752.0
 30
0.0
 11
2454.666666666666
 21
1752.0
 31
0.0
 12
2450.0
 22
1780.0
 32
0.0
 13
2450.0
 23
1780.0
 33
0.0
  0
SOLID
  5
1686
330
167F
100
AcDbEntity
  8
SUNPO
 62
   144
100
AcDbTrace
 10
2445.333333333334
 20
1878.0
 30
0.0
 11
2454.666666666666
 21
1878.0
 31
0.0
 12
2450.0
 22
1850.0
 32
0.0
 13
2450.0
 23
1850.0
 33
0.0
  0
MTEXT
  5
1687
330
167F
100
AcDbEntity
  8
SUNPO
 62
     7
100
AcDbMText
 10
2418.499999999999
 20
1815.0
 30
0.0
 40
38.0
 41
0.0
 71
     5
 72
     1
  1
\A2;70
  7
ADD
 11
0.0000000000000001
 21
1.0
 31
0.0
1001
ACAD
1000
MTEXTBEGIN
1070
    73
1070
     1
1070
    44
1040
1.0
1070
    74
1070
     0
1000
MTEXTEND
1000
MTEXTBEGIN
1070
    73
1070
     1
1070
    44
1040
1.0
1070
    74
1070
     0
1000
MTEXTEND
1000
MTEXTBEGIN
1070
    73
1070
     1
1070
    44
1040
1.0
1070
    74
1070
     0
1000
MTEXTEND
1000
MTEXTBEGIN
1070
    73
1070
     1
1070
    44
1040
1.0
1070
    74
1070
     0
1000
MTEXTEND
1000
MTEXTBEGIN
1070
    73
1070
     1
1070
    44
1040
1.0
1070
    74
1070
     0
1000
MTEXTEND
1000
MTEXTBEGIN
1070
    73
1070
     1
1070
    44
1040
1.0
1070
    74
1070
     0
1000
MTEXTEND
1000
MTEXTBEGIN
1070
    73
1070
     1
1070
    44
1040
1.0
1070
    74
1070
     0
1000
MTEXTEND
1000
MTEXTBEGIN
1070
    73
1070
     1
1070
    44
1040
1.0
1070
    74
1070
     0
1000
MTEXTEND
1000
MTEXTBEGIN
1070
    73
1070
     1
1070
    44
1040
1.0
1070
    74
1070
     0
1000
MTEXTEND
1000
MTEXTBEGIN
1070
    73
1070
     1
1070
    44
1040
1.0
1070
    74
1070
     0
1000
MTEXTEND
1000
MTEXTBEGIN
1070
    73
1070
     1
1070
    44
1040
1.0
1070
    74
1070
     0
1000
MTEXTEND
1000
MTEXTBEGIN
1070
    73
1070
     1
1070
    44
1040
1.0
1070
    74
1070
     0
1000
MTEXTEND
1000
MTEXTBEGIN
1070
    73
1070
     1
1070
    44
1040
1.0
1070
    74
1070
     0
1000
MTEXTEND
1000
MTEXTBEGIN
1070
    73
1070
     1
1070
    44
1040
1.0
1070
    74
1070
     0
1000
MTEXTEND
1000
MTEXTBEGIN
1070
    73
1070
     1
1070
    44
1040
1.0
1070
    74
1070
     0
1000
MTEXTEND
  0
POINT
  5
1688
330
167F
100
AcDbEntity
  8
DEFPOINTS
 62
     0
100
AcDbPoint
 10
2649.999999999999
 20
1780.0
 30
0.0
  0
POINT
  5
1689
330
167F
100
AcDbEntity
  8
DEFPOINTS
 62
     0
100
AcDbPoint
 10
2649.999999999999
 20
1850.0
 30
0.0
  0
POINT
  5
168A
330
167F
100
AcDbEntity
  8
DEFPOINTS
 62
     0
100
AcDbPoint
 10
2450.0
 20
1850.0
 30
0.0
  0
ENDBLK
  5
168C
330
167F
100
AcDbEntity
  8
0
100
AcDbBlockEnd
  0
BLOCK
  5
169A
330
168E
100
AcDbEntity
  8
0
100
AcDbBlockBegin
  2
*D20
 70
     1
 10
0.0
 20
0.0
 30
0.0
  3
*D20
  1

  0
LINE
  5
168F
330
168E
100
AcDbEntity
  8
SUNPO
 62
   144
100
AcDbLine
 10
2629.999999999999
 20
1380.0
 30
0.0
 11
2440.0
 21
1380.0
 31
0.0
  0
LINE
  5
1690
330
168E
100
AcDbEntity
  8
SUNPO
 62
   144
100
AcDbLine
 10
2629.999999999999
 20
1310.0
 30
0.0
 11
2440.0
 21
1310.0
 31
0.0
  0
LINE
  5
1691
330
168E
100
AcDbEntity
  8
SUNPO
 62
   144
100
AcDbLine
 10
2450.0
 20
1408.0
 30
0.0
 11
2450.0
 21
1436.0
 31
0.0
  0
LINE
  5
1692
330
168E
100
AcDbEntity
  8
SUNPO
 62
   144
100
AcDbLine
 10
2450.0
 20
1282.0
 30
0.0
 11
2450.0
 21
1254.0
 31
0.0
  0
LINE
  5
1693
330
168E
100
AcDbEntity
  8
SUNPO
 62
   144
100
AcDbLine
 10
2450.0
 20
1380.0
 30
0.0
 11
2450.0
 21
1310.0
 31
0.0
  0
SOLID
  5
1694
330
168E
100
AcDbEntity
  8
SUNPO
 62
   144
100
AcDbTrace
 10
2445.333333333334
 20
1408.0
 30
0.0
 11
2454.666666666666
 21
1408.0
 31
0.0
 12
2450.0
 22
1380.0
 32
0.0
 13
2450.0
 23
1380.0
 33
0.0
  0
SOLID
  5
1695
330
168E
100
AcDbEntity
  8
SUNPO
 62
   144
100
AcDbTrace
 10
2445.333333333334
 20
1282.0
 30
0.0
 11
2454.666666666666
 21
1282.0
 31
0.0
 12
2450.0
 22
1310.0
 32
0.0
 13
2450.0
 23
1310.0
 33
0.0
  0
MTEXT
  5
1696
330
168E
100
AcDbEntity
  8
SUNPO
 62
     7
100
AcDbMText
 10
2418.499999999999
 20
1345.0
 30
0.0
 40
38.0
 41
0.0
 71
     5
 72
     1
  1
\A2;70
  7
ADD
 11
0.0000000000000001
 21
1.0
 31
0.0
1001
ACAD
1000
MTEXTBEGIN
1070
    73
1070
     1
1070
    44
1040
1.0
1070
    74
1070
     0
1000
MTEXTEND
1000
MTEXTBEGIN
1070
    73
1070
     1
1070
    44
1040
1.0
1070
    74
1070
     0
1000
MTEXTEND
1000
MTEXTBEGIN
1070
    73
1070
     1
1070
    44
1040
1.0
1070
    74
1070
     0
1000
MTEXTEND
1000
MTEXTBEGIN
1070
    73
1070
     1
1070
    44
1040
1.0
1070
    74
1070
     0
1000
MTEXTEND
1000
MTEXTBEGIN
1070
    73
1070
     1
1070
    44
1040
1.0
1070
    74
1070
     0
1000
MTEXTEND
1000
MTEXTBEGIN
1070
    73
1070
     1
1070
    44
1040
1.0
1070
    74
1070
     0
1000
MTEXTEND
1000
MTEXTBEGIN
1070
    73
1070
     1
1070
    44
1040
1.0
1070
    74
1070
     0
1000
MTEXTEND
1000
MTEXTBEGIN
1070
    73
1070
     1
1070
    44
1040
1.0
1070
    74
1070
     0
1000
MTEXTEND
1000
MTEXTBEGIN
1070
    73
1070
     1
1070
    44
1040
1.0
1070
    74
1070
     0
1000
MTEXTEND
1000
MTEXTBEGIN
1070
    73
1070
     1
1070
    44
1040
1.0
1070
    74
1070
     0
1000
MTEXTEND
1000
MTEXTBEGIN
1070
    73
1070
     1
1070
    44
1040
1.0
1070
    74
1070
     0
1000
MTEXTEND
1000
MTEXTBEGIN
1070
    73
1070
     1
1070
    44
1040
1.0
1070
    74
1070
     0
1000
MTEXTEND
1000
MTEXTBEGIN
1070
    73
1070
     1
1070
    44
1040
1.0
1070
    74
1070
     0
1000
MTEXTEND
1000
MTEXTBEGIN
1070
    73
1070
     1
1070
    44
1040
1.0
1070
    74
1070
     0
1000
MTEXTEND
1000
MTEXTBEGIN
1070
    73
1070
     1
1070
    44
1040
1.0
1070
    74
1070
     0
1000
MTEXTEND
  0
POINT
  5
1697
330
168E
100
AcDbEntity
  8
DEFPOINTS
 62
     0
100
AcDbPoint
 10
2649.999999999999
 20
1380.0
 30
0.0
  0
POINT
  5
1698
330
168E
100
AcDbEntity
  8
DEFPOINTS
 62
     0
100
AcDbPoint
 10
2649.999999999999
 20
1310.0
 30
0.0
  0
POINT
  5
1699
330
168E
100
AcDbEntity
  8
DEFPOINTS
 62
     0
100
AcDbPoint
 10
2450.0
 20
1310.0
 30
0.0
  0
ENDBLK
  5
169B
330
168E
100
AcDbEntity
  8
0
100
AcDbBlockEnd
  0
BLOCK
  5
16B2
330
16AB
100
AcDbEntity
  8
0
100
AcDbBlockBegin
  2
*D21
 70
     1
 10
0.0
 20
0.0
 30
0.0
  3
*D21
  1

  0
LINE
  5
16AC
330
16AB
100
AcDbEntity
  8
SUNPO
 62
   144
100
AcDbLine
 10
1170.605868543347
 20
2313.344766355395
 30
0.0
 11
1291.433443894736
 21
2403.430797198538
 31
0.0
  0
MTEXT
  5
16AD
330
16AB
100
AcDbEntity
  8
SUNPO
 62
     7
100
AcDbMText
 10
1200.967455095488
 20
2375.273136603842
 30
0.0
 40
38.0
 41
0.0
 71
     5
 72
     1
  1
\A2;R70
  7
ADD
 11
0.8016995520945245
 21
0.5977272188644572
 31
0.0
1001
ACAD
1000
MTEXTBEGIN
1070
    73
1070
     1
1070
    44
1040
1.0
1070
    74
1070
     0
1000
MTEXTEND
1000
MTEXTBEGIN
1070
    73
1070
     1
1070
    44
1040
1.0
1070
    74
1070
     0
1000
MTEXTEND
1000
MTEXTBEGIN
1070
    73
1070
     1
1070
    44
1040
1.0
1070
    74
1070
     0
1000
MTEXTEND
1000
MTEXTBEGIN
1070
    73
1070
     1
1070
    44
1040
1.0
1070
    74
1070
     0
1000
MTEXTEND
1000
MTEXTBEGIN
1070
    73
1070
     1
1070
    44
1040
1.0
1070
    74
1070
     0
1000
MTEXTEND
1000
MTEXTBEGIN
1070
    73
1070
     1
1070
    44
1040
1.0
1070
    74
1070
     0
1000
MTEXTEND
1000
MTEXTBEGIN
1070
    73
1070
     1
1070
    44
1040
1.0
1070
    74
1070
     0
1000
MTEXTEND
1000
MTEXTBEGIN
1070
    73
1070
     1
1070
    44
1040
1.0
1070
    74
1070
     0
1000
MTEXTEND
1000
MTEXTBEGIN
1070
    73
1070
     1
1070
    44
1040
1.0
1070
    74
1070
     0
1000
MTEXTEND
1000
MTEXTBEGIN
1070
    73
1070
     1
1070
    44
1040
1.0
1070
    74
1070
     0
1000
MTEXTEND
1000
MTEXTBEGIN
1070
    73
1070
     1
1070
    44
1040
1.0
1070
    74
1070
     0
1000
MTEXTEND
1000
MTEXTBEGIN
1070
    73
1070
     1
1070
    44
1040
1.0
1070
    74
1070
     0
1000
MTEXTEND
1000
MTEXTBEGIN
1070
    73
1070
     1
1070
    44
1040
1.0
1070
    74
1070
     0
1000
MTEXTEND
1000
MTEXTBEGIN
1070
    73
1070
     1
1070
    44
1040
1.0
1070
    74
1070
     0
1000
MTEXTEND
1000
MTEXTBEGIN
1070
    73
1070
     1
1070
    44
1040
1.0
1070
    74
1070
     0
1000
MTEXTEND
  0
LINE
  5
16AE
330
16AB
100
AcDbEntity
  8
SUNPO
 62
   144
100
AcDbLine
 10
1370.0
 20
2462.008064647255
 30
0.0
 11
1313.881031353383
 21
2420.167159326743
 31
0.0
  0
SOLID
  5
16AF
330
16AB
100
AcDbEntity
  8
SUNPO
 62
   144
100
AcDbTrace
 10
1288.644050206702
 20
2407.172061774979
 30
0.0
 11
1294.22283758277
 21
2399.689532622097
 31
0.0
 12
1313.881031353383
 22
2420.167159326743
 32
0.0
 13
1313.881031353383
 23
2420.167159326743
 33
0.0
  0
POINT
  5
16B0
330
16AB
100
AcDbEntity
  8
DEFPOINTS
 62
     0
100
AcDbPoint
 10
1313.881031353383
 20
2420.167159326743
 30
0.0
  0
POINT
  5
16B1
330
16AB
100
AcDbEntity
  8
DEFPOINTS
 62
     0
100
AcDbPoint
 10
1370.0
 20
2462.008064647255
 30
0.0
  0
ENDBLK
  5
16B3
330
16AB
100
AcDbEntity
  8
0
100
AcDbBlockEnd
  0
BLOCK
  5
16CB
330
16C4
100
AcDbEntity
  8
0
100
AcDbBlockBegin
  2
*D22
 70
     1
 10
0.0
 20
0.0
 30
0.0
  3
*D22
  1

  0
LINE
  5
16C5
330
16C4
100
AcDbEntity
  8
SUNPO
 62
   144
100
AcDbLine
 10
2864.126015137951
 20
3008.981392709498
 30
0.0
 11
2757.918996215326
 21
2902.047464277329
 31
0.0
  0
MTEXT
  5
16C6
330
16C4
100
AcDbEntity
  8
SUNPO
 62
     7
100
AcDbMText
 10
2798.538483529837
 20
2987.64539783824
 30
0.0
 40
38.0
 41
0.0
 71
     5
 72
     1
  1
\A2;R40
  7
ADD
 11
0.7046911208136307
 21
0.7095142170854852
 31
0.0
1001
ACAD
1000
MTEXTBEGIN
1070
    73
1070
     1
1070
    44
1040
1.0
1070
    74
1070
     0
1000
MTEXTEND
1000
MTEXTBEGIN
1070
    73
1070
     1
1070
    44
1040
1.0
1070
    74
1070
     0
1000
MTEXTEND
1000
MTEXTBEGIN
1070
    73
1070
     1
1070
    44
1040
1.0
1070
    74
1070
     0
1000
MTEXTEND
1000
MTEXTBEGIN
1070
    73
1070
     1
1070
    44
1040
1.0
1070
    74
1070
     0
1000
MTEXTEND
1000
MTEXTBEGIN
1070
    73
1070
     1
1070
    44
1040
1.0
1070
    74
1070
     0
1000
MTEXTEND
1000
MTEXTBEGIN
1070
    73
1070
     1
1070
    44
1040
1.0
1070
    74
1070
     0
1000
MTEXTEND
1000
MTEXTBEGIN
1070
    73
1070
     1
1070
    44
1040
1.0
1070
    74
1070
     0
1000
MTEXTEND
1000
MTEXTBEGIN
1070
    73
1070
     1
1070
    44
1040
1.0
1070
    74
1070
     0
1000
MTEXTEND
1000
MTEXTBEGIN
1070
    73
1070
     1
1070
    44
1040
1.0
1070
    74
1070
     0
1000
MTEXTEND
1000
MTEXTBEGIN
1070
    73
1070
     1
1070
    44
1040
1.0
1070
    74
1070
     0
1000
MTEXTEND
1000
MTEXTBEGIN
1070
    73
1070
     1
1070
    44
1040
1.0
1070
    74
1070
     0
1000
MTEXTEND
1000
MTEXTBEGIN
1070
    73
1070
     1
1070
    44
1040
1.0
1070
    74
1070
     0
1000
MTEXTEND
1000
MTEXTBEGIN
1070
    73
1070
     1
1070
    44
1040
1.0
1070
    74
1070
     0
1000
MTEXTEND
1000
MTEXTBEGIN
1070
    73
1070
     1
1070
    44
1040
1.0
1070
    74
1070
     0
1000
MTEXTEND
1000
MTEXTBEGIN
1070
    73
1070
     1
1070
    44
1040
1.0
1070
    74
1070
     0
1000
MTEXTEND
  0
LINE
  5
16C7
330
16C4
100
AcDbEntity
  8
SUNPO
 62
   144
100
AcDbLine
 10
2709.999999999999
 20
2853.800497515516
 30
0.0
 11
2738.187644832545
 21
2882.181066198935
 31
0.0
  0
SOLID
  5
16C8
330
16C4
100
AcDbEntity
  8
SUNPO
 62
   144
100
AcDbTrace
 10
2754.607929868927
 20
2905.336022841126
 30
0.0
 11
2761.230062561725
 21
2898.758905713532
 31
0.0
 12
2738.187644832545
 22
2882.181066198935
 32
0.0
 13
2738.187644832545
 23
2882.181066198935
 33
0.0
  0
POINT
  5
16C9
330
16C4
100
AcDbEntity
  8
DEFPOINTS
 62
     0
100
AcDbPoint
 10
2738.187644832545
 20
2882.181066198935
 30
0.0
  0
POINT
  5
16CA
330
16C4
100
AcDbEntity
  8
DEFPOINTS
 62
     0
100
AcDbPoint
 10
2709.999999999999
 20
2853.800497515516
 30
0.0
  0
ENDBLK
  5
16CC
330
16C4
100
AcDbEntity
  8
0
100
AcDbBlockEnd
  0
BLOCK
  5
16D5
330
16CE
100
AcDbEntity
  8
0
100
AcDbBlockBegin
  2
*D23
 70
     1
 10
0.0
 20
0.0
 30
0.0
  3
*D23
  1

  0
LINE
  5
16CF
330
16CE
100
AcDbEntity
  8
SUNPO
 62
   144
100
AcDbLine
 10
1710.397641659334
 20
3153.721211298599
 30
0.0
 11
1594.67929723455
 21
3057.160035446427
 31
0.0
  0
MTEXT
  5
16D0
330
16CE
100
AcDbEntity
  8
SUNPO
 62
     7
100
AcDbMText
 10
1643.105918241468
 20
3138.595969513914
 30
0.0
 40
38.0
 41
0.0
 71
     5
 72
     1
  1
\A2;R30
  7
ADD
 11
0.7677994416810385
 21
0.6406902663177316
 31
0.0
1001
ACAD
1000
MTEXTBEGIN
1070
    73
1070
     1
1070
    44
1040
1.0
1070
    74
1070
     0
1000
MTEXTEND
1000
MTEXTBEGIN
1070
    73
1070
     1
1070
    44
1040
1.0
1070
    74
1070
     0
1000
MTEXTEND
1000
MTEXTBEGIN
1070
    73
1070
     1
1070
    44
1040
1.0
1070
    74
1070
     0
1000
MTEXTEND
1000
MTEXTBEGIN
1070
    73
1070
     1
1070
    44
1040
1.0
1070
    74
1070
     0
1000
MTEXTEND
1000
MTEXTBEGIN
1070
    73
1070
     1
1070
    44
1040
1.0
1070
    74
1070
     0
1000
MTEXTEND
1000
MTEXTBEGIN
1070
    73
1070
     1
1070
    44
1040
1.0
1070
    74
1070
     0
1000
MTEXTEND
1000
MTEXTBEGIN
1070
    73
1070
     1
1070
    44
1040
1.0
1070
    74
1070
     0
1000
MTEXTEND
1000
MTEXTBEGIN
1070
    73
1070
     1
1070
    44
1040
1.0
1070
    74
1070
     0
1000
MTEXTEND
1000
MTEXTBEGIN
1070
    73
1070
     1
1070
    44
1040
1.0
1070
    74
1070
     0
1000
MTEXTEND
1000
MTEXTBEGIN
1070
    73
1070
     1
1070
    44
1040
1.0
1070
    74
1070
     0
1000
MTEXTEND
1000
MTEXTBEGIN
1070
    73
1070
     1
1070
    44
1040
1.0
1070
    74
1070
     0
1000
MTEXTEND
1000
MTEXTBEGIN
1070
    73
1070
     1
1070
    44
1040
1.0
1070
    74
1070
     0
1000
MTEXTEND
1000
MTEXTBEGIN
1070
    73
1070
     1
1070
    44
1040
1.0
1070
    74
1070
     0
1000
MTEXTEND
1000
MTEXTBEGIN
1070
    73
1070
     1
1070
    44
1040
1.0
1070
    74
1070
     0
1000
MTEXTEND
1000
MTEXTBEGIN
1070
    73
1070
     1
1070
    44
1040
1.0
1070
    74
1070
     0
1000
MTEXTEND
  0
LINE
  5
16D1
330
16CE
100
AcDbEntity
  8
SUNPO
 62
   144
100
AcDbLine
 10
1550.14692961705
 20
3019.999999999999
 30
0.0
 11
1573.180912867481
 21
3039.22070798953
 31
0.0
  0
SOLID
  5
16D2
330
16CE
100
AcDbEntity
  8
SUNPO
 62
   144
100
AcDbTrace
 10
1591.689409325067
 20
3060.743099507606
 30
0.0
 11
1597.669185144033
 21
3053.576971385249
 31
0.0
 12
1573.180912867481
 22
3039.22070798953
 32
0.0
 13
1573.180912867481
 23
3039.22070798953
 33
0.0
  0
POINT
  5
16D3
330
16CE
100
AcDbEntity
  8
DEFPOINTS
 62
     0
100
AcDbPoint
 10
1573.180912867481
 20
3039.22070798953
 30
0.0
  0
POINT
  5
16D4
330
16CE
100
AcDbEntity
  8
DEFPOINTS
 62
     0
100
AcDbPoint
 10
1550.14692961705
 20
3019.999999999999
 30
0.0
  0
ENDBLK
  5
16D6
330
16CE
100
AcDbEntity
  8
0
100
AcDbBlockEnd
  0
BLOCK
  5
1714
330
170D
100
AcDbEntity
  8
0
100
AcDbBlockBegin
  2
*D24
 70
     1
 10
0.0
 20
0.0
 30
0.0
  3
*D24
  1

  0
LINE
  5
170E
330
170D
100
AcDbEntity
  8
SUNPO
 62
   144
100
AcDbLine
 10
1639.904920474571
 20
2169.971107195422
 30
0.0
 11
1594.798570954089
 21
2344.080294401815
 31
0.0
  0
MTEXT
  5
170F
330
170D
100
AcDbEntity
  8
SUNPO
 62
     7
100
AcDbMText
 10
1650.388071148463
 20
2251.122210152389
 30
0.0
 40
36.0
 41
0.0
 71
     5
 72
     1
  1
\A2;R350
  7
ADD
 11
0.2507898702489131
 21
-0.968041549201548
 31
0.0
1001
ACAD
1000
MTEXTBEGIN
1070
    73
1070
     1
1070
    44
1040
1.0
1070
    74
1070
     0
1000
MTEXTEND
1000
MTEXTBEGIN
1070
    73
1070
     1
1070
    44
1040
1.0
1070
    74
1070
     0
1000
MTEXTEND
1000
MTEXTBEGIN
1070
    73
1070
     1
1070
    44
1040
1.0
1070
    74
1070
     0
1000
MTEXTEND
1000
MTEXTBEGIN
1070
    73
1070
     1
1070
    44
1040
1.0
1070
    74
1070
     0
1000
MTEXTEND
1000
MTEXTBEGIN
1070
    73
1070
     1
1070
    44
1040
1.0
1070
    74
1070
     0
1000
MTEXTEND
1000
MTEXTBEGIN
1070
    73
1070
     1
1070
    44
1040
1.0
1070
    74
1070
     0
1000
MTEXTEND
1000
MTEXTBEGIN
1070
    73
1070
     1
1070
    44
1040
1.0
1070
    74
1070
     0
1000
MTEXTEND
1000
MTEXTBEGIN
1070
    73
1070
     1
1070
    44
1040
1.0
1070
    74
1070
     0
1000
MTEXTEND
1000
MTEXTBEGIN
1070
    73
1070
     1
1070
    44
1040
1.0
1070
    74
1070
     0
1000
MTEXTEND
1000
MTEXTBEGIN
1070
    73
1070
     1
1070
    44
1040
1.0
1070
    74
1070
     0
1000
MTEXTEND
1000
MTEXTBEGIN
1070
    73
1070
     1
1070
    44
1040
1.0
1070
    74
1070
     0
1000
MTEXTEND
1000
MTEXTBEGIN
1070
    73
1070
     1
1070
    44
1040
1.0
1070
    74
1070
     0
1000
MTEXTEND
1000
MTEXTBEGIN
1070
    73
1070
     1
1070
    44
1040
1.0
1070
    74
1070
     0
1000
MTEXTEND
1000
MTEXTBEGIN
1070
    73
1070
     1
1070
    44
1040
1.0
1070
    74
1070
     0
1000
MTEXTEND
1000
MTEXTBEGIN
1070
    73
1070
     1
1070
    44
1040
1.0
1070
    74
1070
     0
1000
MTEXTEND
  0
LINE
  5
1710
330
170D
100
AcDbEntity
  8
SUNPO
 62
   144
100
AcDbLine
 10
1500.0
 20
2710.0
 30
0.0
 11
1587.776454587119
 21
2371.185457779458
 31
0.0
  0
SOLID
  5
1711
330
170D
100
AcDbEntity
  8
SUNPO
 62
   144
100
AcDbTrace
 10
1599.316098183696
 20
2345.250647129643
 30
0.0
 11
1590.281043724482
 21
2342.909941673986
 31
0.0
 12
1587.776454587119
 22
2371.185457779458
 32
0.0
 13
1587.776454587119
 23
2371.185457779458
 33
0.0
  0
POINT
  5
1712
330
170D
100
AcDbEntity
  8
DEFPOINTS
 62
     0
100
AcDbPoint
 10
1587.776454587119
 20
2371.185457779458
 30
0.0
  0
POINT
  5
1713
330
170D
100
AcDbEntity
  8
DEFPOINTS
 62
     0
100
AcDbPoint
 10
1500.0
 20
2710.0
 30
0.0
  0
ENDBLK
  5
1715
330
170D
100
AcDbEntity
  8
0
100
AcDbBlockEnd
  0
BLOCK
  5
177C
330
1772
100
AcDbEntity
  8
0
100
AcDbBlockBegin
  2
*D25
 70
     1
 10
0.0
 20
0.0
 30
0.0
  3
*D25
  1

  0
LINE
  5
1773
330
1772
100
AcDbEntity
  8
SUNPO
 62
   144
100
AcDbLine
 10
1480.0
 20
3050.0
 30
0.0
 11
1470.0
 21
3050.0
 31
0.0
  0
LINE
  5
1774
330
1772
100
AcDbEntity
  8
SUNPO
 62
   144
100
AcDbLine
 10
1480.0
 20
2850.0
 30
0.0
 11
1470.0
 21
2850.0
 31
0.0
  0
LINE
  5
1775
330
1772
100
AcDbEntity
  8
SUNPO
 62
   144
100
AcDbLine
 10
1480.0
 20
3022.0
 30
0.0
 11
1480.0
 21
2878.0
 31
0.0
  0
SOLID
  5
1776
330
1772
100
AcDbEntity
  8
SUNPO
 62
   144
100
AcDbTrace
 10
1475.333333333333
 20
3022.0
 30
0.0
 11
1484.666666666666
 21
3022.0
 31
0.0
 12
1480.0
 22
3050.0
 32
0.0
 13
1480.0
 23
3050.0
 33
0.0
  0
SOLID
  5
1777
330
1772
100
AcDbEntity
  8
SUNPO
 62
   144
100
AcDbTrace
 10
1475.333333333333
 20
2878.0
 30
0.0
 11
1484.666666666666
 21
2878.0
 31
0.0
 12
1480.0
 22
2850.0
 32
0.0
 13
1480.0
 23
2850.0
 33
0.0
  0
MTEXT
  5
1778
330
1772
100
AcDbEntity
  8
SUNPO
 62
     7
100
AcDbMText
 10
1449.499999999999
 20
2950.0
 30
0.0
 40
36.0
 41
0.0
 71
     5
 72
     1
  1
\A2;200
  7
ADD
 11
0.0000000000000001
 21
1.0
 31
0.0
1001
ACAD
1000
MTEXTBEGIN
1070
    73
1070
     1
1070
    44
1040
1.0
1070
    74
1070
     0
1000
MTEXTEND
1000
MTEXTBEGIN
1070
    73
1070
     1
1070
    44
1040
1.0
1070
    74
1070
     0
1000
MTEXTEND
1000
MTEXTBEGIN
1070
    73
1070
     1
1070
    44
1040
1.0
1070
    74
1070
     0
1000
MTEXTEND
1000
MTEXTBEGIN
1070
    73
1070
     1
1070
    44
1040
1.0
1070
    74
1070
     0
1000
MTEXTEND
1000
MTEXTBEGIN
1070
    73
1070
     1
1070
    44
1040
1.0
1070
    74
1070
     0
1000
MTEXTEND
1000
MTEXTBEGIN
1070
    73
1070
     1
1070
    44
1040
1.0
1070
    74
1070
     0
1000
MTEXTEND
1000
MTEXTBEGIN
1070
    73
1070
     1
1070
    44
1040
1.0
1070
    74
1070
     0
1000
MTEXTEND
1000
MTEXTBEGIN
1070
    73
1070
     1
1070
    44
1040
1.0
1070
    74
1070
     0
1000
MTEXTEND
1000
MTEXTBEGIN
1070
    73
1070
     1
1070
    44
1040
1.0
1070
    74
1070
     0
1000
MTEXTEND
1000
MTEXTBEGIN
1070
    73
1070
     1
1070
    44
1040
1.0
1070
    74
1070
     0
1000
MTEXTEND
1000
MTEXTBEGIN
1070
    73
1070
     1
1070
    44
1040
1.0
1070
    74
1070
     0
1000
MTEXTEND
1000
MTEXTBEGIN
1070
    73
1070
     1
1070
    44
1040
1.0
1070
    74
1070
     0
1000
MTEXTEND
1000
MTEXTBEGIN
1070
    73
1070
     1
1070
    44
1040
1.0
1070
    74
1070
     0
1000
MTEXTEND
1000
MTEXTBEGIN
1070
    73
1070
     1
1070
    44
1040
1.0
1070
    74
1070
     0
1000
MTEXTEND
1000
MTEXTBEGIN
1070
    73
1070
     1
1070
    44
1040
1.0
1070
    74
1070
     0
1000
MTEXTEND
  0
POINT
  5
1779
330
1772
100
AcDbEntity
  8
DEFPOINTS
 62
     0
100
AcDbPoint
 10
1500.0
 20
3050.0
 30
0.0
  0
POINT
  5
177A
330
1772
100
AcDbEntity
  8
DEFPOINTS
 62
     0
100
AcDbPoint
 10
1500.0
 20
2850.0
 30
0.0
  0
POINT
  5
177B
330
1772
100
AcDbEntity
  8
DEFPOINTS
 62
     0
100
AcDbPoint
 10
1480.0
 20
2850.0
 30
0.0
  0
ENDBLK
  5
177D
330
1772
100
AcDbEntity
  8
0
100
AcDbBlockEnd
  0
BLOCK
  5
17AE
330
17A4
100
AcDbEntity
  8
0
100
AcDbBlockBegin
  2
*D26
 70
     1
 10
0.0
 20
0.0
 30
0.0
  3
*D26
  1

  0
LINE
  5
17A5
330
17A4
100
AcDbEntity
  8
SUNPO
 62
   144
100
AcDbLine
 10
4670.0
 20
2879.999999999999
 30
0.0
 11
4810.0
 21
2879.999999999999
 31
0.0
  0
LINE
  5
17A6
330
17A4
100
AcDbEntity
  8
SUNPO
 62
   144
100
AcDbLine
 10
4670.0
 20
2760.0
 30
0.0
 11
4810.0
 21
2760.0
 31
0.0
  0
LINE
  5
17A7
330
17A4
100
AcDbEntity
  8
SUNPO
 62
   144
100
AcDbLine
 10
4800.0
 20
2851.999999999999
 30
0.0
 11
4800.0
 21
2788.0
 31
0.0
  0
SOLID
  5
17A8
330
17A4
100
AcDbEntity
  8
SUNPO
 62
   144
100
AcDbTrace
 10
4795.333333333333
 20
2851.999999999999
 30
0.0
 11
4804.666666666667
 21
2851.999999999999
 31
0.0
 12
4800.0
 22
2879.999999999999
 32
0.0
 13
4800.0
 23
2879.999999999999
 33
0.0
  0
SOLID
  5
17A9
330
17A4
100
AcDbEntity
  8
SUNPO
 62
   144
100
AcDbTrace
 10
4795.333333333333
 20
2788.0
 30
0.0
 11
4804.666666666667
 21
2788.0
 31
0.0
 12
4800.0
 22
2760.0
 32
0.0
 13
4800.0
 23
2760.0
 33
0.0
  0
MTEXT
  5
17AA
330
17A4
100
AcDbEntity
  8
SUNPO
 62
     7
100
AcDbMText
 10
4769.499999999999
 20
2820.0
 30
0.0
 40
36.0
 41
0.0
 71
     5
 72
     1
  1
\A2;120
  7
ADD
 11
0.0000000000000001
 21
1.0
 31
0.0
1001
ACAD
1000
MTEXTBEGIN
1070
    73
1070
     1
1070
    44
1040
1.0
1070
    74
1070
     0
1000
MTEXTEND
1000
MTEXTBEGIN
1070
    73
1070
     1
1070
    44
1040
1.0
1070
    74
1070
     0
1000
MTEXTEND
1000
MTEXTBEGIN
1070
    73
1070
     1
1070
    44
1040
1.0
1070
    74
1070
     0
1000
MTEXTEND
1000
MTEXTBEGIN
1070
    73
1070
     1
1070
    44
1040
1.0
1070
    74
1070
     0
1000
MTEXTEND
1000
MTEXTBEGIN
1070
    73
1070
     1
1070
    44
1040
1.0
1070
    74
1070
     0
1000
MTEXTEND
1000
MTEXTBEGIN
1070
    73
1070
     1
1070
    44
1040
1.0
1070
    74
1070
     0
1000
MTEXTEND
1000
MTEXTBEGIN
1070
    73
1070
     1
1070
    44
1040
1.0
1070
    74
1070
     0
1000
MTEXTEND
1000
MTEXTBEGIN
1070
    73
1070
     1
1070
    44
1040
1.0
1070
    74
1070
     0
1000
MTEXTEND
1000
MTEXTBEGIN
1070
    73
1070
     1
1070
    44
1040
1.0
1070
    74
1070
     0
1000
MTEXTEND
1000
MTEXTBEGIN
1070
    73
1070
     1
1070
    44
1040
1.0
1070
    74
1070
     0
1000
MTEXTEND
1000
MTEXTBEGIN
1070
    73
1070
     1
1070
    44
1040
1.0
1070
    74
1070
     0
1000
MTEXTEND
1000
MTEXTBEGIN
1070
    73
1070
     1
1070
    44
1040
1.0
1070
    74
1070
     0
1000
MTEXTEND
1000
MTEXTBEGIN
1070
    73
1070
     1
1070
    44
1040
1.0
1070
    74
1070
     0
1000
MTEXTEND
1000
MTEXTBEGIN
1070
    73
1070
     1
1070
    44
1040
1.0
1070
    74
1070
     0
1000
MTEXTEND
1000
MTEXTBEGIN
1070
    73
1070
     1
1070
    44
1040
1.0
1070
    74
1070
     0
1000
MTEXTEND
  0
POINT
  5
17AB
330
17A4
100
AcDbEntity
  8
DEFPOINTS
 62
     0
100
AcDbPoint
 10
4650.0
 20
2879.999999999999
 30
0.0
  0
POINT
  5
17AC
330
17A4
100
AcDbEntity
  8
DEFPOINTS
 62
     0
100
AcDbPoint
 10
4650.0
 20
2760.0
 30
0.0
  0
POINT
  5
17AD
330
17A4
100
AcDbEntity
  8
DEFPOINTS
 62
     0
100
AcDbPoint
 10
4800.0
 20
2760.0
 30
0.0
  0
ENDBLK
  5
17AF
330
17A4
100
AcDbEntity
  8
0
100
AcDbBlockEnd
  0
BLOCK
  5
17BB
330
17B1
100
AcDbEntity
  8
0
100
AcDbBlockBegin
  2
*D27
 70
     1
 10
0.0
 20
0.0
 30
0.0
  3
*D27
  1

  0
LINE
  5
17B2
330
17B1
100
AcDbEntity
  8
SUNPO
 62
   144
100
AcDbLine
 10
4050.0
 20
3070.0
 30
0.0
 11
4050.0
 21
3160.0
 31
0.0
  0
LINE
  5
17B3
330
17B1
100
AcDbEntity
  8
SUNPO
 62
   144
100
AcDbLine
 10
4650.0
 20
2900.0
 30
0.0
 11
4650.0
 21
3160.0
 31
0.0
  0
LINE
  5
17B4
330
17B1
100
AcDbEntity
  8
SUNPO
 62
   144
100
AcDbLine
 10
4078.0
 20
3150.0
 30
0.0
 11
4622.0
 21
3150.0
 31
0.0
  0
SOLID
  5
17B5
330
17B1
100
AcDbEntity
  8
SUNPO
 62
   144
100
AcDbTrace
 10
4078.0
 20
3154.666666666666
 30
0.0
 11
4078.0
 21
3145.333333333333
 31
0.0
 12
4050.0
 22
3150.0
 32
0.0
 13
4050.0
 23
3150.0
 33
0.0
  0
SOLID
  5
17B6
330
17B1
100
AcDbEntity
  8
SUNPO
 62
   144
100
AcDbTrace
 10
4622.0
 20
3154.666666666666
 30
0.0
 11
4622.0
 21
3145.333333333333
 31
0.0
 12
4650.0
 22
3150.0
 32
0.0
 13
4650.0
 23
3150.0
 33
0.0
  0
MTEXT
  5
17B7
330
17B1
100
AcDbEntity
  8
SUNPO
 62
     7
100
AcDbMText
 10
4350.0
 20
3180.5
 30
0.0
 40
36.0
 41
0.0
 71
     5
 72
     1
  1
\A2;600
  7
ADD
1001
ACAD
1000
MTEXTBEGIN
1070
    73
1070
     1
1070
    44
1040
1.0
1070
    74
1070
     0
1000
MTEXTEND
1000
MTEXTBEGIN
1070
    73
1070
     1
1070
    44
1040
1.0
1070
    74
1070
     0
1000
MTEXTEND
1000
MTEXTBEGIN
1070
    73
1070
     1
1070
    44
1040
1.0
1070
    74
1070
     0
1000
MTEXTEND
1000
MTEXTBEGIN
1070
    73
1070
     1
1070
    44
1040
1.0
1070
    74
1070
     0
1000
MTEXTEND
1000
MTEXTBEGIN
1070
    73
1070
     1
1070
    44
1040
1.0
1070
    74
1070
     0
1000
MTEXTEND
1000
MTEXTBEGIN
1070
    73
1070
     1
1070
    44
1040
1.0
1070
    74
1070
     0
1000
MTEXTEND
1000
MTEXTBEGIN
1070
    73
1070
     1
1070
    44
1040
1.0
1070
    74
1070
     0
1000
MTEXTEND
1000
MTEXTBEGIN
1070
    73
1070
     1
1070
    44
1040
1.0
1070
    74
1070
     0
1000
MTEXTEND
1000
MTEXTBEGIN
1070
    73
1070
     1
1070
    44
1040
1.0
1070
    74
1070
     0
1000
MTEXTEND
1000
MTEXTBEGIN
1070
    73
1070
     1
1070
    44
1040
1.0
1070
    74
1070
     0
1000
MTEXTEND
1000
MTEXTBEGIN
1070
    73
1070
     1
1070
    44
1040
1.0
1070
    74
1070
     0
1000
MTEXTEND
1000
MTEXTBEGIN
1070
    73
1070
     1
1070
    44
1040
1.0
1070
    74
1070
     0
1000
MTEXTEND
1000
MTEXTBEGIN
1070
    73
1070
     1
1070
    44
1040
1.0
1070
    74
1070
     0
1000
MTEXTEND
1000
MTEXTBEGIN
1070
    73
1070
     1
1070
    44
1040
1.0
1070
    74
1070
     0
1000
MTEXTEND
1000
MTEXTBEGIN
1070
    73
1070
     1
1070
    44
1040
1.0
1070
    74
1070
     0
1000
MTEXTEND
  0
POINT
  5
17B8
330
17B1
100
AcDbEntity
  8
DEFPOINTS
 62
     0
100
AcDbPoint
 10
4050.0
 20
3050.0
 30
0.0
  0
POINT
  5
17B9
330
17B1
100
AcDbEntity
  8
DEFPOINTS
 62
     0
100
AcDbPoint
 10
4650.0
 20
2879.999999999999
 30
0.0
  0
POINT
  5
17BA
330
17B1
100
AcDbEntity
  8
DEFPOINTS
 62
     0
100
AcDbPoint
 10
4650.0
 20
3150.0
 30
0.0
  0
ENDBLK
  5
17BC
330
17B1
100
AcDbEntity
  8
0
100
AcDbBlockEnd
  0
BLOCK
  5
17C8
330
17BE
100
AcDbEntity
  8
0
100
AcDbBlockBegin
  2
*D28
 70
     1
 10
0.0
 20
0.0
 30
0.0
  3
*D28
  1

  0
LINE
  5
17BF
330
17BE
100
AcDbEntity
  8
SUNPO
 62
   144
100
AcDbLine
 10
2650.0
 20
3070.0
 30
0.0
 11
2650.0
 21
3310.0
 31
0.0
  0
LINE
  5
17C0
330
17BE
100
AcDbEntity
  8
SUNPO
 62
   144
100
AcDbLine
 10
4650.0
 20
2900.0
 30
0.0
 11
4650.0
 21
3310.0
 31
0.0
  0
LINE
  5
17C1
330
17BE
100
AcDbEntity
  8
SUNPO
 62
   144
100
AcDbLine
 10
2678.0
 20
3300.0
 30
0.0
 11
4622.0
 21
3300.0
 31
0.0
  0
SOLID
  5
17C2
330
17BE
100
AcDbEntity
  8
SUNPO
 62
   144
100
AcDbTrace
 10
2678.0
 20
3304.666666666666
 30
0.0
 11
2678.0
 21
3295.333333333333
 31
0.0
 12
2650.0
 22
3300.0
 32
0.0
 13
2650.0
 23
3300.0
 33
0.0
  0
SOLID
  5
17C3
330
17BE
100
AcDbEntity
  8
SUNPO
 62
   144
100
AcDbTrace
 10
4622.0
 20
3304.666666666666
 30
0.0
 11
4622.0
 21
3295.333333333333
 31
0.0
 12
4650.0
 22
3300.0
 32
0.0
 13
4650.0
 23
3300.0
 33
0.0
  0
MTEXT
  5
17C4
330
17BE
100
AcDbEntity
  8
SUNPO
 62
     7
100
AcDbMText
 10
3650.0
 20
3330.5
 30
0.0
 40
36.0
 41
0.0
 71
     5
 72
     1
  1
\A2;2000
  7
ADD
1001
ACAD
1000
MTEXTBEGIN
1070
    73
1070
     1
1070
    44
1040
1.0
1070
    74
1070
     0
1000
MTEXTEND
1000
MTEXTBEGIN
1070
    73
1070
     1
1070
    44
1040
1.0
1070
    74
1070
     0
1000
MTEXTEND
1000
MTEXTBEGIN
1070
    73
1070
     1
1070
    44
1040
1.0
1070
    74
1070
     0
1000
MTEXTEND
1000
MTEXTBEGIN
1070
    73
1070
     1
1070
    44
1040
1.0
1070
    74
1070
     0
1000
MTEXTEND
1000
MTEXTBEGIN
1070
    73
1070
     1
1070
    44
1040
1.0
1070
    74
1070
     0
1000
MTEXTEND
1000
MTEXTBEGIN
1070
    73
1070
     1
1070
    44
1040
1.0
1070
    74
1070
     0
1000
MTEXTEND
1000
MTEXTBEGIN
1070
    73
1070
     1
1070
    44
1040
1.0
1070
    74
1070
     0
1000
MTEXTEND
1000
MTEXTBEGIN
1070
    73
1070
     1
1070
    44
1040
1.0
1070
    74
1070
     0
1000
MTEXTEND
1000
MTEXTBEGIN
1070
    73
1070
     1
1070
    44
1040
1.0
1070
    74
1070
     0
1000
MTEXTEND
1000
MTEXTBEGIN
1070
    73
1070
     1
1070
    44
1040
1.0
1070
    74
1070
     0
1000
MTEXTEND
1000
MTEXTBEGIN
1070
    73
1070
     1
1070
    44
1040
1.0
1070
    74
1070
     0
1000
MTEXTEND
1000
MTEXTBEGIN
1070
    73
1070
     1
1070
    44
1040
1.0
1070
    74
1070
     0
1000
MTEXTEND
1000
MTEXTBEGIN
1070
    73
1070
     1
1070
    44
1040
1.0
1070
    74
1070
     0
1000
MTEXTEND
1000
MTEXTBEGIN
1070
    73
1070
     1
1070
    44
1040
1.0
1070
    74
1070
     0
1000
MTEXTEND
1000
MTEXTBEGIN
1070
    73
1070
     1
1070
    44
1040
1.0
1070
    74
1070
     0
1000
MTEXTEND
  0
POINT
  5
17C5
330
17BE
100
AcDbEntity
  8
DEFPOINTS
 62
     0
100
AcDbPoint
 10
2650.0
 20
3050.0
 30
0.0
  0
POINT
  5
17C6
330
17BE
100
AcDbEntity
  8
DEFPOINTS
 62
     0
100
AcDbPoint
 10
4650.0
 20
2880.0
 30
0.0
  0
POINT
  5
17C7
330
17BE
100
AcDbEntity
  8
DEFPOINTS
 62
     0
100
AcDbPoint
 10
4650.0
 20
3300.0
 30
0.0
  0
ENDBLK
  5
17C9
330
17BE
100
AcDbEntity
  8
0
100
AcDbBlockEnd
  0
BLOCK
  5
1901
330
18F7
100
AcDbEntity
  8
0
100
AcDbBlockBegin
  2
*D29
 70
     1
 10
0.0
 20
0.0
 30
0.0
  3
*D29
  1

  0
LINE
  5
18F8
330
18F7
100
AcDbEntity
  8
SUNPO
 62
   144
100
AcDbLine
 10
1576.0
 20
2850.0
 30
0.0
 11
1470.0
 21
2850.0
 31
0.0
  0
LINE
  5
18F9
330
18F7
100
AcDbEntity
  8
SUNPO
 62
   144
100
AcDbLine
 10
1480.0
 20
2760.0
 30
0.0
 11
1470.0
 21
2760.0
 31
0.0
  0
LINE
  5
18FA
330
18F7
100
AcDbEntity
  8
SUNPO
 62
   144
100
AcDbLine
 10
1480.0
 20
2822.0
 30
0.0
 11
1480.0
 21
2788.0
 31
0.0
  0
SOLID
  5
18FB
330
18F7
100
AcDbEntity
  8
SUNPO
 62
   144
100
AcDbTrace
 10
1475.333333333333
 20
2822.0
 30
0.0
 11
1484.666666666666
 21
2822.0
 31
0.0
 12
1480.0
 22
2850.0
 32
0.0
 13
1480.0
 23
2850.0
 33
0.0
  0
SOLID
  5
18FC
330
18F7
100
AcDbEntity
  8
SUNPO
 62
   144
100
AcDbTrace
 10
1475.333333333333
 20
2788.0
 30
0.0
 11
1484.666666666666
 21
2788.0
 31
0.0
 12
1480.0
 22
2760.0
 32
0.0
 13
1480.0
 23
2760.0
 33
0.0
  0
MTEXT
  5
18FD
330
18F7
100
AcDbEntity
  8
SUNPO
 62
     7
100
AcDbMText
 10
1449.499999999999
 20
2805.0
 30
0.0
 40
36.0
 41
0.0
 71
     5
 72
     1
  1
\A2;90
  7
ADD
 11
0.0000000000000001
 21
1.0
 31
0.0
1001
ACAD
1000
MTEXTBEGIN
1070
    73
1070
     1
1070
    44
1040
1.0
1070
    74
1070
     0
1000
MTEXTEND
1000
MTEXTBEGIN
1070
    73
1070
     1
1070
    44
1040
1.0
1070
    74
1070
     0
1000
MTEXTEND
1000
MTEXTBEGIN
1070
    73
1070
     1
1070
    44
1040
1.0
1070
    74
1070
     0
1000
MTEXTEND
1000
MTEXTBEGIN
1070
    73
1070
     1
1070
    44
1040
1.0
1070
    74
1070
     0
1000
MTEXTEND
1000
MTEXTBEGIN
1070
    73
1070
     1
1070
    44
1040
1.0
1070
    74
1070
     0
1000
MTEXTEND
1000
MTEXTBEGIN
1070
    73
1070
     1
1070
    44
1040
1.0
1070
    74
1070
     0
1000
MTEXTEND
1000
MTEXTBEGIN
1070
    73
1070
     1
1070
    44
1040
1.0
1070
    74
1070
     0
1000
MTEXTEND
1000
MTEXTBEGIN
1070
    73
1070
     1
1070
    44
1040
1.0
1070
    74
1070
     0
1000
MTEXTEND
1000
MTEXTBEGIN
1070
    73
1070
     1
1070
    44
1040
1.0
1070
    74
1070
     0
1000
MTEXTEND
1000
MTEXTBEGIN
1070
    73
1070
     1
1070
    44
1040
1.0
1070
    74
1070
     0
1000
MTEXTEND
1000
MTEXTBEGIN
1070
    73
1070
     1
1070
    44
1040
1.0
1070
    74
1070
     0
1000
MTEXTEND
1000
MTEXTBEGIN
1070
    73
1070
     1
1070
    44
1040
1.0
1070
    74
1070
     0
1000
MTEXTEND
1000
MTEXTBEGIN
1070
    73
1070
     1
1070
    44
1040
1.0
1070
    74
1070
     0
1000
MTEXTEND
1000
MTEXTBEGIN
1070
    73
1070
     1
1070
    44
1040
1.0
1070
    74
1070
     0
1000
MTEXTEND
  0
POINT
  5
18FE
330
18F7
100
AcDbEntity
  8
DEFPOINTS
 62
     0
100
AcDbPoint
 10
1596.0
 20
2850.0
 30
0.0
  0
POINT
  5
18FF
330
18F7
100
AcDbEntity
  8
DEFPOINTS
 62
     0
100
AcDbPoint
 10
1500.0
 20
2760.0
 30
0.0
  0
POINT
  5
1900
330
18F7
100
AcDbEntity
  8
DEFPOINTS
 62
     0
100
AcDbPoint
 10
1480.0
 20
2760.0
 30
0.0
  0
ENDBLK
  5
1902
330
18F7
100
AcDbEntity
  8
0
100
AcDbBlockEnd
  0
BLOCK
  5
1930
330
1924
100
AcDbEntity
  8
0
100
AcDbBlockBegin
  2
*D30
 70
     1
 10
0.0
 20
0.0
 30
0.0
  3
*D30
  1

  0
LINE
  5
1925
330
1924
100
AcDbEntity
  8
SUNPO
 62
   144
100
AcDbLine
 10
1229.999999999999
 20
2250.0
 30
0.0
 11
1229.999999999999
 21
2090.0
 31
0.0
  0
LINE
  5
1926
330
1924
100
AcDbEntity
  8
SUNPO
 62
   144
100
AcDbLine
 10
1299.999999999999
 20
2250.0
 30
0.0
 11
1299.999999999999
 21
2090.0
 31
0.0
  0
LINE
  5
1927
330
1924
100
AcDbEntity
  8
SUNPO
 62
   144
100
AcDbLine
 10
1201.999999999999
 20
2100.0
 30
0.0
 11
1173.999999999999
 21
2100.0
 31
0.0
  0
LINE
  5
1928
330
1924
100
AcDbEntity
  8
SUNPO
 62
   144
100
AcDbLine
 10
1327.999999999999
 20
2100.0
 30
0.0
 11
1355.999999999999
 21
2100.0
 31
0.0
  0
LINE
  5
1929
330
1924
100
AcDbEntity
  8
SUNPO
 62
   144
100
AcDbLine
 10
1229.999999999999
 20
2100.0
 30
0.0
 11
1299.999999999999
 21
2100.0
 31
0.0
  0
SOLID
  5
192A
330
1924
100
AcDbEntity
  8
SUNPO
 62
   144
100
AcDbTrace
 10
1201.999999999999
 20
2104.666666666666
 30
0.0
 11
1201.999999999999
 21
2095.333333333333
 31
0.0
 12
1229.999999999999
 22
2100.0
 32
0.0
 13
1229.999999999999
 23
2100.0
 33
0.0
  0
SOLID
  5
192B
330
1924
100
AcDbEntity
  8
SUNPO
 62
   144
100
AcDbTrace
 10
1327.999999999999
 20
2104.666666666666
 30
0.0
 11
1327.999999999999
 21
2095.333333333333
 31
0.0
 12
1299.999999999999
 22
2100.0
 32
0.0
 13
1299.999999999999
 23
2100.0
 33
0.0
  0
MTEXT
  5
192C
330
1924
100
AcDbEntity
  8
SUNPO
 62
     7
100
AcDbMText
 10
1264.999999999999
 20
2130.5
 30
0.0
 40
36.0
 41
0.0
 71
     5
 72
     1
  1
\A2;70
  7
ADD
1001
ACAD
1000
MTEXTBEGIN
1070
    73
1070
     1
1070
    44
1040
1.0
1070
    74
1070
     0
1000
MTEXTEND
1000
MTEXTBEGIN
1070
    73
1070
     1
1070
    44
1040
1.0
1070
    74
1070
     0
1000
MTEXTEND
1000
MTEXTBEGIN
1070
    73
1070
     1
1070
    44
1040
1.0
1070
    74
1070
     0
1000
MTEXTEND
1000
MTEXTBEGIN
1070
    73
1070
     1
1070
    44
1040
1.0
1070
    74
1070
     0
1000
MTEXTEND
1000
MTEXTBEGIN
1070
    73
1070
     1
1070
    44
1040
1.0
1070
    74
1070
     0
1000
MTEXTEND
1000
MTEXTBEGIN
1070
    73
1070
     1
1070
    44
1040
1.0
1070
    74
1070
     0
1000
MTEXTEND
1000
MTEXTBEGIN
1070
    73
1070
     1
1070
    44
1040
1.0
1070
    74
1070
     0
1000
MTEXTEND
1000
MTEXTBEGIN
1070
    73
1070
     1
1070
    44
1040
1.0
1070
    74
1070
     0
1000
MTEXTEND
1000
MTEXTBEGIN
1070
    73
1070
     1
1070
    44
1040
1.0
1070
    74
1070
     0
1000
MTEXTEND
1000
MTEXTBEGIN
1070
    73
1070
     1
1070
    44
1040
1.0
1070
    74
1070
     0
1000
MTEXTEND
1000
MTEXTBEGIN
1070
    73
1070
     1
1070
    44
1040
1.0
1070
    74
1070
     0
1000
MTEXTEND
1000
MTEXTBEGIN
1070
    73
1070
     1
1070
    44
1040
1.0
1070
    74
1070
     0
1000
MTEXTEND
1000
MTEXTBEGIN
1070
    73
1070
     1
1070
    44
1040
1.0
1070
    74
1070
     0
1000
MTEXTEND
1000
MTEXTBEGIN
1070
    73
1070
     1
1070
    44
1040
1.0
1070
    74
1070
     0
1000
MTEXTEND
  0
POINT
  5
192D
330
1924
100
AcDbEntity
  8
DEFPOINTS
 62
     0
100
AcDbPoint
 10
1229.999999999999
 20
2270.0
 30
0.0
  0
POINT
  5
192E
330
1924
100
AcDbEntity
  8
DEFPOINTS
 62
     0
100
AcDbPoint
 10
1299.999999999999
 20
2270.0
 30
0.0
  0
POINT
  5
192F
330
1924
100
AcDbEntity
  8
DEFPOINTS
 62
     0
100
AcDbPoint
 10
1299.999999999999
 20
2100.0
 30
0.0
  0
ENDBLK
  5
1931
330
1924
100
AcDbEntity
  8
0
100
AcDbBlockEnd
  0
BLOCK
  5
193F
330
1933
100
AcDbEntity
  8
0
100
AcDbBlockBegin
  2
*D31
 70
     1
 10
0.0
 20
0.0
 30
0.0
  3
*D31
  1

  0
LINE
  5
1934
330
1933
100
AcDbEntity
  8
SUNPO
 62
   144
100
AcDbLine
 10
1699.999999999999
 20
2250.0
 30
0.0
 11
1699.999999999999
 21
2090.0
 31
0.0
  0
LINE
  5
1935
330
1933
100
AcDbEntity
  8
SUNPO
 62
   144
100
AcDbLine
 10
1769.999999999999
 20
2250.0
 30
0.0
 11
1769.999999999999
 21
2090.0
 31
0.0
  0
LINE
  5
1936
330
1933
100
AcDbEntity
  8
SUNPO
 62
   144
100
AcDbLine
 10
1671.999999999999
 20
2100.0
 30
0.0
 11
1643.999999999999
 21
2100.0
 31
0.0
  0
LINE
  5
1937
330
1933
100
AcDbEntity
  8
SUNPO
 62
   144
100
AcDbLine
 10
1797.999999999999
 20
2100.0
 30
0.0
 11
1825.999999999999
 21
2100.0
 31
0.0
  0
LINE
  5
1938
330
1933
100
AcDbEntity
  8
SUNPO
 62
   144
100
AcDbLine
 10
1699.999999999999
 20
2100.0
 30
0.0
 11
1769.999999999999
 21
2100.0
 31
0.0
  0
SOLID
  5
1939
330
1933
100
AcDbEntity
  8
SUNPO
 62
   144
100
AcDbTrace
 10
1671.999999999999
 20
2104.666666666666
 30
0.0
 11
1671.999999999999
 21
2095.333333333333
 31
0.0
 12
1699.999999999999
 22
2100.0
 32
0.0
 13
1699.999999999999
 23
2100.0
 33
0.0
  0
SOLID
  5
193A
330
1933
100
AcDbEntity
  8
SUNPO
 62
   144
100
AcDbTrace
 10
1797.999999999999
 20
2104.666666666666
 30
0.0
 11
1797.999999999999
 21
2095.333333333333
 31
0.0
 12
1769.999999999999
 22
2100.0
 32
0.0
 13
1769.999999999999
 23
2100.0
 33
0.0
  0
MTEXT
  5
193B
330
1933
100
AcDbEntity
  8
SUNPO
 62
     7
100
AcDbMText
 10
1734.999999999999
 20
2130.5
 30
0.0
 40
36.0
 41
0.0
 71
     5
 72
     1
  1
\A2;70
  7
ADD
1001
ACAD
1000
MTEXTBEGIN
1070
    73
1070
     1
1070
    44
1040
1.0
1070
    74
1070
     0
1000
MTEXTEND
1000
MTEXTBEGIN
1070
    73
1070
     1
1070
    44
1040
1.0
1070
    74
1070
     0
1000
MTEXTEND
1000
MTEXTBEGIN
1070
    73
1070
     1
1070
    44
1040
1.0
1070
    74
1070
     0
1000
MTEXTEND
1000
MTEXTBEGIN
1070
    73
1070
     1
1070
    44
1040
1.0
1070
    74
1070
     0
1000
MTEXTEND
1000
MTEXTBEGIN
1070
    73
1070
     1
1070
    44
1040
1.0
1070
    74
1070
     0
1000
MTEXTEND
1000
MTEXTBEGIN
1070
    73
1070
     1
1070
    44
1040
1.0
1070
    74
1070
     0
1000
MTEXTEND
1000
MTEXTBEGIN
1070
    73
1070
     1
1070
    44
1040
1.0
1070
    74
1070
     0
1000
MTEXTEND
1000
MTEXTBEGIN
1070
    73
1070
     1
1070
    44
1040
1.0
1070
    74
1070
     0
1000
MTEXTEND
1000
MTEXTBEGIN
1070
    73
1070
     1
1070
    44
1040
1.0
1070
    74
1070
     0
1000
MTEXTEND
1000
MTEXTBEGIN
1070
    73
1070
     1
1070
    44
1040
1.0
1070
    74
1070
     0
1000
MTEXTEND
1000
MTEXTBEGIN
1070
    73
1070
     1
1070
    44
1040
1.0
1070
    74
1070
     0
1000
MTEXTEND
1000
MTEXTBEGIN
1070
    73
1070
     1
1070
    44
1040
1.0
1070
    74
1070
     0
1000
MTEXTEND
1000
MTEXTBEGIN
1070
    73
1070
     1
1070
    44
1040
1.0
1070
    74
1070
     0
1000
MTEXTEND
1000
MTEXTBEGIN
1070
    73
1070
     1
1070
    44
1040
1.0
1070
    74
1070
     0
1000
MTEXTEND
  0
POINT
  5
193C
330
1933
100
AcDbEntity
  8
DEFPOINTS
 62
     0
100
AcDbPoint
 10
1699.999999999999
 20
2270.0
 30
0.0
  0
POINT
  5
193D
330
1933
100
AcDbEntity
  8
DEFPOINTS
 62
     0
100
AcDbPoint
 10
1769.999999999999
 20
2270.0
 30
0.0
  0
POINT
  5
193E
330
1933
100
AcDbEntity
  8
DEFPOINTS
 62
     0
100
AcDbPoint
 10
1769.999999999999
 20
2100.0
 30
0.0
  0
ENDBLK
  5
1940
330
1933
100
AcDbEntity
  8
0
100
AcDbBlockEnd
  0
BLOCK
  5
194C
330
1942
100
AcDbEntity
  8
0
100
AcDbBlockBegin
  2
*D32
 70
     1
 10
0.0
 20
0.0
 30
0.0
  3
*D32
  1

  0
LINE
  5
1943
330
1942
100
AcDbEntity
  8
SUNPO
 62
   144
100
AcDbLine
 10
1299.999999999999
 20
2250.0
 30
0.0
 11
1299.999999999999
 21
2090.0
 31
0.0
  0
LINE
  5
1944
330
1942
100
AcDbEntity
  8
SUNPO
 62
   144
100
AcDbLine
 10
1699.999999999999
 20
2250.0
 30
0.0
 11
1699.999999999999
 21
2090.0
 31
0.0
  0
LINE
  5
1945
330
1942
100
AcDbEntity
  8
SUNPO
 62
   144
100
AcDbLine
 10
1327.999999999999
 20
2100.0
 30
0.0
 11
1671.999999999999
 21
2100.0
 31
0.0
  0
SOLID
  5
1946
330
1942
100
AcDbEntity
  8
SUNPO
 62
   144
100
AcDbTrace
 10
1327.999999999999
 20
2104.666666666666
 30
0.0
 11
1327.999999999999
 21
2095.333333333333
 31
0.0
 12
1299.999999999999
 22
2100.0
 32
0.0
 13
1299.999999999999
 23
2100.0
 33
0.0
  0
SOLID
  5
1947
330
1942
100
AcDbEntity
  8
SUNPO
 62
   144
100
AcDbTrace
 10
1671.999999999999
 20
2104.666666666666
 30
0.0
 11
1671.999999999999
 21
2095.333333333333
 31
0.0
 12
1699.999999999999
 22
2100.0
 32
0.0
 13
1699.999999999999
 23
2100.0
 33
0.0
  0
MTEXT
  5
1948
330
1942
100
AcDbEntity
  8
SUNPO
 62
     7
100
AcDbMText
 10
1500.0
 20
2130.5
 30
0.0
 40
36.0
 41
0.0
 71
     5
 72
     1
  1
\A2;400
  7
ADD
1001
ACAD
1000
MTEXTBEGIN
1070
    73
1070
     1
1070
    44
1040
1.0
1070
    74
1070
     0
1000
MTEXTEND
1000
MTEXTBEGIN
1070
    73
1070
     1
1070
    44
1040
1.0
1070
    74
1070
     0
1000
MTEXTEND
1000
MTEXTBEGIN
1070
    73
1070
     1
1070
    44
1040
1.0
1070
    74
1070
     0
1000
MTEXTEND
1000
MTEXTBEGIN
1070
    73
1070
     1
1070
    44
1040
1.0
1070
    74
1070
     0
1000
MTEXTEND
1000
MTEXTBEGIN
1070
    73
1070
     1
1070
    44
1040
1.0
1070
    74
1070
     0
1000
MTEXTEND
1000
MTEXTBEGIN
1070
    73
1070
     1
1070
    44
1040
1.0
1070
    74
1070
     0
1000
MTEXTEND
1000
MTEXTBEGIN
1070
    73
1070
     1
1070
    44
1040
1.0
1070
    74
1070
     0
1000
MTEXTEND
1000
MTEXTBEGIN
1070
    73
1070
     1
1070
    44
1040
1.0
1070
    74
1070
     0
1000
MTEXTEND
1000
MTEXTBEGIN
1070
    73
1070
     1
1070
    44
1040
1.0
1070
    74
1070
     0
1000
MTEXTEND
1000
MTEXTBEGIN
1070
    73
1070
     1
1070
    44
1040
1.0
1070
    74
1070
     0
1000
MTEXTEND
1000
MTEXTBEGIN
1070
    73
1070
     1
1070
    44
1040
1.0
1070
    74
1070
     0
1000
MTEXTEND
1000
MTEXTBEGIN
1070
    73
1070
     1
1070
    44
1040
1.0
1070
    74
1070
     0
1000
MTEXTEND
1000
MTEXTBEGIN
1070
    73
1070
     1
1070
    44
1040
1.0
1070
    74
1070
     0
1000
MTEXTEND
1000
MTEXTBEGIN
1070
    73
1070
     1
1070
    44
1040
1.0
1070
    74
1070
     0
1000
MTEXTEND
  0
POINT
  5
1949
330
1942
100
AcDbEntity
  8
DEFPOINTS
 62
     0
100
AcDbPoint
 10
1299.999999999999
 20
2270.0
 30
0.0
  0
POINT
  5
194A
330
1942
100
AcDbEntity
  8
DEFPOINTS
 62
     0
100
AcDbPoint
 10
1699.999999999999
 20
2270.0
 30
0.0
  0
POINT
  5
194B
330
1942
100
AcDbEntity
  8
DEFPOINTS
 62
     0
100
AcDbPoint
 10
1699.999999999999
 20
2100.0
 30
0.0
  0
ENDBLK
  5
194D
330
1942
100
AcDbEntity
  8
0
100
AcDbBlockEnd
  0
BLOCK
  5
1E2C
330
1E25
100
AcDbEntity
  8
0
100
AcDbBlockBegin
  2
*D33
 70
     1
 10
0.0
 20
0.0
 30
0.0
  3
*D33
  1

  0
LINE
  5
1E26
330
1E25
100
AcDbEntity
  8
SUNPO
 62
   144
100
AcDbLine
 10
1171.193662567913
 20
2830.723420272411
 30
0.0
 11
1290.011057197412
 21
2746.619511030425
 31
0.0
  0
MTEXT
  5
1E27
330
1E25
100
AcDbEntity
  8
SUNPO
 62
     7
100
AcDbMText
 10
1236.79674648666
 20
2821.654485140243
 30
0.0
 40
36.0
 41
0.0
 71
     5
 72
     1
  1
\A2;R70
  7
ADD
 11
0.8162137020672194
 21
-0.5777501125553542
 31
0.0
1001
ACAD
1000
MTEXTBEGIN
1070
    73
1070
     1
1070
    44
1040
1.0
1070
    74
1070
     0
1000
MTEXTEND
1000
MTEXTBEGIN
1070
    73
1070
     1
1070
    44
1040
1.0
1070
    74
1070
     0
1000
MTEXTEND
1000
MTEXTBEGIN
1070
    73
1070
     1
1070
    44
1040
1.0
1070
    74
1070
     0
1000
MTEXTEND
1000
MTEXTBEGIN
1070
    73
1070
     1
1070
    44
1040
1.0
1070
    74
1070
     0
1000
MTEXTEND
1000
MTEXTBEGIN
1070
    73
1070
     1
1070
    44
1040
1.0
1070
    74
1070
     0
1000
MTEXTEND
  0
LINE
  5
1E28
330
1E25
100
AcDbEntity
  8
SUNPO
 62
   144
100
AcDbLine
 10
1370.0
 20
2689.999999999999
 30
0.0
 11
1312.865040855295
 21
2730.442507878874
 31
0.0
  0
SOLID
  5
1E29
330
1E25
100
AcDbEntity
  8
SUNPO
 62
   144
100
AcDbTrace
 10
1292.707224389337
 20
2750.428508306738
 30
0.0
 11
1287.314890005488
 21
2742.810513754111
 31
0.0
 12
1312.865040855295
 22
2730.442507878874
 32
0.0
 13
1312.865040855295
 23
2730.442507878874
 33
0.0
  0
POINT
  5
1E2A
330
1E25
100
AcDbEntity
  8
DEFPOINTS
 62
     0
100
AcDbPoint
 10
1312.865040855295
 20
2730.442507878874
 30
0.0
  0
POINT
  5
1E2B
330
1E25
100
AcDbEntity
  8
DEFPOINTS
 62
     0
100
AcDbPoint
 10
1370.0
 20
2689.999999999999
 30
0.0
  0
ENDBLK
  5
1E2D
330
1E25
100
AcDbEntity
  8
0
100
AcDbBlockEnd
  0
BLOCK
  5
1EBB
330
1EB1
100
AcDbEntity
  8
0
100
AcDbBlockBegin
  2
*D34
 70
     1
 10
0.0
 20
0.0
 30
0.0
  3
*D34
  1

  0
LINE
  5
1EB2
330
1EB1
100
AcDbEntity
  8
SUNPO
 62
   144
100
AcDbLine
 10
2649.999999999999
 20
1870.0
 30
0.0
 11
2649.999999999999
 21
2010.0
 31
0.0
  0
LINE
  5
1EB3
330
1EB1
100
AcDbEntity
  8
SUNPO
 62
   144
100
AcDbLine
 10
4650.0
 20
1870.0
 30
0.0
 11
4650.0
 21
2010.0
 31
0.0
  0
LINE
  5
1EB4
330
1EB1
100
AcDbEntity
  8
SUNPO
 62
   144
100
AcDbLine
 10
2677.999999999999
 20
2000.0
 30
0.0
 11
4622.0
 21
2000.0
 31
0.0
  0
SOLID
  5
1EB5
330
1EB1
100
AcDbEntity
  8
SUNPO
 62
   144
100
AcDbTrace
 10
2677.999999999999
 20
2004.666666666666
 30
0.0
 11
2677.999999999999
 21
1995.333333333333
 31
0.0
 12
2649.999999999999
 22
2000.0
 32
0.0
 13
2649.999999999999
 23
2000.0
 33
0.0
  0
SOLID
  5
1EB6
330
1EB1
100
AcDbEntity
  8
SUNPO
 62
   144
100
AcDbTrace
 10
4622.0
 20
2004.666666666666
 30
0.0
 11
4622.0
 21
1995.333333333333
 31
0.0
 12
4650.0
 22
2000.0
 32
0.0
 13
4650.0
 23
2000.0
 33
0.0
  0
MTEXT
  5
1EB7
330
1EB1
100
AcDbEntity
  8
SUNPO
 62
     7
100
AcDbMText
 10
3650.0
 20
2030.499999999999
 30
0.0
 40
36.0
 41
0.0
 71
     5
 72
     1
  1
\A2;2000
  7
ADD
1001
ACAD
1000
MTEXTBEGIN
1070
    73
1070
     1
1070
    44
1040
1.0
1070
    74
1070
     0
1000
MTEXTEND
1000
MTEXTBEGIN
1070
    73
1070
     1
1070
    44
1040
1.0
1070
    74
1070
     0
1000
MTEXTEND
1000
MTEXTBEGIN
1070
    73
1070
     1
1070
    44
1040
1.0
1070
    74
1070
     0
1000
MTEXTEND
1000
MTEXTBEGIN
1070
    73
1070
     1
1070
    44
1040
1.0
1070
    74
1070
     0
1000
MTEXTEND
  0
POINT
  5
1EB8
330
1EB1
100
AcDbEntity
  8
DEFPOINTS
 62
     0
100
AcDbPoint
 10
2649.999999999999
 20
1850.0
 30
0.0
  0
POINT
  5
1EB9
330
1EB1
100
AcDbEntity
  8
DEFPOINTS
 62
     0
100
AcDbPoint
 10
4650.0
 20
1850.0
 30
0.0
  0
POINT
  5
1EBA
330
1EB1
100
AcDbEntity
  8
DEFPOINTS
 62
     0
100
AcDbPoint
 10
4650.0
 20
2000.0
 30
0.0
  0
ENDBLK
  5
1EBC
330
1EB1
100
AcDbEntity
  8
0
100
AcDbBlockEnd
  0
ENDSEC
  0
SECTION
  2
ENTITIES
  0
LINE
  5
60A
330
1F
100
AcDbEntity
  8
3C1
100
AcDbLine
 10
360.0
 20
260.0
 30
0.0
 11
5580.0
 21
260.0
 31
0.0
  0
LINE
  5
60B
330
1F
100
AcDbEntity
  8
3C1
100
AcDbLine
 10
360.0
 20
560.0
 30
0.0
 11
5580.0
 21
560.0
 31
0.0
  0
LINE
  5
60C
330
1F
100
AcDbEntity
  8
3C1
100
AcDbLine
 10
360.0
 20
260.0
 30
0.0
 11
360.0
 21
560.0
 31
0.0
  0
LINE
  5
60D
330
1F
100
AcDbEntity
  8
3C1
100
AcDbLine
 10
2360.0
 20
260.0
 30
0.0
 11
2360.0
 21
560.0
 31
0.0
  0
LINE
  5
60F
330
1F
100
AcDbEntity
  8
3C1
100
AcDbLine
 10
3160.0
 20
260.0
 30
0.0
 11
3160.0
 21
560.0
 31
0.0
  0
LINE
  5
610
330
1F
100
AcDbEntity
  8
3C1
100
AcDbLine
 10
3660.0
 20
260.0
 30
0.0
 11
3660.0
 21
560.0
 31
0.0
  0
LINE
  5
119F
330
1F
100
AcDbEntity
  8
3C1
100
AcDbLine
 10
1580.019403644105
 20
3022.763203847502
 30
0.0
 11
1595.999999999999
 21
2850.0
 31
0.0
  0
LINE
  5
11A2
330
1F
100
AcDbEntity
  8
3C1
100
AcDbLine
 10
1232.995057820109
 20
2859.827870240224
 30
0.0
 11
1403.999999999999
 21
2849.999999999999
 31
0.0
  0
LINE
  5
11A5
330
1F
100
AcDbEntity
  8
3C1
100
AcDbLine
 10
1767.00494217989
 20
2859.827870240224
 30
0.0
 11
1596.0
 21
2850.0
 31
0.0
  0
LINE
  5
11A6
330
1F
100
AcDbEntity
  8
3C1
100
AcDbLine
 10
1408.624999999999
 20
2900.0
 30
0.0
 11
1591.375
 21
2900.0
 31
0.0
  0
LINE
  5
11A9
330
1F
100
AcDbEntity
  8
3C1
100
AcDbLine
 10
1449.85307038295
 20
3050.0
 30
0.0
 11
1550.146929617049
 21
3049.999999999999
 31
0.0
  0
ARC
  5
11AB
330
1F
100
AcDbEntity
  8
3C1
100
AcDbCircle
 10
1449.85307038295
 20
3020.0
 30
0.0
 40
30.0
100
AcDbArc
 50
90.0
 51
174.7151789074909
  0
ARC
  5
11AC
330
1F
100
AcDbEntity
  8
3C1
100
AcDbCircle
 10
1550.146929617049
 20
3019.999999999999
 30
0.0
 40
30.0
100
AcDbArc
 50
5.284821092509035
 51
90.0
  0
LINE
  5
11AD
330
1F
100
AcDbEntity
  8
3C1
100
AcDbLine
 10
1230.0
 20
2857.0
 30
0.0
 11
1229.999999999999
 21
2295.0
 31
0.0
  0
LINE
  5
11AE
330
1F
100
AcDbEntity
  8
3C1
100
AcDbLine
 10
1254.999999999999
 20
2270.0
 30
0.0
 11
1744.999999999999
 21
2270.0
 31
0.0
  0
LINE
  5
11AF
330
1F
100
AcDbEntity
  8
3C1
100
AcDbLine
 10
1769.999999999999
 20
2295.0
 30
0.0
 11
1770.0
 21
2857.0
 31
0.0
  0
ARC
  5
11B2
330
1F
100
AcDbEntity
  8
3C1
100
AcDbCircle
 10
1500.0
 20
2710.0
 30
0.0
 40
350.0
100
AcDbArc
 50
242.3359955038106
 51
297.6640044961893
  0
LINE
  5
11B5
330
1F
100
AcDbEntity
  8
3C1
100
AcDbLine
 10
1300.0
 20
2462.008064647255
 30
0.0
 11
1300.0
 21
2690.0
 31
0.0
  0
LINE
  5
11B6
330
1F
100
AcDbEntity
  8
3C1
100
AcDbLine
 10
1370.0
 20
2760.0
 30
0.0
 11
1629.999999999999
 21
2760.0
 31
0.0
  0
LINE
  5
11B7
330
1F
100
AcDbEntity
  8
3C1
100
AcDbLine
 10
1699.999999999999
 20
2690.0
 30
0.0
 11
1700.0
 21
2462.008064647255
 31
0.0
  0
LINE
  5
151E
330
1F
100
AcDbEntity
  8
3C1
100
AcDbLine
 10
2650.0
 20
3050.0
 30
0.0
 11
2650.0
 21
2295.0
 31
0.0
  0
LINE
  5
151F
330
1F
100
AcDbEntity
  8
3C1
100
AcDbLine
 10
2675.0
 20
2270.0
 30
0.0
 11
4625.0
 21
2270.0
 31
0.0
  0
LINE
  5
1520
330
1F
100
AcDbEntity
  8
3C1
100
AcDbLine
 10
4650.0
 20
2295.0
 30
0.0
 11
4650.000000000001
 21
2857.319076344661
 31
0.0
  0
LINE
  5
1522
330
1F
100
AcDbEntity
  8
3C1
100
AcDbLine
 10
2650.0
 20
2860.0
 30
0.0
 11
4650.0
 21
2860.0
 31
0.0
  0
LINE
  5
1525
330
1F
100
AcDbEntity
  8
3C1
  6
HIDDEN2
100
AcDbLine
 10
2650.0
 20
2760.0
 30
0.0
 11
4650.0
 21
2760.0
 31
0.0
  0
LINE
  5
1527
330
1F
100
AcDbEntity
  8
3C1
  6
HIDDEN2
100
AcDbLine
 10
2650.0
 20
2360.0
 30
0.0
 11
4650.0
 21
2360.0
 31
0.0
  0
LINE
  5
1531
330
1F
100
AcDbEntity
  8
3C1
100
AcDbLine
 10
2650.0
 20
2900.0
 30
0.0
 11
2713.98014876084
 21
2893.601985123916
 31
0.0
  0
LINE
  5
1534
330
1F
100
AcDbEntity
  8
3C1
100
AcDbLine
 10
2750.0
 20
2853.800497515516
 30
0.0
 11
2750.0
 21
2850.0
 31
0.0
  0
ARC
  5
1535
330
1F
100
AcDbEntity
  8
3C1
100
AcDbCircle
 10
2710.0
 20
2853.800497515516
 30
0.0
 40
40.0
100
AcDbArc
 50
0.0
 51
84.28940686250037
  0
LINE
  5
1538
330
1F
100
AcDbEntity
  8
3C1
100
AcDbLine
 10
4550.0
 20
2853.800497515516
 30
0.0
 11
4550.0
 21
2850.0
 31
0.0
  0
LINE
  5
1642
330
1F
100
AcDbEntity
  8
3C1
100
AcDbLine
 10
2649.999999999999
 20
1657.499999999999
 30
0.0
 11
4650.0
 21
1657.499999999999
 31
0.0
  0
LINE
  5
1643
330
1F
100
AcDbEntity
  8
3C1
100
AcDbLine
 10
2649.999999999999
 20
1502.5
 30
0.0
 11
4650.0
 21
1502.5
 31
0.0
  0
LINE
  5
1646
330
1F
100
AcDbEntity
  8
3C1
  6
HIDDEN
100
AcDbLine
 10
2649.999999999999
 20
1680.0
 30
0.0
 11
2750.0
 21
1679.999999999999
 31
0.0
  0
LINE
  5
1647
330
1F
100
AcDbEntity
  8
3C1
  6
HIDDEN
100
AcDbLine
 10
2649.999999999999
 20
1480.0
 30
0.0
 11
2750.0
 21
1480.0
 31
0.0
  0
LINE
  5
1648
330
1F
100
AcDbEntity
  8
3C1
  6
HIDDEN
100
AcDbLine
 10
2750.0
 20
1680.0
 30
0.0
 11
2750.0
 21
1480.0
 31
0.0
  0
LINE
  5
164C
330
1F
100
AcDbEntity
  8
3C1
100
AcDbLine
 10
2649.999999999999
 20
1676.0
 30
0.0
 11
4650.0
 21
1676.0
 31
0.0
  0
LINE
  5
164D
330
1F
100
AcDbEntity
  8
3C1
100
AcDbLine
 10
2649.999999999999
 20
1484.0
 30
0.0
 11
4650.0
 21
1484.0
 31
0.0
  0
LINE
  5
164E
330
1F
100
AcDbEntity
  8
3C1
  6
HIDDEN2
100
AcDbLine
 10
2649.999999999999
 20
1780.0
 30
0.0
 11
4650.0
 21
1780.0
 31
0.0
  0
LINE
  5
164F
330
1F
100
AcDbEntity
  8
3C1
  6
HIDDEN2
100
AcDbLine
 10
2649.999999999999
 20
1380.0
 30
0.0
 11
4650.0
 21
1380.0
 31
0.0
  0
LINE
  5
1650
330
1F
100
AcDbEntity
  8
3C1
100
AcDbLine
 10
2649.999999999999
 20
1850.0
 30
0.0
 11
2649.999999999999
 21
1310.0
 31
0.0
  0
LINE
  5
1651
330
1F
100
AcDbEntity
  8
3C1
100
AcDbLine
 10
2649.999999999999
 20
1310.0
 30
0.0
 11
4650.0
 21
1310.0
 31
0.0
  0
LINE
  5
1652
330
1F
100
AcDbEntity
  8
3C1
100
AcDbLine
 10
4650.0
 20
1310.0
 30
0.0
 11
4650.0
 21
1850.0
 31
0.0
  0
LINE
  5
1653
330
1F
100
AcDbEntity
  8
3C1
100
AcDbLine
 10
4650.0
 20
1850.0
 30
0.0
 11
2649.999999999999
 21
1850.0
 31
0.0
  0
ARC
  5
169C
330
1F
100
AcDbEntity
  8
3C1
100
AcDbCircle
 10
1370.0
 20
2690.0
 30
0.0
 40
70.0
100
AcDbArc
 50
90.0
 51
179.9999999999999
  0
ARC
  5
169D
330
1F
100
AcDbEntity
  8
3C1
100
AcDbCircle
 10
1629.999999999999
 20
2690.0
 30
0.0
 40
70.0
100
AcDbArc
 50
0.0000000000000509
 51
90.0
  0
ARC
  5
169E
330
1F
100
AcDbEntity
  8
3C1
100
AcDbCircle
 10
1629.999999999999
 20
2462.008064647255
 30
0.0
 40
70.0
100
AcDbArc
 50
297.664004496189
 51
0.0000000000003722
  0
ARC
  5
169F
330
1F
100
AcDbEntity
  8
3C1
100
AcDbCircle
 10
1370.0
 20
2462.008064647255
 30
0.0
 40
70.0
100
AcDbArc
 50
179.9999999999996
 51
242.3359955038106
  0
LINE
  5
16FF
330
1F
100
AcDbEntity
  8
SUNPO
100
AcDbLine
 10
1257.499999999999
 20
2760.0
 30
0.0
 11
1272.499999999999
 21
2760.0
 31
0.0
  0
LINE
  5
1706
330
1F
100
AcDbEntity
  8
SUNPO
100
AcDbLine
 10
1742.499999999999
 20
2760.0
 30
0.0
 11
1727.5
 21
2760.0
 31
0.0
  0
LINE
  5
177E
330
1F
100
AcDbEntity
  8
3C1
100
AcDbLine
 10
1252.999999999999
 20
2760.0
 30
0.0
 11
1276.999999999999
 21
2760.0
 31
0.0
  0
LINE
  5
177F
330
1F
100
AcDbEntity
  8
3C1
100
AcDbLine
 10
1722.999999999999
 20
2760.0
 30
0.0
 11
1746.999999999999
 21
2760.0
 31
0.0
  0
LINE
  5
1782
330
1F
100
AcDbEntity
  8
3C1
  6
HIDDEN2
100
AcDbLine
 10
2650.0
 20
2850.0
 30
0.0
 11
4650.0
 21
2850.0
 31
0.0
  0
LINE
  5
1787
330
1F
100
AcDbEntity
  8
2C1
100
AcDbLine
 10
2649.999999999999
 20
1664.5
 30
0.0
 11
4650.0
 21
1664.5
 31
0.0
  0
LINE
  5
1788
330
1F
100
AcDbEntity
  8
2C1
100
AcDbLine
 10
2649.999999999999
 20
1650.5
 30
0.0
 11
4650.0
 21
1650.5
 31
0.0
  0
LINE
  5
1789
330
1F
100
AcDbEntity
  8
3C1
100
AcDbLine
 10
2649.999999999999
 20
1509.5
 30
0.0
 11
4650.0
 21
1509.5
 31
0.0
  0
LINE
  5
178A
330
1F
100
AcDbEntity
  8
2C1
100
AcDbLine
 10
2649.999999999999
 20
1509.5
 30
0.0
 11
4650.0
 21
1509.5
 31
0.0
  0
LINE
  5
178B
330
1F
100
AcDbEntity
  8
2C1
100
AcDbLine
 10
2649.999999999999
 20
1495.5
 30
0.0
 11
4650.0
 21
1495.5
 31
0.0
  0
LINE
  5
179F
330
1F
100
AcDbEntity
  8
3C1
100
AcDbLine
 10
4050.0
 20
3050.0
 30
0.0
 11
4628.178077173681
 21
2886.182878134123
 31
0.0
  0
LINE
  5
17A0
330
1F
100
AcDbEntity
  8
3C1
100
AcDbLine
 10
4050.0
 20
3050.0
 30
0.0
 11
2650.0
 21
3050.0
 31
0.0
  0
ARC
  5
17A2
330
1F
100
AcDbEntity
  8
3C1
100
AcDbCircle
 10
4620.0
 20
2857.319076344661
 30
0.0
 40
30.0
100
AcDbArc
 50
359.9999999999998
 51
74.18080605249986
  0
LINE
  5
17DC
330
1F
100
AcDbEntity
  8
3C1
100
AcDbLine
 10
4050.0
 20
1484.0
 30
0.0
 11
4050.0
 21
1676.0
 31
0.0
  0
LINE
  5
190C
330
1F
100
AcDbEntity
  8
3C1
100
AcDbLine
 10
1252.999999999999
 20
2760.0
 30
0.0
 11
1252.999999999999
 21
2439.999999999999
 31
0.0
  0
LINE
  5
190D
330
1F
100
AcDbEntity
  8
3C1
100
AcDbLine
 10
1276.999999999999
 20
2760.0
 30
0.0
 11
1276.999999999999
 21
2440.0
 31
0.0
  0
LINE
  5
190E
330
1F
100
AcDbEntity
  8
3C1
100
AcDbLine
 10
1722.999999999999
 20
2760.0
 30
0.0
 11
1722.999999999999
 21
2440.0
 31
0.0
  0
LINE
  5
190F
330
1F
100
AcDbEntity
  8
3C1
100
AcDbLine
 10
1746.999999999999
 20
2760.0
 30
0.0
 11
1746.999999999999
 21
2439.999999999999
 31
0.0
  0
LINE
  5
1910
330
1F
100
AcDbEntity
  8
3C1
100
AcDbLine
 10
1622.999999999999
 20
2340.0
 30
0.0
 11
1376.999999999999
 21
2340.0
 31
0.0
  0
LINE
  5
1911
330
1F
100
AcDbEntity
  8
3C1
100
AcDbLine
 10
1623.0
 20
2315.999999999999
 30
0.0
 11
1376.999999999999
 21
2315.999999999999
 31
0.0
  0
ARC
  5
1921
330
1F
100
AcDbEntity
  8
3C1
100
AcDbCircle
 10
1376.999999999999
 20
2440.0
 30
0.0
 40
100.0
100
AcDbArc
 50
180.0
 51
270.0
  0
ARC
  5
1922
330
1F
100
AcDbEntity
  8
3C1
100
AcDbCircle
 10
1622.999999999999
 20
2440.0
 30
0.0
 40
100.0
100
AcDbArc
 50
270.0
 51
0.0
  0
ARC
  5
1950
330
1F
100
AcDbEntity
  8
3C1
100
AcDbCircle
 10
1376.999999999999
 20
2440.0
 30
0.0
 40
100.0
100
AcDbArc
 50
180.0
 51
270.0
  0
ARC
  5
1951
330
1F
100
AcDbEntity
  8
3C1
100
AcDbCircle
 10
1376.999999999999
 20
2439.999999999999
 30
0.0
 40
124.0
100
AcDbArc
 50
179.9999999999999
 51
270.0000000000001
  0
ARC
  5
1952
330
1F
100
AcDbEntity
  8
3C1
100
AcDbCircle
 10
1622.999999999999
 20
2439.999999999999
 30
0.0
 40
124.0
100
AcDbArc
 50
270.0000000000001
 51
0.0
  0
LINE
  5
1A5B
330
1F
100
AcDbEntity
  8
3C1
  6
HIDDEN2
100
AcDbLine
 10
1425.0103802553
 20
2880.0
 30
0.0
 11
1574.989619744699
 21
2879.999999999999
 31
0.0
  0
ARC
  5
1A5E
330
1F
100
AcDbEntity
  8
3C1
100
AcDbCircle
 10
1425.0103802553
 20
2860.0
 30
0.0
 40
20.0
100
AcDbArc
 50
89.99999999999982
 51
174.7151789074909
  0
ARC
  5
1A5F
330
1F
100
AcDbEntity
  8
3C1
100
AcDbCircle
 10
1574.989619744699
 20
2859.999999999999
 30
0.0
 40
20.0
100
AcDbArc
 50
5.284821092509085
 51
89.99999999999982
  0
LINE
  5
1AE3
330
1F
100
AcDbEntity
  8
3C1
100
AcDbLine
 10
1230.0
 20
2857.0
 30
0.0
 11
1403.999999999999
 21
2846.999999999999
 31
0.0
  0
LINE
  5
1AE4
330
1F
100
AcDbEntity
  8
3C1
100
AcDbLine
 10
1770.0
 20
2857.0
 30
0.0
 11
1596.0
 21
2847.0
 31
0.0
  0
LINE
  5
1AE7
330
1F
100
AcDbEntity
  8
3C1
100
AcDbLine
 10
1767.00494217989
 20
2859.827870240224
 30
0.0
 11
1770.0
 21
2857.0
 31
0.0
  0
LINE
  5
1AE8
330
1F
100
AcDbEntity
  8
3C1
100
AcDbLine
 10
1230.0
 20
2857.0
 30
0.0
 11
1232.995057820109
 21
2859.827870240224
 31
0.0
  0
LINE
  5
1AE9
330
1F
100
AcDbEntity
  8
3C1
100
AcDbLine
 10
1404.0
 20
2849.999999999999
 30
0.0
 11
1404.0
 21
2760.0
 31
0.0
  0
LINE
  5
1AEA
330
1F
100
AcDbEntity
  8
3C1
100
AcDbLine
 10
1596.0
 20
2850.0
 30
0.0
 11
1596.0
 21
2760.0
 31
0.0
  0
LINE
  5
1AEC
330
1F
100
AcDbEntity
  8
3C1
100
AcDbLine
 10
1404.0
 20
2850.0
 30
0.0
 11
1419.980596355894
 21
3022.763203847502
 31
0.0
  0
LINE
  5
1BF3
330
1F
100
AcDbEntity
  8
2C1
100
AcDbLine
 10
1229.999999999999
 20
2295.0
 30
0.0
 11
1769.999999999999
 21
2295.0
 31
0.0
  0
LINE
  5
1BF5
330
1F
100
AcDbEntity
  8
3C1
100
AcDbLine
 10
2650.0
 20
2295.0
 30
0.0
 11
4650.0
 21
2295.0
 31
0.0
  0
LINE
  5
1BF6
330
1F
100
AcDbEntity
  8
3C1
100
AcDbLine
 10
1229.999999999999
 20
2295.0
 30
0.0
 11
1254.999999999999
 21
2270.0
 31
0.0
  0
LINE
  5
1BF7
330
1F
100
AcDbEntity
  8
3C1
100
AcDbLine
 10
1769.999999999999
 20
2295.0
 30
0.0
 11
1744.999999999999
 21
2270.0
 31
0.0
  0
LINE
  5
1BF8
330
1F
100
AcDbEntity
  8
3C1
100
AcDbLine
 10
2650.0
 20
2295.0
 30
0.0
 11
2675.0
 21
2270.0
 31
0.0
  0
LINE
  5
1BF9
330
1F
100
AcDbEntity
  8
3C1
100
AcDbLine
 10
4625.0
 20
2270.0
 30
0.0
 11
4650.0
 21
2295.0
 31
0.0
  0
LINE
  5
1BFF
330
1F
100
AcDbEntity
  8
2C1
  6
HIDDEN2
100
AcDbLine
 10
3137.499999999999
 20
2860.0
 30
0.0
 11
3134.999999999999
 21
2760.0
 31
0.0
  0
LINE
  5
1C00
330
1F
100
AcDbEntity
  8
2C1
  6
HIDDEN2
100
AcDbLine
 10
3162.499999999999
 20
2860.0
 30
0.0
 11
3164.999999999999
 21
2760.0
 31
0.0
  0
LINE
  5
1C01
330
1F
100
AcDbEntity
  8
2C1
  6
HIDDEN2
100
AcDbLine
 10
4162.5
 20
2860.0
 30
0.0
 11
4165.0
 21
2760.0
 31
0.0
  0
LINE
  5
1C02
330
1F
100
AcDbEntity
  8
2C1
  6
HIDDEN2
100
AcDbLine
 10
4137.5
 20
2860.0
 30
0.0
 11
4135.0
 21
2760.0
 31
0.0
  0
LINE
  5
1C03
330
1F
100
AcDbEntity
  8
3C1
100
AcDbLine
 10
2650.0
 20
2857.0
 30
0.0
 11
4650.0
 21
2857.0
 31
0.0
  0
LINE
  5
1C04
330
1F
100
AcDbEntity
  8
2C1
  6
HIDDEN2
100
AcDbLine
 10
4650.0
 20
1825.0
 30
0.0
 11
2649.999999999999
 21
1825.0
 31
0.0
  0
LINE
  5
1C05
330
1F
100
AcDbEntity
  8
2C1
  6
HIDDEN2
100
AcDbLine
 10
2649.999999999999
 20
1335.0
 30
0.0
 11
4650.0
 21
1335.0
 31
0.0
  0
LINE
  5
1C06
330
1F
100
AcDbEntity
  8
2C1
100
AcDbLine
 10
2649.999999999999
 20
1313.0
 30
0.0
 11
4650.0
 21
1313.0
 31
0.0
  0
LINE
  5
1C07
330
1F
100
AcDbEntity
  8
2C1
100
AcDbLine
 10
4650.0
 20
1847.0
 30
0.0
 11
2649.999999999999
 21
1847.0
 31
0.0
  0
LINE
  5
2043
330
1F
100
AcDbEntity
  8
SUNPO
 62
   144
100
AcDbLine
 10
2649.999999999999
 20
1870.0
 30
0.0
 11
2649.999999999999
 21
2010.0
 31
0.0
  0
LINE
  5
2044
330
1F
100
AcDbEntity
  8
SUNPO
 62
   144
100
AcDbLine
 10
4650.0
 20
1870.0
 30
0.0
 11
4650.0
 21
2010.0
 31
0.0
  0
LINE
  5
2045
330
1F
100
AcDbEntity
  8
SUNPO
 62
   144
100
AcDbLine
 10
2677.999999999999
 20
2000.0
 30
0.0
 11
4622.0
 21
2000.0
 31
0.0
  0
SOLID
  5
2046
330
1F
100
AcDbEntity
  8
SUNPO
 62
   144
100
AcDbTrace
 10
2677.999999999999
 20
2004.666666666666
 30
0.0
 11
2677.999999999999
 21
1995.333333333333
 31
0.0
 12
2649.999999999999
 22
2000.0
 32
0.0
 13
2649.999999999999
 23
2000.0
 33
0.0
  0
SOLID
  5
2047
330
1F
100
AcDbEntity
  8
SUNPO
 62
   144
100
AcDbTrace
 10
4622.0
 20
2004.666666666666
 30
0.0
 11
4622.0
 21
1995.333333333333
 31
0.0
 12
4650.0
 22
2000.0
 32
0.0
 13
4650.0
 23
2000.0
 33
0.0
  0
LINE
  5
2049
330
1F
100
AcDbEntity
  8
SUNPO
 62
   144
100
AcDbLine
 10
1171.193662567913
 20
2830.723420272411
 30
0.0
 11
1290.011057197412
 21
2746.619511030425
 31
0.0
  0
LINE
  5
204B
330
1F
100
AcDbEntity
  8
SUNPO
 62
   144
100
AcDbLine
 10
1370.0
 20
2689.999999999999
 30
0.0
 11
1312.865040855295
 21
2730.442507878874
 31
0.0
  0
SOLID
  5
204C
330
1F
100
AcDbEntity
  8
SUNPO
 62
   144
100
AcDbTrace
 10
1292.707224389337
 20
2750.428508306738
 30
0.0
 11
1287.314890005488
 21
2742.810513754111
 31
0.0
 12
1312.865040855295
 22
2730.442507878874
 32
0.0
 13
1312.865040855295
 23
2730.442507878874
 33
0.0
  0
TEXT
  5
204D
330
1F
100
AcDbEntity
  8
SUNPO
100
AcDbText
 10
1874.571428571428
 20
2172.0
 30
0.0
 40
38.0
  1
25C
  7
ADD
100
AcDbText
1001
ACAD
1000
MTEXTBEGIN
1070
    73
1070
     1
1070
    44
1040
1.0
1070
    74
1070
     0
1000
MTEXTEND
1000
MTEXTBEGIN
1070
    73
1070
     1
1070
    44
1040
1.0
1070
    74
1070
     0
1000
MTEXTEND
1000
MTEXTBEGIN
1070
    73
1070
     1
1070
    44
1040
1.0
1070
    74
1070
     0
1000
MTEXTEND
1000
MTEXTBEGIN
1070
    73
1070
     1
1070
    44
1040
1.0
1070
    74
1070
     0
1000
MTEXTEND
1000
MTEXTBEGIN
1070
    73
1070
     1
1070
    44
1040
1.0
1070
    74
1070
     0
1000
MTEXTEND
1000
MTEXTBEGIN
1070
    73
1070
     1
1070
    44
1040
1.0
1070
    74
1070
     0
1000
MTEXTEND
  0
SOLID
  5
204E
330
1F
100
AcDbEntity
  8
SUNPO
100
AcDbTrace
 10
1773.002200508816
 20
2258.720606459326
 30
0.0
 11
1757.499999999999
 21
2282.5
 31
0.0
 12
1779.876479467477
 22
2265.033719788708
 32
0.0
 13
1779.876479467477
 23
2265.033719788708
 33
0.0
1001
ACAD
1000
DSTYLE
1002
{
1070
     5
1000

1070
    40
1040
20.0
1070
    41
1040
1.399999999999999
1070
    77
1070
     0
1070
   140
1040
1.8
1070
   141
1040
1.399999999999999
1070
   147
1040
0.625
1070
   342
1005
0
1002
}
  0
TEXT
  5
2050
330
1F
100
AcDbEntity
  8
SUNPO
100
AcDbText
 10
1844.571428571429
 20
2942.0
 30
0.0
 40
38.0
  1
3C
  7
ADD
100
AcDbText
1001
ACAD
1000
MTEXTBEGIN
1070
    73
1070
     1
1070
    44
1040
1.0
1070
    74
1070
     0
1000
MTEXTEND
1000
MTEXTBEGIN
1070
    73
1070
     1
1070
    44
1040
1.0
1070
    74
1070
     0
1000
MTEXTEND
1000
MTEXTBEGIN
1070
    73
1070
     1
1070
    44
1040
1.0
1070
    74
1070
     0
1000
MTEXTEND
1000
MTEXTBEGIN
1070
    73
1070
     1
1070
    44
1040
1.0
1070
    74
1070
     0
1000
MTEXTEND
1000
MTEXTBEGIN
1070
    73
1070
     1
1070
    44
1040
1.0
1070
    74
1070
     0
1000
MTEXTEND
1000
MTEXTBEGIN
1070
    73
1070
     1
1070
    44
1040
1.0
1070
    74
1070
     0
1000
MTEXTEND
  0
SOLID
  5
2051
330
1F
100
AcDbEntity
  8
SUNPO
100
AcDbTrace
 10
1791.591078989005
 20
2874.927383065989
 30
0.0
 11
1768.502471089945
 21
2858.413935120112
 31
0.0
 12
1784.987333282285
 22
2881.522961414556
 32
0.0
 13
1784.987333282285
 23
2881.522961414556
 33
0.0
1001
ACAD
1000
DSTYLE
1002
{
1070
     5
1000

1070
    40
1040
20.0
1070
    41
1040
1.399999999999999
1070
    77
1070
     0
1070
   140
1040
1.8
1070
   141
1040
1.399999999999999
1070
   147
1040
0.625
1070
   342
1005
0
1002
}
  0
SOLID
  5
2053
330
1F
100
AcDbEntity
  8
SUNPO
100
AcDbTrace
 10
-1632.436562880066
 20
2872.280988607732
 30
0.0
 11
-1605.0
 21
2865.0
 31
0.0
 12
-1633.314907137706
 22
2862.989076938104
 32
0.0
 13
-1633.314907137706
 23
2862.989076938104
 33
0.0
210
0.0
220
0.0
230
-1.0
1001
ACAD
1000
DSTYLE
1002
{
1070
     5
1000

1070
    40
1040
20.0
1070
    41
1040
1.399999999999999
1070
    77
1070
     0
1070
   140
1040
1.8
1070
   141
1040
1.399999999999999
1070
   147
1040
0.625
1070
   342
1005
0
1002
}
  0
TEXT
  5
2055
330
1F
100
AcDbEntity
  8
SUNPO
100
AcDbText
 10
1626.644713652995
 20
2877.427715230487
 30
0.0
 40
38.0
  1
6
 50
5.4
  7
ADD
100
AcDbText
1001
ACAD
1000
MTEXTBEGIN
1070
    73
1070
     1
1070
    44
1040
1.0
1070
    74
1070
     0
1000
MTEXTEND
1000
MTEXTBEGIN
1070
    73
1070
     1
1070
    44
1040
1.0
1070
    74
1070
     0
1000
MTEXTEND
1000
MTEXTBEGIN
1070
    73
1070
     1
1070
    44
1040
1.0
1070
    74
1070
     0
1000
MTEXTEND
1000
MTEXTBEGIN
1070
    73
1070
     1
1070
    44
1040
1.0
1070
    74
1070
     0
1000
MTEXTEND
1000
MTEXTBEGIN
1070
    73
1070
     1
1070
    44
1040
1.0
1070
    74
1070
     0
1000
MTEXTEND
1000
MTEXTBEGIN
1070
    73
1070
     1
1070
    44
1040
1.0
1070
    74
1070
     0
1000
MTEXTEND
1000
MTEXTBEGIN
1070
    73
1070
     1
1070
    44
1040
1.0
1070
    74
1070
     0
1000
MTEXTEND
1000
MTEXTBEGIN
1070
    73
1070
     1
1070
    44
1040
1.0
1070
    74
1070
     0
1000
MTEXTEND
1000
MTEXTBEGIN
1070
    73
1070
     1
1070
    44
1040
1.0
1070
    74
1070
     0
1000
MTEXTEND
1000
MTEXTBEGIN
1070
    73
1070
     1
1070
    44
1040
1.0
1070
    74
1070
     0
1000
MTEXTEND
1000
MTEXTBEGIN
1070
    73
1070
     1
1070
    44
1040
1.0
1070
    74
1070
     0
1000
MTEXTEND
1000
MTEXTBEGIN
1070
    73
1070
     1
1070
    44
1040
1.0
1070
    74
1070
     0
1000
MTEXTEND
1000
MTEXTBEGIN
1070
    73
1070
     1
1070
    44
1040
1.0
1070
    74
1070
     0
1000
MTEXTEND
1000
MTEXTBEGIN
1070
    73
1070
     1
1070
    44
1040
1.0
1070
    74
1070
     0
1000
MTEXTEND
  0
TEXT
  5
2056
330
1F
100
AcDbEntity
  8
SUNPO
100
AcDbText
 10
1662.674575229106
 20
2880.833539902966
 30
0.0
 40
38.0
  1
%
 50
5.4
  7
ADD
100
AcDbText
1001
ACAD
1000
MTEXTBEGIN
1070
    73
1070
     1
1070
    44
1040
1.0
1070
    74
1070
     0
1000
MTEXTEND
1000
MTEXTBEGIN
1070
    73
1070
     1
1070
    44
1040
1.0
1070
    74
1070
     0
1000
MTEXTEND
1000
MTEXTBEGIN
1070
    73
1070
     1
1070
    44
1040
1.0
1070
    74
1070
     0
1000
MTEXTEND
1000
MTEXTBEGIN
1070
    73
1070
     1
1070
    44
1040
1.0
1070
    74
1070
     0
1000
MTEXTEND
1000
MTEXTBEGIN
1070
    73
1070
     1
1070
    44
1040
1.0
1070
    74
1070
     0
1000
MTEXTEND
1000
MTEXTBEGIN
1070
    73
1070
     1
1070
    44
1040
1.0
1070
    74
1070
     0
1000
MTEXTEND
1000
MTEXTBEGIN
1070
    73
1070
     1
1070
    44
1040
1.0
1070
    74
1070
     0
1000
MTEXTEND
1000
MTEXTBEGIN
1070
    73
1070
     1
1070
    44
1040
1.0
1070
    74
1070
     0
1000
MTEXTEND
1000
MTEXTBEGIN
1070
    73
1070
     1
1070
    44
1040
1.0
1070
    74
1070
     0
1000
MTEXTEND
1000
MTEXTBEGIN
1070
    73
1070
     1
1070
    44
1040
1.0
1070
    74
1070
     0
1000
MTEXTEND
1000
MTEXTBEGIN
1070
    73
1070
     1
1070
    44
1040
1.0
1070
    74
1070
     0
1000
MTEXTEND
1000
MTEXTBEGIN
1070
    73
1070
     1
1070
    44
1040
1.0
1070
    74
1070
     0
1000
MTEXTEND
1000
MTEXTBEGIN
1070
    73
1070
     1
1070
    44
1040
1.0
1070
    74
1070
     0
1000
MTEXTEND
1000
MTEXTBEGIN
1070
    73
1070
     1
1070
    44
1040
1.0
1070
    74
1070
     0
1000
MTEXTEND
  0
SOLID
  5
2057
330
1F
100
AcDbEntity
  8
SUNPO
100
AcDbTrace
 10
1367.563437119933
 20
2872.280988607732
 30
0.0
 11
1395.0
 21
2865.0
 31
0.0
 12
1366.685092862294
 22
2862.989076938104
 32
0.0
 13
1366.685092862294
 23
2862.989076938104
 33
0.0
1001
ACAD
1000
DSTYLE
1002
{
1070
     5
1000

1070
    40
1040
20.0
1070
    41
1040
1.399999999999999
1070
    77
1070
     0
1070
   140
1040
1.8
1070
   141
1040
1.399999999999999
1070
   147
1040
0.625
1070
   342
1005
0
1002
}
  0
LINE
  5
2059
330
1F
100
AcDbEntity
  8
SUNPO
 62
   144
100
AcDbLine
 10
1299.999999999999
 20
2250.0
 30
0.0
 11
1299.999999999999
 21
2090.0
 31
0.0
  0
LINE
  5
205A
330
1F
100
AcDbEntity
  8
SUNPO
 62
   144
100
AcDbLine
 10
1699.999999999999
 20
2250.0
 30
0.0
 11
1699.999999999999
 21
2090.0
 31
0.0
  0
LINE
  5
205B
330
1F
100
AcDbEntity
  8
SUNPO
 62
   144
100
AcDbLine
 10
1327.999999999999
 20
2100.0
 30
0.0
 11
1671.999999999999
 21
2100.0
 31
0.0
  0
SOLID
  5
205C
330
1F
100
AcDbEntity
  8
SUNPO
 62
   144
100
AcDbTrace
 10
1327.999999999999
 20
2104.666666666666
 30
0.0
 11
1327.999999999999
 21
2095.333333333333
 31
0.0
 12
1299.999999999999
 22
2100.0
 32
0.0
 13
1299.999999999999
 23
2100.0
 33
0.0
  0
SOLID
  5
205D
330
1F
100
AcDbEntity
  8
SUNPO
 62
   144
100
AcDbTrace
 10
1671.999999999999
 20
2104.666666666666
 30
0.0
 11
1671.999999999999
 21
2095.333333333333
 31
0.0
 12
1699.999999999999
 22
2100.0
 32
0.0
 13
1699.999999999999
 23
2100.0
 33
0.0
  0
LINE
  5
205F
330
1F
100
AcDbEntity
  8
SUNPO
 62
   144
100
AcDbLine
 10
1699.999999999999
 20
2250.0
 30
0.0
 11
1699.999999999999
 21
2090.0
 31
0.0
  0
LINE
  5
2060
330
1F
100
AcDbEntity
  8
SUNPO
 62
   144
100
AcDbLine
 10
1769.999999999999
 20
2250.0
 30
0.0
 11
1769.999999999999
 21
2090.0
 31
0.0
  0
LINE
  5
2061
330
1F
100
AcDbEntity
  8
SUNPO
 62
   144
100
AcDbLine
 10
1671.999999999999
 20
2100.0
 30
0.0
 11
1643.999999999999
 21
2100.0
 31
0.0
  0
LINE
  5
2062
330
1F
100
AcDbEntity
  8
SUNPO
 62
   144
100
AcDbLine
 10
1797.999999999999
 20
2100.0
 30
0.0
 11
1825.999999999999
 21
2100.0
 31
0.0
  0
LINE
  5
2063
330
1F
100
AcDbEntity
  8
SUNPO
 62
   144
100
AcDbLine
 10
1699.999999999999
 20
2100.0
 30
0.0
 11
1769.999999999999
 21
2100.0
 31
0.0
  0
SOLID
  5
2064
330
1F
100
AcDbEntity
  8
SUNPO
 62
   144
100
AcDbTrace
 10
1671.999999999999
 20
2104.666666666666
 30
0.0
 11
1671.999999999999
 21
2095.333333333333
 31
0.0
 12
1699.999999999999
 22
2100.0
 32
0.0
 13
1699.999999999999
 23
2100.0
 33
0.0
  0
SOLID
  5
2065
330
1F
100
AcDbEntity
  8
SUNPO
 62
   144
100
AcDbTrace
 10
1797.999999999999
 20
2104.666666666666
 30
0.0
 11
1797.999999999999
 21
2095.333333333333
 31
0.0
 12
1769.999999999999
 22
2100.0
 32
0.0
 13
1769.999999999999
 23
2100.0
 33
0.0
  0
LINE
  5
2067
330
1F
100
AcDbEntity
  8
SUNPO
 62
   144
100
AcDbLine
 10
1229.999999999999
 20
2250.0
 30
0.0
 11
1229.999999999999
 21
2090.0
 31
0.0
  0
LINE
  5
2068
330
1F
100
AcDbEntity
  8
SUNPO
 62
   144
100
AcDbLine
 10
1299.999999999999
 20
2250.0
 30
0.0
 11
1299.999999999999
 21
2090.0
 31
0.0
  0
LINE
  5
2069
330
1F
100
AcDbEntity
  8
SUNPO
 62
   144
100
AcDbLine
 10
1201.999999999999
 20
2100.0
 30
0.0
 11
1173.999999999999
 21
2100.0
 31
0.0
  0
LINE
  5
206A
330
1F
100
AcDbEntity
  8
SUNPO
 62
   144
100
AcDbLine
 10
1327.999999999999
 20
2100.0
 30
0.0
 11
1355.999999999999
 21
2100.0
 31
0.0
  0
LINE
  5
206B
330
1F
100
AcDbEntity
  8
SUNPO
 62
   144
100
AcDbLine
 10
1229.999999999999
 20
2100.0
 30
0.0
 11
1299.999999999999
 21
2100.0
 31
0.0
  0
SOLID
  5
206C
330
1F
100
AcDbEntity
  8
SUNPO
 62
   144
100
AcDbTrace
 10
1201.999999999999
 20
2104.666666666666
 30
0.0
 11
1201.999999999999
 21
2095.333333333333
 31
0.0
 12
1229.999999999999
 22
2100.0
 32
0.0
 13
1229.999999999999
 23
2100.0
 33
0.0
  0
SOLID
  5
206D
330
1F
100
AcDbEntity
  8
SUNPO
 62
   144
100
AcDbTrace
 10
1327.999999999999
 20
2104.666666666666
 30
0.0
 11
1327.999999999999
 21
2095.333333333333
 31
0.0
 12
1299.999999999999
 22
2100.0
 32
0.0
 13
1299.999999999999
 23
2100.0
 33
0.0
  0
LINE
  5
206F
330
1F
100
AcDbEntity
  8
SUNPO
 62
   144
100
AcDbLine
 10
1576.0
 20
2850.0
 30
0.0
 11
1470.0
 21
2850.0
 31
0.0
  0
LINE
  5
2070
330
1F
100
AcDbEntity
  8
SUNPO
 62
   144
100
AcDbLine
 10
1480.0
 20
2760.0
 30
0.0
 11
1470.0
 21
2760.0
 31
0.0
  0
LINE
  5
2071
330
1F
100
AcDbEntity
  8
SUNPO
 62
   144
100
AcDbLine
 10
1480.0
 20
2822.0
 30
0.0
 11
1480.0
 21
2788.0
 31
0.0
  0
SOLID
  5
2072
330
1F
100
AcDbEntity
  8
SUNPO
 62
   144
100
AcDbTrace
 10
1475.333333333333
 20
2822.0
 30
0.0
 11
1484.666666666666
 21
2822.0
 31
0.0
 12
1480.0
 22
2850.0
 32
0.0
 13
1480.0
 23
2850.0
 33
0.0
  0
SOLID
  5
2073
330
1F
100
AcDbEntity
  8
SUNPO
 62
   144
100
AcDbTrace
 10
1475.333333333333
 20
2788.0
 30
0.0
 11
1484.666666666666
 21
2788.0
 31
0.0
 12
1480.0
 22
2760.0
 32
0.0
 13
1480.0
 23
2760.0
 33
0.0
  0
LINE
  5
2075
330
1F
100
AcDbEntity
  8
SUNPO
 62
   144
100
AcDbLine
 10
2650.0
 20
3070.0
 30
0.0
 11
2650.0
 21
3310.0
 31
0.0
  0
LINE
  5
2076
330
1F
100
AcDbEntity
  8
SUNPO
 62
   144
100
AcDbLine
 10
4650.0
 20
2900.0
 30
0.0
 11
4650.0
 21
3310.0
 31
0.0
  0
LINE
  5
2077
330
1F
100
AcDbEntity
  8
SUNPO
 62
   144
100
AcDbLine
 10
2678.0
 20
3300.0
 30
0.0
 11
4622.0
 21
3300.0
 31
0.0
  0
SOLID
  5
2078
330
1F
100
AcDbEntity
  8
SUNPO
 62
   144
100
AcDbTrace
 10
2678.0
 20
3304.666666666666
 30
0.0
 11
2678.0
 21
3295.333333333333
 31
0.0
 12
2650.0
 22
3300.0
 32
0.0
 13
2650.0
 23
3300.0
 33
0.0
  0
SOLID
  5
2079
330
1F
100
AcDbEntity
  8
SUNPO
 62
   144
100
AcDbTrace
 10
4622.0
 20
3304.666666666666
 30
0.0
 11
4622.0
 21
3295.333333333333
 31
0.0
 12
4650.0
 22
3300.0
 32
0.0
 13
4650.0
 23
3300.0
 33
0.0
  0
LINE
  5
207B
330
1F
100
AcDbEntity
  8
SUNPO
 62
   144
100
AcDbLine
 10
4050.0
 20
3070.0
 30
0.0
 11
4050.0
 21
3160.0
 31
0.0
  0
LINE
  5
207C
330
1F
100
AcDbEntity
  8
SUNPO
 62
   144
100
AcDbLine
 10
4650.0
 20
2900.0
 30
0.0
 11
4650.0
 21
3160.0
 31
0.0
  0
LINE
  5
207D
330
1F
100
AcDbEntity
  8
SUNPO
 62
   144
100
AcDbLine
 10
4078.0
 20
3150.0
 30
0.0
 11
4622.0
 21
3150.0
 31
0.0
  0
SOLID
  5
207E
330
1F
100
AcDbEntity
  8
SUNPO
 62
   144
100
AcDbTrace
 10
4078.0
 20
3154.666666666666
 30
0.0
 11
4078.0
 21
3145.333333333333
 31
0.0
 12
4050.0
 22
3150.0
 32
0.0
 13
4050.0
 23
3150.0
 33
0.0
  0
SOLID
  5
207F
330
1F
100
AcDbEntity
  8
SUNPO
 62
   144
100
AcDbTrace
 10
4622.0
 20
3154.666666666666
 30
0.0
 11
4622.0
 21
3145.333333333333
 31
0.0
 12
4650.0
 22
3150.0
 32
0.0
 13
4650.0
 23
3150.0
 33
0.0
  0
LINE
  5
2081
330
1F
100
AcDbEntity
  8
SUNPO
 62
   144
100
AcDbLine
 10
4670.0
 20
2879.999999999999
 30
0.0
 11
4810.0
 21
2879.999999999999
 31
0.0
  0
LINE
  5
2082
330
1F
100
AcDbEntity
  8
SUNPO
 62
   144
100
AcDbLine
 10
4670.0
 20
2760.0
 30
0.0
 11
4810.0
 21
2760.0
 31
0.0
  0
LINE
  5
2083
330
1F
100
AcDbEntity
  8
SUNPO
 62
   144
100
AcDbLine
 10
4800.0
 20
2851.999999999999
 30
0.0
 11
4800.0
 21
2788.0
 31
0.0
  0
SOLID
  5
2084
330
1F
100
AcDbEntity
  8
SUNPO
 62
   144
100
AcDbTrace
 10
4795.333333333333
 20
2851.999999999999
 30
0.0
 11
4804.666666666667
 21
2851.999999999999
 31
0.0
 12
4800.0
 22
2879.999999999999
 32
0.0
 13
4800.0
 23
2879.999999999999
 33
0.0
  0
SOLID
  5
2085
330
1F
100
AcDbEntity
  8
SUNPO
 62
   144
100
AcDbTrace
 10
4795.333333333333
 20
2788.0
 30
0.0
 11
4804.666666666667
 21
2788.0
 31
0.0
 12
4800.0
 22
2760.0
 32
0.0
 13
4800.0
 23
2760.0
 33
0.0
  0
LINE
  5
2087
330
1F
100
AcDbEntity
  8
SUNPO
 62
   144
100
AcDbLine
 10
1480.0
 20
3050.0
 30
0.0
 11
1470.0
 21
3050.0
 31
0.0
  0
LINE
  5
2088
330
1F
100
AcDbEntity
  8
SUNPO
 62
   144
100
AcDbLine
 10
1480.0
 20
2850.0
 30
0.0
 11
1470.0
 21
2850.0
 31
0.0
  0
LINE
  5
2089
330
1F
100
AcDbEntity
  8
SUNPO
 62
   144
100
AcDbLine
 10
1480.0
 20
3022.0
 30
0.0
 11
1480.0
 21
2878.0
 31
0.0
  0
SOLID
  5
208A
330
1F
100
AcDbEntity
  8
SUNPO
 62
   144
100
AcDbTrace
 10
1475.333333333333
 20
3022.0
 30
0.0
 11
1484.666666666666
 21
3022.0
 31
0.0
 12
1480.0
 22
3050.0
 32
0.0
 13
1480.0
 23
3050.0
 33
0.0
  0
SOLID
  5
208B
330
1F
100
AcDbEntity
  8
SUNPO
 62
   144
100
AcDbTrace
 10
1475.333333333333
 20
2878.0
 30
0.0
 11
1484.666666666666
 21
2878.0
 31
0.0
 12
1480.0
 22
2850.0
 32
0.0
 13
1480.0
 23
2850.0
 33
0.0
  0
LINE
  5
208D
330
1F
100
AcDbEntity
  8
SUNPO
 62
   144
100
AcDbLine
 10
1639.904920474571
 20
2169.971107195422
 30
0.0
 11
1594.798570954089
 21
2344.080294401815
 31
0.0
  0
LINE
  5
208F
330
1F
100
AcDbEntity
  8
SUNPO
 62
   144
100
AcDbLine
 10
1500.0
 20
2710.0
 30
0.0
 11
1587.776454587119
 21
2371.185457779458
 31
0.0
  0
SOLID
  5
2090
330
1F
100
AcDbEntity
  8
SUNPO
 62
   144
100
AcDbTrace
 10
1599.316098183696
 20
2345.250647129643
 30
0.0
 11
1590.281043724482
 21
2342.909941673986
 31
0.0
 12
1587.776454587119
 22
2371.185457779458
 32
0.0
 13
1587.776454587119
 23
2371.185457779458
 33
0.0
  0
LINE
  5
2091
330
1F
100
AcDbEntity
  8
SUNPO
 62
   144
100
AcDbLine
 10
1710.397641659334
 20
3153.721211298599
 30
0.0
 11
1594.67929723455
 21
3057.160035446427
 31
0.0
  0
LINE
  5
2093
330
1F
100
AcDbEntity
  8
SUNPO
 62
   144
100
AcDbLine
 10
1550.14692961705
 20
3019.999999999999
 30
0.0
 11
1573.180912867481
 21
3039.22070798953
 31
0.0
  0
SOLID
  5
2094
330
1F
100
AcDbEntity
  8
SUNPO
 62
   144
100
AcDbTrace
 10
1591.689409325067
 20
3060.743099507606
 30
0.0
 11
1597.669185144033
 21
3053.576971385249
 31
0.0
 12
1573.180912867481
 22
3039.22070798953
 32
0.0
 13
1573.180912867481
 23
3039.22070798953
 33
0.0
  0
LINE
  5
2095
330
1F
100
AcDbEntity
  8
SUNPO
 62
   144
100
AcDbLine
 10
2864.126015137951
 20
3008.981392709498
 30
0.0
 11
2757.918996215326
 21
2902.047464277329
 31
0.0
  0
LINE
  5
2097
330
1F
100
AcDbEntity
  8
SUNPO
 62
   144
100
AcDbLine
 10
2709.999999999999
 20
2853.800497515516
 30
0.0
 11
2738.187644832545
 21
2882.181066198935
 31
0.0
  0
SOLID
  5
2098
330
1F
100
AcDbEntity
  8
SUNPO
 62
   144
100
AcDbTrace
 10
2754.607929868927
 20
2905.336022841126
 30
0.0
 11
2761.230062561725
 21
2898.758905713532
 31
0.0
 12
2738.187644832545
 22
2882.181066198935
 32
0.0
 13
2738.187644832545
 23
2882.181066198935
 33
0.0
  0
TEXT
  5
2099
330
1F
100
AcDbEntity
  8
SUNPO
100
AcDbText
 10
2484.761904761905
 20
370.0
 30
0.0
 40
80.0
  1
BFT40-40
  7
ADD
100
AcDbText
1001
ACAD
1000
MTEXTBEGIN
1070
    73
1070
     1
1070
    44
1040
1.0
1070
    74
1070
     0
1000
MTEXTEND
1000
MTEXTBEGIN
1070
    73
1070
     1
1070
    44
1040
1.0
1070
    74
1070
     0
1000
MTEXTEND
1000
MTEXTBEGIN
1070
    73
1070
     1
1070
    44
1040
1.0
1070
    74
1070
     0
1000
MTEXTEND
1000
MTEXTBEGIN
1070
    73
1070
     1
1070
    44
1040
1.0
1070
    74
1070
     0
1000
MTEXTEND
1000
MTEXTBEGIN
1070
    73
1070
     1
1070
    44
1040
1.0
1070
    74
1070
     0
1000
MTEXTEND
1000
MTEXTBEGIN
1070
    73
1070
     1
1070
    44
1040
1.0
1070
    74
1070
     0
1000
MTEXTEND
1000
MTEXTBEGIN
1070
    73
1070
     1
1070
    44
1040
1.0
1070
    74
1070
     0
1000
MTEXTEND
1000
MTEXTBEGIN
1070
    73
1070
     1
1070
    44
1040
1.0
1070
    74
1070
     0
1000
MTEXTEND
1000
MTEXTBEGIN
1070
    73
1070
     1
1070
    44
1040
1.0
1070
    74
1070
     0
1000
MTEXTEND
1000
MTEXTBEGIN
1070
    73
1070
     1
1070
    44
1040
1.0
1070
    74
1070
     0
1000
MTEXTEND
1000
MTEXTBEGIN
1070
    73
1070
     1
1070
    44
1040
1.0
1070
    74
1070
     0
1000
MTEXTEND
1000
MTEXTBEGIN
1070
    73
1070
     1
1070
    44
1040
1.0
1070
    74
1070
     0
1000
MTEXTEND
1000
MTEXTBEGIN
1070
    73
1070
     1
1070
    44
1040
1.0
1070
    74
1070
     0
1000
MTEXTEND
1000
MTEXTBEGIN
1070
    73
1070
     1
1070
    44
1040
1.0
1070
    74
1070
     0
1000
MTEXTEND
  0
TEXT
  5
209A
330
1F
100
AcDbEntity
  8
SUNPO
100
AcDbText
 10
734.7619047619048
 20
370.0
 30
0.0
 40
80.0
  1
BFTボックス
  7
ADD
100
AcDbText
1001
ACAD
1000
MTEXTBEGIN
1070
    73
1070
     1
1070
    44
1040
1.0
1070
    74
1070
     0
1000
MTEXTEND
1000
MTEXTBEGIN
1070
    73
1070
     1
1070
    44
1040
1.0
1070
    74
1070
     0
1000
MTEXTEND
1000
MTEXTBEGIN
1070
    73
1070
     1
1070
    44
1040
1.0
1070
    74
1070
     0
1000
MTEXTEND
1000
MTEXTBEGIN
1070
    73
1070
     1
1070
    44
1040
1.0
1070
    74
1070
     0
1000
MTEXTEND
1000
MTEXTBEGIN
1070
    73
1070
     1
1070
    44
1040
1.0
1070
    74
1070
     0
1000
MTEXTEND
1000
MTEXTBEGIN
1070
    73
1070
     1
1070
    44
1040
1.0
1070
    74
1070
     0
1000
MTEXTEND
1000
MTEXTBEGIN
1070
    73
1070
     1
1070
    44
1040
1.0
1070
    74
1070
     0
1000
MTEXTEND
1000
MTEXTBEGIN
1070
    73
1070
     1
1070
    44
1040
1.0
1070
    74
1070
     0
1000
MTEXTEND
1000
MTEXTBEGIN
1070
    73
1070
     1
1070
    44
1040
1.0
1070
    74
1070
     0
1000
MTEXTEND
1000
MTEXTBEGIN
1070
    73
1070
     1
1070
    44
1040
1.0
1070
    74
1070
     0
1000
MTEXTEND
1000
MTEXTBEGIN
1070
    73
1070
     1
1070
    44
1040
1.0
1070
    74
1070
     0
1000
MTEXTEND
1000
MTEXTBEGIN
1070
    73
1070
     1
1070
    44
1040
1.0
1070
    74
1070
     0
1000
MTEXTEND
1000
MTEXTBEGIN
1070
    73
1070
     1
1070
    44
1040
1.0
1070
    74
1070
     0
1000
MTEXTEND
1000
MTEXTBEGIN
1070
    73
1070
     1
1070
    44
1040
1.0
1070
    74
1070
     0
1000
MTEXTEND
  0
LINE
  5
209B
330
1F
100
AcDbEntity
  8
SUNPO
 62
   144
100
AcDbLine
 10
1170.605868543347
 20
2313.344766355395
 30
0.0
 11
1291.433443894736
 21
2403.430797198538
 31
0.0
  0
LINE
  5
209D
330
1F
100
AcDbEntity
  8
SUNPO
 62
   144
100
AcDbLine
 10
1370.0
 20
2462.008064647255
 30
0.0
 11
1313.881031353383
 21
2420.167159326743
 31
0.0
  0
SOLID
  5
209E
330
1F
100
AcDbEntity
  8
SUNPO
 62
   144
100
AcDbTrace
 10
1288.644050206702
 20
2407.172061774979
 30
0.0
 11
1294.22283758277
 21
2399.689532622097
 31
0.0
 12
1313.881031353383
 22
2420.167159326743
 32
0.0
 13
1313.881031353383
 23
2420.167159326743
 33
0.0
  0
LINE
  5
209F
330
1F
100
AcDbEntity
  8
SUNPO
 62
   144
100
AcDbLine
 10
2629.999999999999
 20
1380.0
 30
0.0
 11
2440.0
 21
1380.0
 31
0.0
  0
LINE
  5
20A0
330
1F
100
AcDbEntity
  8
SUNPO
 62
   144
100
AcDbLine
 10
2629.999999999999
 20
1310.0
 30
0.0
 11
2440.0
 21
1310.0
 31
0.0
  0
LINE
  5
20A1
330
1F
100
AcDbEntity
  8
SUNPO
 62
   144
100
AcDbLine
 10
2450.0
 20
1408.0
 30
0.0
 11
2450.0
 21
1436.0
 31
0.0
  0
LINE
  5
20A2
330
1F
100
AcDbEntity
  8
SUNPO
 62
   144
100
AcDbLine
 10
2450.0
 20
1282.0
 30
0.0
 11
2450.0
 21
1254.0
 31
0.0
  0
LINE
  5
20A3
330
1F
100
AcDbEntity
  8
SUNPO
 62
   144
100
AcDbLine
 10
2450.0
 20
1380.0
 30
0.0
 11
2450.0
 21
1310.0
 31
0.0
  0
SOLID
  5
20A4
330
1F
100
AcDbEntity
  8
SUNPO
 62
   144
100
AcDbTrace
 10
2445.333333333334
 20
1408.0
 30
0.0
 11
2454.666666666666
 21
1408.0
 31
0.0
 12
2450.0
 22
1380.0
 32
0.0
 13
2450.0
 23
1380.0
 33
0.0
  0
SOLID
  5
20A5
330
1F
100
AcDbEntity
  8
SUNPO
 62
   144
100
AcDbTrace
 10
2445.333333333334
 20
1282.0
 30
0.0
 11
2454.666666666666
 21
1282.0
 31
0.0
 12
2450.0
 22
1310.0
 32
0.0
 13
2450.0
 23
1310.0
 33
0.0
  0
LINE
  5
20A7
330
1F
100
AcDbEntity
  8
SUNPO
 62
   144
100
AcDbLine
 10
2629.999999999999
 20
1780.0
 30
0.0
 11
2440.0
 21
1780.0
 31
0.0
  0
LINE
  5
20A8
330
1F
100
AcDbEntity
  8
SUNPO
 62
   144
100
AcDbLine
 10
2629.999999999999
 20
1850.0
 30
0.0
 11
2440.0
 21
1850.0
 31
0.0
  0
LINE
  5
20A9
330
1F
100
AcDbEntity
  8
SUNPO
 62
   144
100
AcDbLine
 10
2450.0
 20
1752.0
 30
0.0
 11
2450.0
 21
1724.0
 31
0.0
  0
LINE
  5
20AA
330
1F
100
AcDbEntity
  8
SUNPO
 62
   144
100
AcDbLine
 10
2450.0
 20
1878.0
 30
0.0
 11
2450.0
 21
1906.0
 31
0.0
  0
LINE
  5
20AB
330
1F
100
AcDbEntity
  8
SUNPO
 62
   144
100
AcDbLine
 10
2450.0
 20
1780.0
 30
0.0
 11
2450.0
 21
1850.0
 31
0.0
  0
SOLID
  5
20AC
330
1F
100
AcDbEntity
  8
SUNPO
 62
   144
100
AcDbTrace
 10
2445.333333333334
 20
1752.0
 30
0.0
 11
2454.666666666666
 21
1752.0
 31
0.0
 12
2450.0
 22
1780.0
 32
0.0
 13
2450.0
 23
1780.0
 33
0.0
  0
SOLID
  5
20AD
330
1F
100
AcDbEntity
  8
SUNPO
 62
   144
100
AcDbTrace
 10
2445.333333333334
 20
1878.0
 30
0.0
 11
2454.666666666666
 21
1878.0
 31
0.0
 12
2450.0
 22
1850.0
 32
0.0
 13
2450.0
 23
1850.0
 33
0.0
  0
LINE
  5
20AF
330
1F
100
AcDbEntity
  8
SUNPO
 62
   144
100
AcDbLine
 10
2629.999999999999
 20
1780.0
 30
0.0
 11
2440.0
 21
1780.0
 31
0.0
  0
LINE
  5
20B0
330
1F
100
AcDbEntity
  8
SUNPO
 62
   144
100
AcDbLine
 10
2629.999999999999
 20
1380.0
 30
0.0
 11
2440.0
 21
1380.0
 31
0.0
  0
LINE
  5
20B1
330
1F
100
AcDbEntity
  8
SUNPO
 62
   144
100
AcDbLine
 10
2450.0
 20
1752.0
 30
0.0
 11
2450.0
 21
1408.0
 31
0.0
  0
SOLID
  5
20B2
330
1F
100
AcDbEntity
  8
SUNPO
 62
   144
100
AcDbTrace
 10
2445.333333333334
 20
1752.0
 30
0.0
 11
2454.666666666666
 21
1752.0
 31
0.0
 12
2450.0
 22
1780.0
 32
0.0
 13
2450.0
 23
1780.0
 33
0.0
  0
SOLID
  5
20B3
330
1F
100
AcDbEntity
  8
SUNPO
 62
   144
100
AcDbTrace
 10
2445.333333333334
 20
1408.0
 30
0.0
 11
2454.666666666666
 21
1408.0
 31
0.0
 12
2450.0
 22
1380.0
 32
0.0
 13
2450.0
 23
1380.0
 33
0.0
  0
LINE
  5
20B5
330
1F
100
AcDbEntity
  8
SUNPO
 62
   144
100
AcDbLine
 10
2629.999999999999
 20
1680.0
 30
0.0
 11
2540.0
 21
1680.0
 31
0.0
  0
LINE
  5
20B6
330
1F
100
AcDbEntity
  8
SUNPO
 62
   144
100
AcDbLine
 10
2629.999999999999
 20
1480.0
 30
0.0
 11
2540.0
 21
1480.0
 31
0.0
  0
LINE
  5
20B7
330
1F
100
AcDbEntity
  8
SUNPO
 62
   144
100
AcDbLine
 10
2550.0
 20
1652.0
 30
0.0
 11
2550.0
 21
1508.0
 31
0.0
  0
SOLID
  5
20B8
330
1F
100
AcDbEntity
  8
SUNPO
 62
   144
100
AcDbTrace
 10
2545.333333333333
 20
1652.0
 30
0.0
 11
2554.666666666666
 21
1652.0
 31
0.0
 12
2550.0
 22
1680.0
 32
0.0
 13
2550.0
 23
1680.0
 33
0.0
  0
SOLID
  5
20B9
330
1F
100
AcDbEntity
  8
SUNPO
 62
   144
100
AcDbTrace
 10
2545.333333333333
 20
1508.0
 30
0.0
 11
2554.666666666666
 21
1508.0
 31
0.0
 12
2550.0
 22
1480.0
 32
0.0
 13
2550.0
 23
1480.0
 33
0.0
  0
LINE
  5
20BB
330
1F
100
AcDbEntity
  8
SUNPO
 62
   144
100
AcDbLine
 10
2649.999999999999
 20
3070.0
 30
0.0
 11
2649.999999999999
 21
3160.0
 31
0.0
  0
LINE
  5
20BC
330
1F
100
AcDbEntity
  8
SUNPO
 62
   144
100
AcDbLine
 10
2750.0
 20
3070.0
 30
0.0
 11
2750.0
 21
3160.0
 31
0.0
  0
LINE
  5
20BD
330
1F
100
AcDbEntity
  8
SUNPO
 62
   144
100
AcDbLine
 10
2621.999999999999
 20
3150.0
 30
0.0
 11
2593.999999999999
 21
3150.0
 31
0.0
  0
LINE
  5
20BE
330
1F
100
AcDbEntity
  8
SUNPO
 62
   144
100
AcDbLine
 10
2778.0
 20
3150.0
 30
0.0
 11
2805.999999999999
 21
3150.0
 31
0.0
  0
LINE
  5
20BF
330
1F
100
AcDbEntity
  8
SUNPO
 62
   144
100
AcDbLine
 10
2649.999999999999
 20
3150.0
 30
0.0
 11
2750.0
 21
3150.0
 31
0.0
  0
SOLID
  5
20C0
330
1F
100
AcDbEntity
  8
SUNPO
 62
   144
100
AcDbTrace
 10
2621.999999999999
 20
3154.666666666666
 30
0.0
 11
2621.999999999999
 21
3145.333333333333
 31
0.0
 12
2649.999999999999
 22
3150.0
 32
0.0
 13
2649.999999999999
 23
3150.0
 33
0.0
  0
SOLID
  5
20C1
330
1F
100
AcDbEntity
  8
SUNPO
 62
   144
100
AcDbTrace
 10
2778.0
 20
3154.666666666666
 30
0.0
 11
2778.0
 21
3145.333333333333
 31
0.0
 12
2750.0
 22
3150.0
 32
0.0
 13
2750.0
 23
3150.0
 33
0.0
  0
LINE
  5
20C3
330
1F
100
AcDbEntity
  8
SUNPO
 62
   144
100
AcDbLine
 10
2769.999999999999
 20
2890.0
 30
0.0
 11
2910.0
 21
2890.0
 31
0.0
  0
LINE
  5
20C4
330
1F
100
AcDbEntity
  8
SUNPO
 62
   144
100
AcDbLine
 10
2770.0
 20
2850.0
 30
0.0
 11
2910.0
 21
2850.0
 31
0.0
  0
LINE
  5
20C5
330
1F
100
AcDbEntity
  8
SUNPO
 62
   144
100
AcDbLine
 10
2900.0
 20
2918.0
 30
0.0
 11
2900.0
 21
2946.0
 31
0.0
  0
LINE
  5
20C6
330
1F
100
AcDbEntity
  8
SUNPO
 62
   144
100
AcDbLine
 10
2900.0
 20
2822.0
 30
0.0
 11
2900.0
 21
2794.0
 31
0.0
  0
LINE
  5
20C7
330
1F
100
AcDbEntity
  8
SUNPO
 62
   144
100
AcDbLine
 10
2900.0
 20
2890.0
 30
0.0
 11
2900.0
 21
2850.0
 31
0.0
  0
SOLID
  5
20C8
330
1F
100
AcDbEntity
  8
SUNPO
 62
   144
100
AcDbTrace
 10
2895.333333333333
 20
2918.0
 30
0.0
 11
2904.666666666667
 21
2918.0
 31
0.0
 12
2900.0
 22
2890.0
 32
0.0
 13
2900.0
 23
2890.0
 33
0.0
  0
SOLID
  5
20C9
330
1F
100
AcDbEntity
  8
SUNPO
 62
   144
100
AcDbTrace
 10
2895.333333333333
 20
2822.0
 30
0.0
 11
2904.666666666667
 21
2822.0
 31
0.0
 12
2900.0
 22
2850.0
 32
0.0
 13
2900.0
 23
2850.0
 33
0.0
  0
LINE
  5
20CB
330
1F
100
AcDbEntity
  8
SUNPO
 62
   144
100
AcDbLine
 10
2630.0
 20
2900.0
 30
0.0
 11
2540.0
 21
2900.0
 31
0.0
  0
LINE
  5
20CC
330
1F
100
AcDbEntity
  8
SUNPO
 62
   144
100
AcDbLine
 10
2630.0
 20
2850.0
 30
0.0
 11
2540.0
 21
2850.0
 31
0.0
  0
LINE
  5
20CD
330
1F
100
AcDbEntity
  8
SUNPO
 62
   144
100
AcDbLine
 10
2550.0
 20
2928.0
 30
0.0
 11
2550.0
 21
2956.0
 31
0.0
  0
LINE
  5
20CE
330
1F
100
AcDbEntity
  8
SUNPO
 62
   144
100
AcDbLine
 10
2550.0
 20
2822.0
 30
0.0
 11
2550.0
 21
2794.0
 31
0.0
  0
LINE
  5
20CF
330
1F
100
AcDbEntity
  8
SUNPO
 62
   144
100
AcDbLine
 10
2550.0
 20
2900.0
 30
0.0
 11
2550.0
 21
2850.0
 31
0.0
  0
SOLID
  5
20D0
330
1F
100
AcDbEntity
  8
SUNPO
 62
   144
100
AcDbTrace
 10
2545.333333333333
 20
2928.0
 30
0.0
 11
2554.666666666666
 21
2928.0
 31
0.0
 12
2550.0
 22
2900.0
 32
0.0
 13
2550.0
 23
2900.0
 33
0.0
  0
SOLID
  5
20D1
330
1F
100
AcDbEntity
  8
SUNPO
 62
   144
100
AcDbTrace
 10
2545.333333333333
 20
2822.0
 30
0.0
 11
2554.666666666666
 21
2822.0
 31
0.0
 12
2550.0
 22
2850.0
 32
0.0
 13
2550.0
 23
2850.0
 33
0.0
  0
TEXT
  5
20D3
330
1F
100
AcDbEntity
  8
SUNPO
100
AcDbText
 10
1292.288097800754
 20
2885.090820743565
 30
0.0
 40
38.0
  1
6
 50
354.5999999999999
  7
ADD
100
AcDbText
1001
ACAD
1000
MTEXTBEGIN
1070
    73
1070
     1
1070
    44
1040
1.0
1070
    74
1070
     0
1000
MTEXTEND
1000
MTEXTBEGIN
1070
    73
1070
     1
1070
    44
1040
1.0
1070
    74
1070
     0
1000
MTEXTEND
1000
MTEXTBEGIN
1070
    73
1070
     1
1070
    44
1040
1.0
1070
    74
1070
     0
1000
MTEXTEND
1000
MTEXTBEGIN
1070
    73
1070
     1
1070
    44
1040
1.0
1070
    74
1070
     0
1000
MTEXTEND
1000
MTEXTBEGIN
1070
    73
1070
     1
1070
    44
1040
1.0
1070
    74
1070
     0
1000
MTEXTEND
1000
MTEXTBEGIN
1070
    73
1070
     1
1070
    44
1040
1.0
1070
    74
1070
     0
1000
MTEXTEND
1000
MTEXTBEGIN
1070
    73
1070
     1
1070
    44
1040
1.0
1070
    74
1070
     0
1000
MTEXTEND
1000
MTEXTBEGIN
1070
    73
1070
     1
1070
    44
1040
1.0
1070
    74
1070
     0
1000
MTEXTEND
1000
MTEXTBEGIN
1070
    73
1070
     1
1070
    44
1040
1.0
1070
    74
1070
     0
1000
MTEXTEND
1000
MTEXTBEGIN
1070
    73
1070
     1
1070
    44
1040
1.0
1070
    74
1070
     0
1000
MTEXTEND
1000
MTEXTBEGIN
1070
    73
1070
     1
1070
    44
1040
1.0
1070
    74
1070
     0
1000
MTEXTEND
1000
MTEXTBEGIN
1070
    73
1070
     1
1070
    44
1040
1.0
1070
    74
1070
     0
1000
MTEXTEND
1000
MTEXTBEGIN
1070
    73
1070
     1
1070
    44
1040
1.0
1070
    74
1070
     0
1000
MTEXTEND
1000
MTEXTBEGIN
1070
    73
1070
     1
1070
    44
1040
1.0
1070
    74
1070
     0
1000
MTEXTEND
  0
TEXT
  5
20D4
330
1F
100
AcDbEntity
  8
SUNPO
100
AcDbText
 10
1328.317959376866
 20
2881.684996071086
 30
0.0
 40
38.0
  1
%
 50
354.5999999999999
  7
ADD
100
AcDbText
1001
ACAD
1000
MTEXTBEGIN
1070
    73
1070
     1
1070
    44
1040
1.0
1070
    74
1070
     0
1000
MTEXTEND
1000
MTEXTBEGIN
1070
    73
1070
     1
1070
    44
1040
1.0
1070
    74
1070
     0
1000
MTEXTEND
1000
MTEXTBEGIN
1070
    73
1070
     1
1070
    44
1040
1.0
1070
    74
1070
     0
1000
MTEXTEND
1000
MTEXTBEGIN
1070
    73
1070
     1
1070
    44
1040
1.0
1070
    74
1070
     0
1000
MTEXTEND
1000
MTEXTBEGIN
1070
    73
1070
     1
1070
    44
1040
1.0
1070
    74
1070
     0
1000
MTEXTEND
1000
MTEXTBEGIN
1070
    73
1070
     1
1070
    44
1040
1.0
1070
    74
1070
     0
1000
MTEXTEND
1000
MTEXTBEGIN
1070
    73
1070
     1
1070
    44
1040
1.0
1070
    74
1070
     0
1000
MTEXTEND
1000
MTEXTBEGIN
1070
    73
1070
     1
1070
    44
1040
1.0
1070
    74
1070
     0
1000
MTEXTEND
1000
MTEXTBEGIN
1070
    73
1070
     1
1070
    44
1040
1.0
1070
    74
1070
     0
1000
MTEXTEND
1000
MTEXTBEGIN
1070
    73
1070
     1
1070
    44
1040
1.0
1070
    74
1070
     0
1000
MTEXTEND
1000
MTEXTBEGIN
1070
    73
1070
     1
1070
    44
1040
1.0
1070
    74
1070
     0
1000
MTEXTEND
1000
MTEXTBEGIN
1070
    73
1070
     1
1070
    44
1040
1.0
1070
    74
1070
     0
1000
MTEXTEND
1000
MTEXTBEGIN
1070
    73
1070
     1
1070
    44
1040
1.0
1070
    74
1070
     0
1000
MTEXTEND
1000
MTEXTBEGIN
1070
    73
1070
     1
1070
    44
1040
1.0
1070
    74
1070
     0
1000
MTEXTEND
  0
LINE
  5
20D5
330
1F
100
AcDbEntity
  8
SUNPO
 62
   144
100
AcDbLine
 10
1230.0
 20
2880.0
 30
0.0
 11
1230.0
 21
3360.0
 31
0.0
  0
LINE
  5
20D6
330
1F
100
AcDbEntity
  8
SUNPO
 62
   144
100
AcDbLine
 10
1770.0
 20
2880.0
 30
0.0
 11
1770.0
 21
3360.0
 31
0.0
  0
LINE
  5
20D7
330
1F
100
AcDbEntity
  8
SUNPO
 62
   144
100
AcDbLine
 10
1258.0
 20
3350.0
 30
0.0
 11
1742.0
 21
3350.0
 31
0.0
  0
SOLID
  5
20D8
330
1F
100
AcDbEntity
  8
SUNPO
 62
   144
100
AcDbTrace
 10
1258.0
 20
3354.666666666666
 30
0.0
 11
1258.0
 21
3345.333333333333
 31
0.0
 12
1230.0
 22
3350.0
 32
0.0
 13
1230.0
 23
3350.0
 33
0.0
  0
SOLID
  5
20D9
330
1F
100
AcDbEntity
  8
SUNPO
 62
   144
100
AcDbTrace
 10
1742.0
 20
3354.666666666666
 30
0.0
 11
1742.0
 21
3345.333333333333
 31
0.0
 12
1770.0
 22
3350.0
 32
0.0
 13
1770.0
 23
3350.0
 33
0.0
  0
LINE
  5
20DB
330
1F
100
AcDbEntity
  8
SUNPO
 62
   144
100
AcDbLine
 10
1404.0
 20
2869.999999999999
 30
0.0
 11
1404.0
 21
3260.0
 31
0.0
  0
LINE
  5
20DC
330
1F
100
AcDbEntity
  8
SUNPO
 62
   144
100
AcDbLine
 10
1230.0
 20
2880.0
 30
0.0
 11
1230.0
 21
3260.0
 31
0.0
  0
LINE
  5
20DD
330
1F
100
AcDbEntity
  8
SUNPO
 62
   144
100
AcDbLine
 10
1376.0
 20
3250.0
 30
0.0
 11
1258.0
 21
3250.0
 31
0.0
  0
SOLID
  5
20DE
330
1F
100
AcDbEntity
  8
SUNPO
 62
   144
100
AcDbTrace
 10
1376.0
 20
3254.666666666667
 30
0.0
 11
1376.0
 21
3245.333333333333
 31
0.0
 12
1404.0
 22
3250.0
 32
0.0
 13
1404.0
 23
3250.0
 33
0.0
  0
SOLID
  5
20DF
330
1F
100
AcDbEntity
  8
SUNPO
 62
   144
100
AcDbTrace
 10
1258.0
 20
3254.666666666667
 30
0.0
 11
1258.0
 21
3245.333333333333
 31
0.0
 12
1230.0
 22
3250.0
 32
0.0
 13
1230.0
 23
3250.0
 33
0.0
  0
LINE
  5
20E1
330
1F
100
AcDbEntity
  8
SUNPO
 62
   144
100
AcDbLine
 10
1596.0
 20
2870.0
 30
0.0
 11
1596.0
 21
3260.0
 31
0.0
  0
LINE
  5
20E2
330
1F
100
AcDbEntity
  8
SUNPO
 62
   144
100
AcDbLine
 10
1770.0
 20
2880.0
 30
0.0
 11
1770.0
 21
3260.0
 31
0.0
  0
LINE
  5
20E3
330
1F
100
AcDbEntity
  8
SUNPO
 62
   144
100
AcDbLine
 10
1624.0
 20
3250.0
 30
0.0
 11
1742.0
 21
3250.0
 31
0.0
  0
SOLID
  5
20E4
330
1F
100
AcDbEntity
  8
SUNPO
 62
   144
100
AcDbTrace
 10
1624.0
 20
3254.666666666667
 30
0.0
 11
1624.0
 21
3245.333333333333
 31
0.0
 12
1596.0
 22
3250.0
 32
0.0
 13
1596.0
 23
3250.0
 33
0.0
  0
SOLID
  5
20E5
330
1F
100
AcDbEntity
  8
SUNPO
 62
   144
100
AcDbTrace
 10
1742.0
 20
3254.666666666667
 30
0.0
 11
1742.0
 21
3245.333333333333
 31
0.0
 12
1770.0
 22
3250.0
 32
0.0
 13
1770.0
 23
3250.0
 33
0.0
  0
LINE
  5
20E7
330
1F
100
AcDbEntity
  8
SUNPO
 62
   144
100
AcDbLine
 10
1404.0
 20
2869.999999999999
 30
0.0
 11
1404.0
 21
3260.0
 31
0.0
  0
LINE
  5
20E8
330
1F
100
AcDbEntity
  8
SUNPO
 62
   144
100
AcDbLine
 10
1596.0
 20
2869.999999999999
 30
0.0
 11
1596.0
 21
3260.0
 31
0.0
  0
LINE
  5
20E9
330
1F
100
AcDbEntity
  8
SUNPO
 62
   144
100
AcDbLine
 10
1432.0
 20
3250.0
 30
0.0
 11
1568.0
 21
3250.0
 31
0.0
  0
SOLID
  5
20EA
330
1F
100
AcDbEntity
  8
SUNPO
 62
   144
100
AcDbTrace
 10
1432.0
 20
3254.666666666667
 30
0.0
 11
1432.0
 21
3245.333333333333
 31
0.0
 12
1404.0
 22
3250.0
 32
0.0
 13
1404.0
 23
3250.0
 33
0.0
  0
SOLID
  5
20EB
330
1F
100
AcDbEntity
  8
SUNPO
 62
   144
100
AcDbTrace
 10
1568.0
 20
3254.666666666667
 30
0.0
 11
1568.0
 21
3245.333333333333
 31
0.0
 12
1596.0
 22
3250.0
 32
0.0
 13
1596.0
 23
3250.0
 33
0.0
  0
LINE
  5
20ED
330
1F
100
AcDbEntity
  8
SUNPO
 62
   144
100
AcDbLine
 10
1422.5
 20
3052.321101437184
 30
0.0
 11
1422.5
 21
3160.0
 31
0.0
  0
LINE
  5
20EE
330
1F
100
AcDbEntity
  8
SUNPO
 62
   144
100
AcDbLine
 10
1577.499999999999
 20
3052.321101437183
 30
0.0
 11
1577.499999999999
 21
3160.0
 31
0.0
  0
LINE
  5
20EF
330
1F
100
AcDbEntity
  8
SUNPO
 62
   144
100
AcDbLine
 10
1450.5
 20
3150.0
 30
0.0
 11
1549.499999999999
 21
3150.0
 31
0.0
  0
SOLID
  5
20F0
330
1F
100
AcDbEntity
  8
SUNPO
 62
   144
100
AcDbTrace
 10
1450.5
 20
3154.666666666666
 30
0.0
 11
1450.5
 21
3145.333333333333
 31
0.0
 12
1422.5
 22
3150.0
 32
0.0
 13
1422.5
 23
3150.0
 33
0.0
  0
SOLID
  5
20F1
330
1F
100
AcDbEntity
  8
SUNPO
 62
   144
100
AcDbTrace
 10
1549.499999999999
 20
3154.666666666666
 30
0.0
 11
1549.499999999999
 21
3145.333333333333
 31
0.0
 12
1577.499999999999
 22
3150.0
 32
0.0
 13
1577.499999999999
 23
3150.0
 33
0.0
  0
LINE
  5
20F3
330
1F
100
AcDbEntity
  8
SUNPO
 62
   144
100
AcDbLine
 10
1790.0
 20
2860.0
 30
0.0
 11
2010.0
 21
2860.0
 31
0.0
  0
LINE
  5
20F4
330
1F
100
AcDbEntity
  8
SUNPO
 62
   144
100
AcDbLine
 10
1789.999999999999
 20
2270.0
 30
0.0
 11
2010.0
 21
2270.0
 31
0.0
  0
LINE
  5
20F5
330
1F
100
AcDbEntity
  8
SUNPO
 62
   144
100
AcDbLine
 10
2000.0
 20
2832.0
 30
0.0
 11
2000.0
 21
2298.0
 31
0.0
  0
SOLID
  5
20F6
330
1F
100
AcDbEntity
  8
SUNPO
 62
   144
100
AcDbTrace
 10
1995.333333333333
 20
2832.0
 30
0.0
 11
2004.666666666667
 21
2832.0
 31
0.0
 12
2000.0
 22
2860.0
 32
0.0
 13
2000.0
 23
2860.0
 33
0.0
  0
SOLID
  5
20F7
330
1F
100
AcDbEntity
  8
SUNPO
 62
   144
100
AcDbTrace
 10
1995.333333333333
 20
2298.0
 30
0.0
 11
2004.666666666666
 21
2298.0
 31
0.0
 12
2000.0
 22
2270.0
 32
0.0
 13
2000.0
 23
2270.0
 33
0.0
  0
LINE
  5
20F9
330
1F
100
AcDbEntity
  8
SUNPO
 62
   144
100
AcDbLine
 10
1790.0
 20
2760.0
 30
0.0
 11
1910.0
 21
2760.0
 31
0.0
  0
LINE
  5
20FA
330
1F
100
AcDbEntity
  8
SUNPO
 62
   144
100
AcDbLine
 10
1790.0
 20
2860.0
 30
0.0
 11
1910.0
 21
2860.0
 31
0.0
  0
LINE
  5
20FB
330
1F
100
AcDbEntity
  8
SUNPO
 62
   144
100
AcDbLine
 10
1900.0
 20
2732.0
 30
0.0
 11
1900.0
 21
2704.0
 31
0.0
  0
LINE
  5
20FC
330
1F
100
AcDbEntity
  8
SUNPO
 62
   144
100
AcDbLine
 10
1900.0
 20
2888.0
 30
0.0
 11
1900.0
 21
2916.0
 31
0.0
  0
LINE
  5
20FD
330
1F
100
AcDbEntity
  8
SUNPO
 62
   144
100
AcDbLine
 10
1900.0
 20
2760.0
 30
0.0
 11
1900.0
 21
2860.0
 31
0.0
  0
SOLID
  5
20FE
330
1F
100
AcDbEntity
  8
SUNPO
 62
   144
100
AcDbTrace
 10
1895.333333333333
 20
2732.0
 30
0.0
 11
1904.666666666666
 21
2732.0
 31
0.0
 12
1900.0
 22
2760.0
 32
0.0
 13
1900.0
 23
2760.0
 33
0.0
  0
SOLID
  5
20FF
330
1F
100
AcDbEntity
  8
SUNPO
 62
   144
100
AcDbTrace
 10
1895.333333333333
 20
2888.0
 30
0.0
 11
1904.666666666666
 21
2888.0
 31
0.0
 12
1900.0
 22
2860.0
 32
0.0
 13
1900.0
 23
2860.0
 33
0.0
  0
LINE
  5
2101
330
1F
100
AcDbEntity
  8
SUNPO
 62
   144
100
AcDbLine
 10
1789.999999999999
 20
2360.0
 30
0.0
 11
1909.999999999999
 21
2360.0
 31
0.0
  0
LINE
  5
2102
330
1F
100
AcDbEntity
  8
SUNPO
 62
   144
100
AcDbLine
 10
1790.0
 20
2760.0
 30
0.0
 11
1910.0
 21
2760.0
 31
0.0
  0
LINE
  5
2103
330
1F
100
AcDbEntity
  8
SUNPO
 62
   144
100
AcDbLine
 10
1899.999999999999
 20
2388.0
 30
0.0
 11
1900.0
 21
2732.0
 31
0.0
  0
SOLID
  5
2104
330
1F
100
AcDbEntity
  8
SUNPO
 62
   144
100
AcDbTrace
 10
1895.333333333333
 20
2388.0
 30
0.0
 11
1904.666666666666
 21
2388.0
 31
0.0
 12
1899.999999999999
 22
2360.0
 32
0.0
 13
1899.999999999999
 23
2360.0
 33
0.0
  0
SOLID
  5
2105
330
1F
100
AcDbEntity
  8
SUNPO
 62
   144
100
AcDbTrace
 10
1895.333333333333
 20
2732.0
 30
0.0
 11
1904.666666666666
 21
2732.0
 31
0.0
 12
1900.0
 22
2760.0
 32
0.0
 13
1900.0
 23
2760.0
 33
0.0
  0
LINE
  5
2107
330
1F
100
AcDbEntity
  8
SUNPO
 62
   144
100
AcDbLine
 10
1789.999999999999
 20
2270.0
 30
0.0
 11
1910.0
 21
2270.0
 31
0.0
  0
LINE
  5
2108
330
1F
100
AcDbEntity
  8
SUNPO
 62
   144
100
AcDbLine
 10
1789.999999999999
 20
2360.0
 30
0.0
 11
1910.0
 21
2360.0
 31
0.0
  0
LINE
  5
2109
330
1F
100
AcDbEntity
  8
SUNPO
 62
   144
100
AcDbLine
 10
1900.0
 20
2298.0
 30
0.0
 11
1900.0
 21
2332.0
 31
0.0
  0
SOLID
  5
210A
330
1F
100
AcDbEntity
  8
SUNPO
 62
   144
100
AcDbTrace
 10
1895.333333333333
 20
2298.0
 30
0.0
 11
1904.666666666666
 21
2298.0
 31
0.0
 12
1900.0
 22
2270.0
 32
0.0
 13
1900.0
 23
2270.0
 33
0.0
  0
SOLID
  5
210B
330
1F
100
AcDbEntity
  8
SUNPO
 62
   144
100
AcDbTrace
 10
1895.333333333333
 20
2332.0
 30
0.0
 11
1904.666666666666
 21
2332.0
 31
0.0
 12
1900.0
 22
2360.0
 32
0.0
 13
1900.0
 23
2360.0
 33
0.0
  0
TEXT
  5
210D
330
1F
100
AcDbEntity
  8
SUNPO
100
AcDbText
 10
3246.680311730542
 20
359.2274732162223
 30
0.0
 40
70.0
  1
１／２０
  7
ADD
100
AcDbText
1001
ACAD
1000
MTEXTBEGIN
1070
    73
1070
     1
1070
    44
1040
1.0
1070
    74
1070
     0
1000
MTEXTEND
1000
MTEXTBEGIN
1070
    73
1070
     1
1070
    44
1040
1.0
1070
    74
1070
     0
1000
MTEXTEND
1000
MTEXTBEGIN
1070
    73
1070
     1
1070
    44
1040
1.0
1070
    74
1070
     0
1000
MTEXTEND
1000
MTEXTBEGIN
1070
    73
1070
     1
1070
    44
1040
1.0
1070
    74
1070
     0
1000
MTEXTEND
1000
MTEXTBEGIN
1070
    73
1070
     1
1070
    44
1040
1.0
1070
    74
1070
     0
1000
MTEXTEND
1000
MTEXTBEGIN
1070
    73
1070
     1
1070
    44
1040
1.0
1070
    74
1070
     0
1000
MTEXTEND
1000
MTEXTBEGIN
1070
    73
1070
     1
1070
    44
1040
1.0
1070
    74
1070
     0
1000
MTEXTEND
1000
MTEXTBEGIN
1070
    73
1070
     1
1070
    44
1040
1.0
1070
    74
1070
     0
1000
MTEXTEND
1000
MTEXTBEGIN
1070
    73
1070
     1
1070
    44
1040
1.0
1070
    74
1070
     0
1000
MTEXTEND
1000
MTEXTBEGIN
1070
    73
1070
     1
1070
    44
1040
1.0
1070
    74
1070
     0
1000
MTEXTEND
1000
MTEXTBEGIN
1070
    73
1070
     1
1070
    44
1040
1.0
1070
    74
1070
     0
1000
MTEXTEND
1000
MTEXTBEGIN
1070
    73
1070
     1
1070
    44
1040
1.0
1070
    74
1070
     0
1000
MTEXTEND
1000
MTEXTBEGIN
1070
    73
1070
     1
1070
    44
1040
1.0
1070
    74
1070
     0
1000
MTEXTEND
1000
MTEXTBEGIN
1070
    73
1070
     1
1070
    44
1040
1.0
1070
    74
1070
     0
1000
MTEXTEND
  0
TEXT
  5
210E
330
1F
100
AcDbEntity
  8
SUNPO
100
AcDbText
 10
381.8862574011546
 20
488.6918916770627
 30
0.0
 40
50.0
  1
製品名
  7
ADD
100
AcDbText
1001
ACAD
1000
MTEXTBEGIN
1070
    73
1070
     1
1070
    44
1040
1.0
1070
    74
1070
     0
1000
MTEXTEND
1000
MTEXTBEGIN
1070
    73
1070
     1
1070
    44
1040
1.0
1070
    74
1070
     0
1000
MTEXTEND
1000
MTEXTBEGIN
1070
    73
1070
     1
1070
    44
1040
1.0
1070
    74
1070
     0
1000
MTEXTEND
1000
MTEXTBEGIN
1070
    73
1070
     1
1070
    44
1040
1.0
1070
    74
1070
     0
1000
MTEXTEND
1000
MTEXTBEGIN
1070
    73
1070
     1
1070
    44
1040
1.0
1070
    74
1070
     0
1000
MTEXTEND
1000
MTEXTBEGIN
1070
    73
1070
     1
1070
    44
1040
1.0
1070
    74
1070
     0
1000
MTEXTEND
1000
MTEXTBEGIN
1070
    73
1070
     1
1070
    44
1040
1.0
1070
    74
1070
     0
1000
MTEXTEND
1000
MTEXTBEGIN
1070
    73
1070
     1
1070
    44
1040
1.0
1070
    74
1070
     0
1000
MTEXTEND
1000
MTEXTBEGIN
1070
    73
1070
     1
1070
    44
1040
1.0
1070
    74
1070
     0
1000
MTEXTEND
1000
MTEXTBEGIN
1070
    73
1070
     1
1070
    44
1040
1.0
1070
    74
1070
     0
1000
MTEXTEND
1000
MTEXTBEGIN
1070
    73
1070
     1
1070
    44
1040
1.0
1070
    74
1070
     0
1000
MTEXTEND
1000
MTEXTBEGIN
1070
    73
1070
     1
1070
    44
1040
1.0
1070
    74
1070
     0
1000
MTEXTEND
1000
MTEXTBEGIN
1070
    73
1070
     1
1070
    44
1040
1.0
1070
    74
1070
     0
1000
MTEXTEND
1000
MTEXTBEGIN
1070
    73
1070
     1
1070
    44
1040
1.0
1070
    74
1070
     0
1000
MTEXTEND
  0
TEXT
  5
210F
330
1F
100
AcDbEntity
  8
SUNPO
100
AcDbText
 10
2376.290169028722
 20
494.4531736811823
 30
0.0
 40
50.0
  1
型式
  7
ADD
100
AcDbText
1001
ACAD
1000
MTEXTBEGIN
1070
    73
1070
     1
1070
    44
1040
1.0
1070
    74
1070
     0
1000
MTEXTEND
1000
MTEXTBEGIN
1070
    73
1070
     1
1070
    44
1040
1.0
1070
    74
1070
     0
1000
MTEXTEND
1000
MTEXTBEGIN
1070
    73
1070
     1
1070
    44
1040
1.0
1070
    74
1070
     0
1000
MTEXTEND
1000
MTEXTBEGIN
1070
    73
1070
     1
1070
    44
1040
1.0
1070
    74
1070
     0
1000
MTEXTEND
1000
MTEXTBEGIN
1070
    73
1070
     1
1070
    44
1040
1.0
1070
    74
1070
     0
1000
MTEXTEND
1000
MTEXTBEGIN
1070
    73
1070
     1
1070
    44
1040
1.0
1070
    74
1070
     0
1000
MTEXTEND
1000
MTEXTBEGIN
1070
    73
1070
     1
1070
    44
1040
1.0
1070
    74
1070
     0
1000
MTEXTEND
1000
MTEXTBEGIN
1070
    73
1070
     1
1070
    44
1040
1.0
1070
    74
1070
     0
1000
MTEXTEND
1000
MTEXTBEGIN
1070
    73
1070
     1
1070
    44
1040
1.0
1070
    74
1070
     0
1000
MTEXTEND
1000
MTEXTBEGIN
1070
    73
1070
     1
1070
    44
1040
1.0
1070
    74
1070
     0
1000
MTEXTEND
1000
MTEXTBEGIN
1070
    73
1070
     1
1070
    44
1040
1.0
1070
    74
1070
     0
1000
MTEXTEND
1000
MTEXTBEGIN
1070
    73
1070
     1
1070
    44
1040
1.0
1070
    74
1070
     0
1000
MTEXTEND
1000
MTEXTBEGIN
1070
    73
1070
     1
1070
    44
1040
1.0
1070
    74
1070
     0
1000
MTEXTEND
1000
MTEXTBEGIN
1070
    73
1070
     1
1070
    44
1040
1.0
1070
    74
1070
     0
1000
MTEXTEND
  0
TEXT
  5
2110
330
1F
100
AcDbEntity
  8
SUNPO
100
AcDbText
 10
3177.510249231658
 20
488.6918916770627
 30
0.0
 40
50.0
  1
縮尺
  7
ADD
100
AcDbText
1001
ACAD
1000
MTEXTBEGIN
1070
    73
1070
     1
1070
    44
1040
1.0
1070
    74
1070
     0
1000
MTEXTEND
1000
MTEXTBEGIN
1070
    73
1070
     1
1070
    44
1040
1.0
1070
    74
1070
     0
1000
MTEXTEND
1000
MTEXTBEGIN
1070
    73
1070
     1
1070
    44
1040
1.0
1070
    74
1070
     0
1000
MTEXTEND
1000
MTEXTBEGIN
1070
    73
1070
     1
1070
    44
1040
1.0
1070
    74
1070
     0
1000
MTEXTEND
1000
MTEXTBEGIN
1070
    73
1070
     1
1070
    44
1040
1.0
1070
    74
1070
     0
1000
MTEXTEND
1000
MTEXTBEGIN
1070
    73
1070
     1
1070
    44
1040
1.0
1070
    74
1070
     0
1000
MTEXTEND
1000
MTEXTBEGIN
1070
    73
1070
     1
1070
    44
1040
1.0
1070
    74
1070
     0
1000
MTEXTEND
1000
MTEXTBEGIN
1070
    73
1070
     1
1070
    44
1040
1.0
1070
    74
1070
     0
1000
MTEXTEND
1000
MTEXTBEGIN
1070
    73
1070
     1
1070
    44
1040
1.0
1070
    74
1070
     0
1000
MTEXTEND
1000
MTEXTBEGIN
1070
    73
1070
     1
1070
    44
1040
1.0
1070
    74
1070
     0
1000
MTEXTEND
1000
MTEXTBEGIN
1070
    73
1070
     1
1070
    44
1040
1.0
1070
    74
1070
     0
1000
MTEXTEND
1000
MTEXTBEGIN
1070
    73
1070
     1
1070
    44
1040
1.0
1070
    74
1070
     0
1000
MTEXTEND
1000
MTEXTBEGIN
1070
    73
1070
     1
1070
    44
1040
1.0
1070
    74
1070
     0
1000
MTEXTEND
1000
MTEXTBEGIN
1070
    73
1070
     1
1070
    44
1040
1.0
1070
    74
1070
     0
1000
MTEXTEND
  0
TEXT
  5
2111
330
1F
100
AcDbEntity
  8
SUNPO
100
AcDbText
 10
3730.870883051572
 20
352.2726133092145
 30
0.0
 40
100.0
  1
千葉県コンクリート製品協同組合
  7
ADD
100
AcDbText
1001
ACAD
1000
MTEXTBEGIN
1070
    73
1070
     1
1070
    44
1040
1.0
1070
    74
1070
     0
1000
MTEXTEND
1000
MTEXTBEGIN
1070
    73
1070
     1
1070
    44
1040
1.0
1070
    74
1070
     0
1000
MTEXTEND
1000
MTEXTBEGIN
1070
    73
1070
     1
1070
    44
1040
1.0
1070
    74
1070
     0
1000
MTEXTEND
1000
MTEXTBEGIN
1070
    73
1070
     1
1070
    44
1040
1.0
1070
    74
1070
     0
1000
MTEXTEND
1000
MTEXTBEGIN
1070
    73
1070
     1
1070
    44
1040
1.0
1070
    74
1070
     0
1000
MTEXTEND
1000
MTEXTBEGIN
1070
    73
1070
     1
1070
    44
1040
1.0
1070
    74
1070
     0
1000
MTEXTEND
1000
MTEXTBEGIN
1070
    73
1070
     1
1070
    44
1040
1.0
1070
    74
1070
     0
1000
MTEXTEND
1000
MTEXTBEGIN
1070
    73
1070
     1
1070
    44
1040
1.0
1070
    74
1070
     0
1000
MTEXTEND
1000
MTEXTBEGIN
1070
    73
1070
     1
1070
    44
1040
1.0
1070
    74
1070
     0
1000
MTEXTEND
1000
MTEXTBEGIN
1070
    73
1070
     1
1070
    44
1040
1.0
1070
    74
1070
     0
1000
MTEXTEND
1000
MTEXTBEGIN
1070
    73
1070
     1
1070
    44
1040
1.0
1070
    74
1070
     0
1000
MTEXTEND
1000
MTEXTBEGIN
1070
    73
1070
     1
1070
    44
1040
1.0
1070
    74
1070
     0
1000
MTEXTEND
1000
MTEXTBEGIN
1070
    73
1070
     1
1070
    44
1040
1.0
1070
    74
1070
     0
1000
MTEXTEND
1000
MTEXTBEGIN
1070
    73
1070
     1
1070
    44
1040
1.0
1070
    74
1070
     0
1000
MTEXTEND
  0
LINE
  5
2112
330
1F
100
AcDbEntity
  8
3C1
100
AcDbLine
 10
360.0
 20
260.0
 30
0.0
 11
5580.0
 21
260.0
 31
0.0
  0
LINE
  5
2113
330
1F
100
AcDbEntity
  8
3C1
100
AcDbLine
 10
5580.0
 20
260.0
 30
0.0
 11
5580.0
 21
3940.0
 31
0.0
  0
LINE
  5
2114
330
1F
100
AcDbEntity
  8
3C1
100
AcDbLine
 10
5580.0
 20
3940.0
 30
0.0
 11
360.0
 21
3940.0
 31
0.0
  0
LINE
  5
2115
330
1F
100
AcDbEntity
  8
3C1
100
AcDbLine
 10
360.0
 20
3940.0
 30
0.0
 11
360.0
 21
260.0
 31
0.0
  0
LINE
  5
2116
330
1F
100
AcDbEntity
  8
HOJO
100
AcDbLine
 10
0.0
 20
0.0
 30
0.0
 11
5940.0
 21
0.0
 31
0.0
  0
LINE
  5
2117
330
1F
100
AcDbEntity
  8
HOJO
100
AcDbLine
 10
5940.0
 20
0.0
 30
0.0
 11
5940.0
 21
4200.0
 31
0.0
  0
LINE
  5
2118
330
1F
100
AcDbEntity
  8
HOJO
100
AcDbLine
 10
5940.0
 20
4200.0
 30
0.0
 11
0.0
 21
4200.0
 31
0.0
  0
LINE
  5
2119
330
1F
100
AcDbEntity
  8
HOJO
100
AcDbLine
 10
0.0
 20
4200.0
 30
0.0
 11
0.0
 21
0.0
 31
0.0
  0
TEXT
  5
211A
330
1F
100
AcDbEntity
  8
SUNPO
 62
     7
100
AcDbText
 10
1887.499999999999
 20
2278.809523809524
 30
0.0
 40
38.0
  1
90
 50
90.0
  7
ADD
100
AcDbText
1001
ACAD
1000
MTEXTBEGIN
1070
    73
1070
     1
1070
    44
1040
1.0
1070
    74
1070
     0
1000
MTEXTEND
1000
MTEXTBEGIN
1070
    73
1070
     1
1070
    44
1040
1.0
1070
    74
1070
     0
1000
MTEXTEND
1000
MTEXTBEGIN
1070
    73
1070
     1
1070
    44
1040
1.0
1070
    74
1070
     0
1000
MTEXTEND
1000
MTEXTBEGIN
1070
    73
1070
     1
1070
    44
1040
1.0
1070
    74
1070
     0
1000
MTEXTEND
1000
MTEXTBEGIN
1070
    73
1070
     1
1070
    44
1040
1.0
1070
    74
1070
     0
1000
MTEXTEND
1000
MTEXTBEGIN
1070
    73
1070
     1
1070
    44
1040
1.0
1070
    74
1070
     0
1000
MTEXTEND
1000
MTEXTBEGIN
1070
    73
1070
     1
1070
    44
1040
1.0
1070
    74
1070
     0
1000
MTEXTEND
1000
MTEXTBEGIN
1070
    73
1070
     1
1070
    44
1040
1.0
1070
    74
1070
     0
1000
MTEXTEND
1000
MTEXTBEGIN
1070
    73
1070
     1
1070
    44
1040
1.0
1070
    74
1070
     0
1000
MTEXTEND
1000
MTEXTBEGIN
1070
    73
1070
     1
1070
    44
1040
1.0
1070
    74
1070
     0
1000
MTEXTEND
1000
MTEXTBEGIN
1070
    73
1070
     1
1070
    44
1040
1.0
1070
    74
1070
     0
1000
MTEXTEND
1000
MTEXTBEGIN
1070
    73
1070
     1
1070
    44
1040
1.0
1070
    74
1070
     0
1000
MTEXTEND
1000
MTEXTBEGIN
1070
    73
1070
     1
1070
    44
1040
1.0
1070
    74
1070
     0
1000
MTEXTEND
1000
MTEXTBEGIN
1070
    73
1070
     1
1070
    44
1040
1.0
1070
    74
1070
     0
1000
MTEXTEND
  0
TEXT
  5
211B
330
1F
100
AcDbEntity
  8
SUNPO
 62
     7
100
AcDbText
 10
1887.499999999999
 20
2505.714285714286
 30
0.0
 40
38.0
  1
400
 50
90.0
  7
ADD
100
AcDbText
1001
ACAD
1000
MTEXTBEGIN
1070
    73
1070
     1
1070
    44
1040
1.0
1070
    74
1070
     0
1000
MTEXTEND
1000
MTEXTBEGIN
1070
    73
1070
     1
1070
    44
1040
1.0
1070
    74
1070
     0
1000
MTEXTEND
1000
MTEXTBEGIN
1070
    73
1070
     1
1070
    44
1040
1.0
1070
    74
1070
     0
1000
MTEXTEND
1000
MTEXTBEGIN
1070
    73
1070
     1
1070
    44
1040
1.0
1070
    74
1070
     0
1000
MTEXTEND
1000
MTEXTBEGIN
1070
    73
1070
     1
1070
    44
1040
1.0
1070
    74
1070
     0
1000
MTEXTEND
1000
MTEXTBEGIN
1070
    73
1070
     1
1070
    44
1040
1.0
1070
    74
1070
     0
1000
MTEXTEND
1000
MTEXTBEGIN
1070
    73
1070
     1
1070
    44
1040
1.0
1070
    74
1070
     0
1000
MTEXTEND
1000
MTEXTBEGIN
1070
    73
1070
     1
1070
    44
1040
1.0
1070
    74
1070
     0
1000
MTEXTEND
1000
MTEXTBEGIN
1070
    73
1070
     1
1070
    44
1040
1.0
1070
    74
1070
     0
1000
MTEXTEND
1000
MTEXTBEGIN
1070
    73
1070
     1
1070
    44
1040
1.0
1070
    74
1070
     0
1000
MTEXTEND
1000
MTEXTBEGIN
1070
    73
1070
     1
1070
    44
1040
1.0
1070
    74
1070
     0
1000
MTEXTEND
1000
MTEXTBEGIN
1070
    73
1070
     1
1070
    44
1040
1.0
1070
    74
1070
     0
1000
MTEXTEND
1000
MTEXTBEGIN
1070
    73
1070
     1
1070
    44
1040
1.0
1070
    74
1070
     0
1000
MTEXTEND
1000
MTEXTBEGIN
1070
    73
1070
     1
1070
    44
1040
1.0
1070
    74
1070
     0
1000
MTEXTEND
  0
TEXT
  5
211C
330
1F
100
AcDbEntity
  8
SUNPO
 62
     7
100
AcDbText
 10
1887.499999999999
 20
2753.0
 30
0.0
 40
38.0
  1
100
 50
90.0
  7
ADD
100
AcDbText
1001
ACAD
1000
MTEXTBEGIN
1070
    73
1070
     1
1070
    44
1040
1.0
1070
    74
1070
     0
1000
MTEXTEND
1000
MTEXTBEGIN
1070
    73
1070
     1
1070
    44
1040
1.0
1070
    74
1070
     0
1000
MTEXTEND
1000
MTEXTBEGIN
1070
    73
1070
     1
1070
    44
1040
1.0
1070
    74
1070
     0
1000
MTEXTEND
1000
MTEXTBEGIN
1070
    73
1070
     1
1070
    44
1040
1.0
1070
    74
1070
     0
1000
MTEXTEND
1000
MTEXTBEGIN
1070
    73
1070
     1
1070
    44
1040
1.0
1070
    74
1070
     0
1000
MTEXTEND
1000
MTEXTBEGIN
1070
    73
1070
     1
1070
    44
1040
1.0
1070
    74
1070
     0
1000
MTEXTEND
1000
MTEXTBEGIN
1070
    73
1070
     1
1070
    44
1040
1.0
1070
    74
1070
     0
1000
MTEXTEND
1000
MTEXTBEGIN
1070
    73
1070
     1
1070
    44
1040
1.0
1070
    74
1070
     0
1000
MTEXTEND
1000
MTEXTBEGIN
1070
    73
1070
     1
1070
    44
1040
1.0
1070
    74
1070
     0
1000
MTEXTEND
1000
MTEXTBEGIN
1070
    73
1070
     1
1070
    44
1040
1.0
1070
    74
1070
     0
1000
MTEXTEND
1000
MTEXTBEGIN
1070
    73
1070
     1
1070
    44
1040
1.0
1070
    74
1070
     0
1000
MTEXTEND
1000
MTEXTBEGIN
1070
    73
1070
     1
1070
    44
1040
1.0
1070
    74
1070
     0
1000
MTEXTEND
1000
MTEXTBEGIN
1070
    73
1070
     1
1070
    44
1040
1.0
1070
    74
1070
     0
1000
MTEXTEND
1000
MTEXTBEGIN
1070
    73
1070
     1
1070
    44
1040
1.0
1070
    74
1070
     0
1000
MTEXTEND
  0
TEXT
  5
211D
330
1F
100
AcDbEntity
  8
SUNPO
 62
     7
100
AcDbText
 10
1987.499999999999
 20
2510.714285714286
 30
0.0
 40
38.0
  1
590
 50
90.0
  7
ADD
100
AcDbText
1001
ACAD
1000
MTEXTBEGIN
1070
    73
1070
     1
1070
    44
1040
1.0
1070
    74
1070
     0
1000
MTEXTEND
1000
MTEXTBEGIN
1070
    73
1070
     1
1070
    44
1040
1.0
1070
    74
1070
     0
1000
MTEXTEND
1000
MTEXTBEGIN
1070
    73
1070
     1
1070
    44
1040
1.0
1070
    74
1070
     0
1000
MTEXTEND
1000
MTEXTBEGIN
1070
    73
1070
     1
1070
    44
1040
1.0
1070
    74
1070
     0
1000
MTEXTEND
1000
MTEXTBEGIN
1070
    73
1070
     1
1070
    44
1040
1.0
1070
    74
1070
     0
1000
MTEXTEND
1000
MTEXTBEGIN
1070
    73
1070
     1
1070
    44
1040
1.0
1070
    74
1070
     0
1000
MTEXTEND
1000
MTEXTBEGIN
1070
    73
1070
     1
1070
    44
1040
1.0
1070
    74
1070
     0
1000
MTEXTEND
1000
MTEXTBEGIN
1070
    73
1070
     1
1070
    44
1040
1.0
1070
    74
1070
     0
1000
MTEXTEND
1000
MTEXTBEGIN
1070
    73
1070
     1
1070
    44
1040
1.0
1070
    74
1070
     0
1000
MTEXTEND
1000
MTEXTBEGIN
1070
    73
1070
     1
1070
    44
1040
1.0
1070
    74
1070
     0
1000
MTEXTEND
1000
MTEXTBEGIN
1070
    73
1070
     1
1070
    44
1040
1.0
1070
    74
1070
     0
1000
MTEXTEND
1000
MTEXTBEGIN
1070
    73
1070
     1
1070
    44
1040
1.0
1070
    74
1070
     0
1000
MTEXTEND
1000
MTEXTBEGIN
1070
    73
1070
     1
1070
    44
1040
1.0
1070
    74
1070
     0
1000
MTEXTEND
1000
MTEXTBEGIN
1070
    73
1070
     1
1070
    44
1040
1.0
1070
    74
1070
     0
1000
MTEXTEND
  0
TEXT
  5
211E
330
1F
100
AcDbEntity
  8
SUNPO
 62
     7
100
AcDbText
 10
1443.0
 20
3162.5
 30
0.0
 40
38.0
  1
155
  7
ADD
100
AcDbText
1001
ACAD
1000
MTEXTBEGIN
1070
    73
1070
     1
1070
    44
1040
1.0
1070
    74
1070
     0
1000
MTEXTEND
1000
MTEXTBEGIN
1070
    73
1070
     1
1070
    44
1040
1.0
1070
    74
1070
     0
1000
MTEXTEND
1000
MTEXTBEGIN
1070
    73
1070
     1
1070
    44
1040
1.0
1070
    74
1070
     0
1000
MTEXTEND
1000
MTEXTBEGIN
1070
    73
1070
     1
1070
    44
1040
1.0
1070
    74
1070
     0
1000
MTEXTEND
1000
MTEXTBEGIN
1070
    73
1070
     1
1070
    44
1040
1.0
1070
    74
1070
     0
1000
MTEXTEND
1000
MTEXTBEGIN
1070
    73
1070
     1
1070
    44
1040
1.0
1070
    74
1070
     0
1000
MTEXTEND
1000
MTEXTBEGIN
1070
    73
1070
     1
1070
    44
1040
1.0
1070
    74
1070
     0
1000
MTEXTEND
1000
MTEXTBEGIN
1070
    73
1070
     1
1070
    44
1040
1.0
1070
    74
1070
     0
1000
MTEXTEND
1000
MTEXTBEGIN
1070
    73
1070
     1
1070
    44
1040
1.0
1070
    74
1070
     0
1000
MTEXTEND
1000
MTEXTBEGIN
1070
    73
1070
     1
1070
    44
1040
1.0
1070
    74
1070
     0
1000
MTEXTEND
1000
MTEXTBEGIN
1070
    73
1070
     1
1070
    44
1040
1.0
1070
    74
1070
     0
1000
MTEXTEND
1000
MTEXTBEGIN
1070
    73
1070
     1
1070
    44
1040
1.0
1070
    74
1070
     0
1000
MTEXTEND
1000
MTEXTBEGIN
1070
    73
1070
     1
1070
    44
1040
1.0
1070
    74
1070
     0
1000
MTEXTEND
1000
MTEXTBEGIN
1070
    73
1070
     1
1070
    44
1040
1.0
1070
    74
1070
     0
1000
MTEXTEND
  0
TEXT
  5
211F
330
1F
100
AcDbEntity
  8
SUNPO
 62
     7
100
AcDbText
 10
1443.0
 20
3262.5
 30
0.0
 40
38.0
  1
192
  7
ADD
100
AcDbText
1001
ACAD
1000
MTEXTBEGIN
1070
    73
1070
     1
1070
    44
1040
1.0
1070
    74
1070
     0
1000
MTEXTEND
1000
MTEXTBEGIN
1070
    73
1070
     1
1070
    44
1040
1.0
1070
    74
1070
     0
1000
MTEXTEND
1000
MTEXTBEGIN
1070
    73
1070
     1
1070
    44
1040
1.0
1070
    74
1070
     0
1000
MTEXTEND
1000
MTEXTBEGIN
1070
    73
1070
     1
1070
    44
1040
1.0
1070
    74
1070
     0
1000
MTEXTEND
1000
MTEXTBEGIN
1070
    73
1070
     1
1070
    44
1040
1.0
1070
    74
1070
     0
1000
MTEXTEND
1000
MTEXTBEGIN
1070
    73
1070
     1
1070
    44
1040
1.0
1070
    74
1070
     0
1000
MTEXTEND
1000
MTEXTBEGIN
1070
    73
1070
     1
1070
    44
1040
1.0
1070
    74
1070
     0
1000
MTEXTEND
1000
MTEXTBEGIN
1070
    73
1070
     1
1070
    44
1040
1.0
1070
    74
1070
     0
1000
MTEXTEND
1000
MTEXTBEGIN
1070
    73
1070
     1
1070
    44
1040
1.0
1070
    74
1070
     0
1000
MTEXTEND
1000
MTEXTBEGIN
1070
    73
1070
     1
1070
    44
1040
1.0
1070
    74
1070
     0
1000
MTEXTEND
1000
MTEXTBEGIN
1070
    73
1070
     1
1070
    44
1040
1.0
1070
    74
1070
     0
1000
MTEXTEND
1000
MTEXTBEGIN
1070
    73
1070
     1
1070
    44
1040
1.0
1070
    74
1070
     0
1000
MTEXTEND
1000
MTEXTBEGIN
1070
    73
1070
     1
1070
    44
1040
1.0
1070
    74
1070
     0
1000
MTEXTEND
1000
MTEXTBEGIN
1070
    73
1070
     1
1070
    44
1040
1.0
1070
    74
1070
     0
1000
MTEXTEND
  0
TEXT
  5
2120
330
1F
100
AcDbEntity
  8
SUNPO
 62
     7
100
AcDbText
 10
1625.095238095238
 20
3262.5
 30
0.0
 40
38.0
  1
174
  7
ADD
100
AcDbText
1001
ACAD
1000
MTEXTBEGIN
1070
    73
1070
     1
1070
    44
1040
1.0
1070
    74
1070
     0
1000
MTEXTEND
1000
MTEXTBEGIN
1070
    73
1070
     1
1070
    44
1040
1.0
1070
    74
1070
     0
1000
MTEXTEND
1000
MTEXTBEGIN
1070
    73
1070
     1
1070
    44
1040
1.0
1070
    74
1070
     0
1000
MTEXTEND
1000
MTEXTBEGIN
1070
    73
1070
     1
1070
    44
1040
1.0
1070
    74
1070
     0
1000
MTEXTEND
1000
MTEXTBEGIN
1070
    73
1070
     1
1070
    44
1040
1.0
1070
    74
1070
     0
1000
MTEXTEND
1000
MTEXTBEGIN
1070
    73
1070
     1
1070
    44
1040
1.0
1070
    74
1070
     0
1000
MTEXTEND
1000
MTEXTBEGIN
1070
    73
1070
     1
1070
    44
1040
1.0
1070
    74
1070
     0
1000
MTEXTEND
1000
MTEXTBEGIN
1070
    73
1070
     1
1070
    44
1040
1.0
1070
    74
1070
     0
1000
MTEXTEND
1000
MTEXTBEGIN
1070
    73
1070
     1
1070
    44
1040
1.0
1070
    74
1070
     0
1000
MTEXTEND
1000
MTEXTBEGIN
1070
    73
1070
     1
1070
    44
1040
1.0
1070
    74
1070
     0
1000
MTEXTEND
1000
MTEXTBEGIN
1070
    73
1070
     1
1070
    44
1040
1.0
1070
    74
1070
     0
1000
MTEXTEND
1000
MTEXTBEGIN
1070
    73
1070
     1
1070
    44
1040
1.0
1070
    74
1070
     0
1000
MTEXTEND
1000
MTEXTBEGIN
1070
    73
1070
     1
1070
    44
1040
1.0
1070
    74
1070
     0
1000
MTEXTEND
1000
MTEXTBEGIN
1070
    73
1070
     1
1070
    44
1040
1.0
1070
    74
1070
     0
1000
MTEXTEND
  0
TEXT
  5
2121
330
1F
100
AcDbEntity
  8
SUNPO
 62
     7
100
AcDbText
 10
1259.095238095238
 20
3262.5
 30
0.0
 40
38.0
  1
174
  7
ADD
100
AcDbText
1001
ACAD
1000
MTEXTBEGIN
1070
    73
1070
     1
1070
    44
1040
1.0
1070
    74
1070
     0
1000
MTEXTEND
1000
MTEXTBEGIN
1070
    73
1070
     1
1070
    44
1040
1.0
1070
    74
1070
     0
1000
MTEXTEND
1000
MTEXTBEGIN
1070
    73
1070
     1
1070
    44
1040
1.0
1070
    74
1070
     0
1000
MTEXTEND
1000
MTEXTBEGIN
1070
    73
1070
     1
1070
    44
1040
1.0
1070
    74
1070
     0
1000
MTEXTEND
1000
MTEXTBEGIN
1070
    73
1070
     1
1070
    44
1040
1.0
1070
    74
1070
     0
1000
MTEXTEND
1000
MTEXTBEGIN
1070
    73
1070
     1
1070
    44
1040
1.0
1070
    74
1070
     0
1000
MTEXTEND
1000
MTEXTBEGIN
1070
    73
1070
     1
1070
    44
1040
1.0
1070
    74
1070
     0
1000
MTEXTEND
1000
MTEXTBEGIN
1070
    73
1070
     1
1070
    44
1040
1.0
1070
    74
1070
     0
1000
MTEXTEND
1000
MTEXTBEGIN
1070
    73
1070
     1
1070
    44
1040
1.0
1070
    74
1070
     0
1000
MTEXTEND
1000
MTEXTBEGIN
1070
    73
1070
     1
1070
    44
1040
1.0
1070
    74
1070
     0
1000
MTEXTEND
1000
MTEXTBEGIN
1070
    73
1070
     1
1070
    44
1040
1.0
1070
    74
1070
     0
1000
MTEXTEND
1000
MTEXTBEGIN
1070
    73
1070
     1
1070
    44
1040
1.0
1070
    74
1070
     0
1000
MTEXTEND
1000
MTEXTBEGIN
1070
    73
1070
     1
1070
    44
1040
1.0
1070
    74
1070
     0
1000
MTEXTEND
1000
MTEXTBEGIN
1070
    73
1070
     1
1070
    44
1040
1.0
1070
    74
1070
     0
1000
MTEXTEND
  0
TEXT
  5
2122
330
1F
100
AcDbEntity
  8
SUNPO
 62
     7
100
AcDbText
 10
1445.714285714285
 20
3362.5
 30
0.0
 40
38.0
  1
540
  7
ADD
100
AcDbText
1001
ACAD
1000
MTEXTBEGIN
1070
    73
1070
     1
1070
    44
1040
1.0
1070
    74
1070
     0
1000
MTEXTEND
1000
MTEXTBEGIN
1070
    73
1070
     1
1070
    44
1040
1.0
1070
    74
1070
     0
1000
MTEXTEND
1000
MTEXTBEGIN
1070
    73
1070
     1
1070
    44
1040
1.0
1070
    74
1070
     0
1000
MTEXTEND
1000
MTEXTBEGIN
1070
    73
1070
     1
1070
    44
1040
1.0
1070
    74
1070
     0
1000
MTEXTEND
1000
MTEXTBEGIN
1070
    73
1070
     1
1070
    44
1040
1.0
1070
    74
1070
     0
1000
MTEXTEND
1000
MTEXTBEGIN
1070
    73
1070
     1
1070
    44
1040
1.0
1070
    74
1070
     0
1000
MTEXTEND
1000
MTEXTBEGIN
1070
    73
1070
     1
1070
    44
1040
1.0
1070
    74
1070
     0
1000
MTEXTEND
1000
MTEXTBEGIN
1070
    73
1070
     1
1070
    44
1040
1.0
1070
    74
1070
     0
1000
MTEXTEND
1000
MTEXTBEGIN
1070
    73
1070
     1
1070
    44
1040
1.0
1070
    74
1070
     0
1000
MTEXTEND
1000
MTEXTBEGIN
1070
    73
1070
     1
1070
    44
1040
1.0
1070
    74
1070
     0
1000
MTEXTEND
1000
MTEXTBEGIN
1070
    73
1070
     1
1070
    44
1040
1.0
1070
    74
1070
     0
1000
MTEXTEND
1000
MTEXTBEGIN
1070
    73
1070
     1
1070
    44
1040
1.0
1070
    74
1070
     0
1000
MTEXTEND
1000
MTEXTBEGIN
1070
    73
1070
     1
1070
    44
1040
1.0
1070
    74
1070
     0
1000
MTEXTEND
1000
MTEXTBEGIN
1070
    73
1070
     1
1070
    44
1040
1.0
1070
    74
1070
     0
1000
MTEXTEND
  0
TEXT
  5
2123
330
1F
100
AcDbEntity
  8
SUNPO
 62
     7
100
AcDbText
 10
2537.499999999999
 20
2838.809523809524
 30
0.0
 40
38.0
  1
50
 50
90.0
  7
ADD
100
AcDbText
1001
ACAD
1000
MTEXTBEGIN
1070
    73
1070
     1
1070
    44
1040
1.0
1070
    74
1070
     0
1000
MTEXTEND
1000
MTEXTBEGIN
1070
    73
1070
     1
1070
    44
1040
1.0
1070
    74
1070
     0
1000
MTEXTEND
1000
MTEXTBEGIN
1070
    73
1070
     1
1070
    44
1040
1.0
1070
    74
1070
     0
1000
MTEXTEND
1000
MTEXTBEGIN
1070
    73
1070
     1
1070
    44
1040
1.0
1070
    74
1070
     0
1000
MTEXTEND
1000
MTEXTBEGIN
1070
    73
1070
     1
1070
    44
1040
1.0
1070
    74
1070
     0
1000
MTEXTEND
1000
MTEXTBEGIN
1070
    73
1070
     1
1070
    44
1040
1.0
1070
    74
1070
     0
1000
MTEXTEND
1000
MTEXTBEGIN
1070
    73
1070
     1
1070
    44
1040
1.0
1070
    74
1070
     0
1000
MTEXTEND
1000
MTEXTBEGIN
1070
    73
1070
     1
1070
    44
1040
1.0
1070
    74
1070
     0
1000
MTEXTEND
1000
MTEXTBEGIN
1070
    73
1070
     1
1070
    44
1040
1.0
1070
    74
1070
     0
1000
MTEXTEND
1000
MTEXTBEGIN
1070
    73
1070
     1
1070
    44
1040
1.0
1070
    74
1070
     0
1000
MTEXTEND
1000
MTEXTBEGIN
1070
    73
1070
     1
1070
    44
1040
1.0
1070
    74
1070
     0
1000
MTEXTEND
1000
MTEXTBEGIN
1070
    73
1070
     1
1070
    44
1040
1.0
1070
    74
1070
     0
1000
MTEXTEND
1000
MTEXTBEGIN
1070
    73
1070
     1
1070
    44
1040
1.0
1070
    74
1070
     0
1000
MTEXTEND
1000
MTEXTBEGIN
1070
    73
1070
     1
1070
    44
1040
1.0
1070
    74
1070
     0
1000
MTEXTEND
  0
TEXT
  5
2124
330
1F
100
AcDbEntity
  8
SUNPO
 62
     7
100
AcDbText
 10
2887.499999999999
 20
2833.809523809524
 30
0.0
 40
38.0
  1
40
 50
90.0
  7
ADD
100
AcDbText
1001
ACAD
1000
MTEXTBEGIN
1070
    73
1070
     1
1070
    44
1040
1.0
1070
    74
1070
     0
1000
MTEXTEND
1000
MTEXTBEGIN
1070
    73
1070
     1
1070
    44
1040
1.0
1070
    74
1070
     0
1000
MTEXTEND
1000
MTEXTBEGIN
1070
    73
1070
     1
1070
    44
1040
1.0
1070
    74
1070
     0
1000
MTEXTEND
1000
MTEXTBEGIN
1070
    73
1070
     1
1070
    44
1040
1.0
1070
    74
1070
     0
1000
MTEXTEND
1000
MTEXTBEGIN
1070
    73
1070
     1
1070
    44
1040
1.0
1070
    74
1070
     0
1000
MTEXTEND
1000
MTEXTBEGIN
1070
    73
1070
     1
1070
    44
1040
1.0
1070
    74
1070
     0
1000
MTEXTEND
1000
MTEXTBEGIN
1070
    73
1070
     1
1070
    44
1040
1.0
1070
    74
1070
     0
1000
MTEXTEND
1000
MTEXTBEGIN
1070
    73
1070
     1
1070
    44
1040
1.0
1070
    74
1070
     0
1000
MTEXTEND
1000
MTEXTBEGIN
1070
    73
1070
     1
1070
    44
1040
1.0
1070
    74
1070
     0
1000
MTEXTEND
1000
MTEXTBEGIN
1070
    73
1070
     1
1070
    44
1040
1.0
1070
    74
1070
     0
1000
MTEXTEND
1000
MTEXTBEGIN
1070
    73
1070
     1
1070
    44
1040
1.0
1070
    74
1070
     0
1000
MTEXTEND
1000
MTEXTBEGIN
1070
    73
1070
     1
1070
    44
1040
1.0
1070
    74
1070
     0
1000
MTEXTEND
1000
MTEXTBEGIN
1070
    73
1070
     1
1070
    44
1040
1.0
1070
    74
1070
     0
1000
MTEXTEND
1000
MTEXTBEGIN
1070
    73
1070
     1
1070
    44
1040
1.0
1070
    74
1070
     0
1000
MTEXTEND
  0
TEXT
  5
2125
330
1F
100
AcDbEntity
  8
SUNPO
 62
     7
100
AcDbText
 10
2642.999999999999
 20
3162.5
 30
0.0
 40
38.0
  1
100
  7
ADD
100
AcDbText
1001
ACAD
1000
MTEXTBEGIN
1070
    73
1070
     1
1070
    44
1040
1.0
1070
    74
1070
     0
1000
MTEXTEND
1000
MTEXTBEGIN
1070
    73
1070
     1
1070
    44
1040
1.0
1070
    74
1070
     0
1000
MTEXTEND
1000
MTEXTBEGIN
1070
    73
1070
     1
1070
    44
1040
1.0
1070
    74
1070
     0
1000
MTEXTEND
1000
MTEXTBEGIN
1070
    73
1070
     1
1070
    44
1040
1.0
1070
    74
1070
     0
1000
MTEXTEND
1000
MTEXTBEGIN
1070
    73
1070
     1
1070
    44
1040
1.0
1070
    74
1070
     0
1000
MTEXTEND
1000
MTEXTBEGIN
1070
    73
1070
     1
1070
    44
1040
1.0
1070
    74
1070
     0
1000
MTEXTEND
1000
MTEXTBEGIN
1070
    73
1070
     1
1070
    44
1040
1.0
1070
    74
1070
     0
1000
MTEXTEND
1000
MTEXTBEGIN
1070
    73
1070
     1
1070
    44
1040
1.0
1070
    74
1070
     0
1000
MTEXTEND
1000
MTEXTBEGIN
1070
    73
1070
     1
1070
    44
1040
1.0
1070
    74
1070
     0
1000
MTEXTEND
1000
MTEXTBEGIN
1070
    73
1070
     1
1070
    44
1040
1.0
1070
    74
1070
     0
1000
MTEXTEND
1000
MTEXTBEGIN
1070
    73
1070
     1
1070
    44
1040
1.0
1070
    74
1070
     0
1000
MTEXTEND
1000
MTEXTBEGIN
1070
    73
1070
     1
1070
    44
1040
1.0
1070
    74
1070
     0
1000
MTEXTEND
1000
MTEXTBEGIN
1070
    73
1070
     1
1070
    44
1040
1.0
1070
    74
1070
     0
1000
MTEXTEND
1000
MTEXTBEGIN
1070
    73
1070
     1
1070
    44
1040
1.0
1070
    74
1070
     0
1000
MTEXTEND
  0
TEXT
  5
2126
330
1F
100
AcDbEntity
  8
SUNPO
 62
     7
100
AcDbText
 10
2537.499999999999
 20
1525.714285714286
 30
0.0
 40
38.0
  1
200
 50
90.0
  7
ADD
100
AcDbText
1001
ACAD
1000
MTEXTBEGIN
1070
    73
1070
     1
1070
    44
1040
1.0
1070
    74
1070
     0
1000
MTEXTEND
1000
MTEXTBEGIN
1070
    73
1070
     1
1070
    44
1040
1.0
1070
    74
1070
     0
1000
MTEXTEND
1000
MTEXTBEGIN
1070
    73
1070
     1
1070
    44
1040
1.0
1070
    74
1070
     0
1000
MTEXTEND
1000
MTEXTBEGIN
1070
    73
1070
     1
1070
    44
1040
1.0
1070
    74
1070
     0
1000
MTEXTEND
1000
MTEXTBEGIN
1070
    73
1070
     1
1070
    44
1040
1.0
1070
    74
1070
     0
1000
MTEXTEND
1000
MTEXTBEGIN
1070
    73
1070
     1
1070
    44
1040
1.0
1070
    74
1070
     0
1000
MTEXTEND
1000
MTEXTBEGIN
1070
    73
1070
     1
1070
    44
1040
1.0
1070
    74
1070
     0
1000
MTEXTEND
1000
MTEXTBEGIN
1070
    73
1070
     1
1070
    44
1040
1.0
1070
    74
1070
     0
1000
MTEXTEND
1000
MTEXTBEGIN
1070
    73
1070
     1
1070
    44
1040
1.0
1070
    74
1070
     0
1000
MTEXTEND
1000
MTEXTBEGIN
1070
    73
1070
     1
1070
    44
1040
1.0
1070
    74
1070
     0
1000
MTEXTEND
1000
MTEXTBEGIN
1070
    73
1070
     1
1070
    44
1040
1.0
1070
    74
1070
     0
1000
MTEXTEND
1000
MTEXTBEGIN
1070
    73
1070
     1
1070
    44
1040
1.0
1070
    74
1070
     0
1000
MTEXTEND
1000
MTEXTBEGIN
1070
    73
1070
     1
1070
    44
1040
1.0
1070
    74
1070
     0
1000
MTEXTEND
1000
MTEXTBEGIN
1070
    73
1070
     1
1070
    44
1040
1.0
1070
    74
1070
     0
1000
MTEXTEND
  0
TEXT
  5
2127
330
1F
100
AcDbEntity
  8
SUNPO
 62
     7
100
AcDbText
 10
2437.5
 20
1525.714285714286
 30
0.0
 40
38.0
  1
400
 50
90.0
  7
ADD
100
AcDbText
1001
ACAD
1000
MTEXTBEGIN
1070
    73
1070
     1
1070
    44
1040
1.0
1070
    74
1070
     0
1000
MTEXTEND
1000
MTEXTBEGIN
1070
    73
1070
     1
1070
    44
1040
1.0
1070
    74
1070
     0
1000
MTEXTEND
1000
MTEXTBEGIN
1070
    73
1070
     1
1070
    44
1040
1.0
1070
    74
1070
     0
1000
MTEXTEND
1000
MTEXTBEGIN
1070
    73
1070
     1
1070
    44
1040
1.0
1070
    74
1070
     0
1000
MTEXTEND
1000
MTEXTBEGIN
1070
    73
1070
     1
1070
    44
1040
1.0
1070
    74
1070
     0
1000
MTEXTEND
1000
MTEXTBEGIN
1070
    73
1070
     1
1070
    44
1040
1.0
1070
    74
1070
     0
1000
MTEXTEND
1000
MTEXTBEGIN
1070
    73
1070
     1
1070
    44
1040
1.0
1070
    74
1070
     0
1000
MTEXTEND
1000
MTEXTBEGIN
1070
    73
1070
     1
1070
    44
1040
1.0
1070
    74
1070
     0
1000
MTEXTEND
1000
MTEXTBEGIN
1070
    73
1070
     1
1070
    44
1040
1.0
1070
    74
1070
     0
1000
MTEXTEND
1000
MTEXTBEGIN
1070
    73
1070
     1
1070
    44
1040
1.0
1070
    74
1070
     0
1000
MTEXTEND
1000
MTEXTBEGIN
1070
    73
1070
     1
1070
    44
1040
1.0
1070
    74
1070
     0
1000
MTEXTEND
1000
MTEXTBEGIN
1070
    73
1070
     1
1070
    44
1040
1.0
1070
    74
1070
     0
1000
MTEXTEND
1000
MTEXTBEGIN
1070
    73
1070
     1
1070
    44
1040
1.0
1070
    74
1070
     0
1000
MTEXTEND
1000
MTEXTBEGIN
1070
    73
1070
     1
1070
    44
1040
1.0
1070
    74
1070
     0
1000
MTEXTEND
  0
TEXT
  5
2128
330
1F
100
AcDbEntity
  8
SUNPO
 62
     7
100
AcDbText
 10
2437.5
 20
1778.809523809524
 30
0.0
 40
38.0
  1
70
 50
90.0
  7
ADD
100
AcDbText
1001
ACAD
1000
MTEXTBEGIN
1070
    73
1070
     1
1070
    44
1040
1.0
1070
    74
1070
     0
1000
MTEXTEND
1000
MTEXTBEGIN
1070
    73
1070
     1
1070
    44
1040
1.0
1070
    74
1070
     0
1000
MTEXTEND
1000
MTEXTBEGIN
1070
    73
1070
     1
1070
    44
1040
1.0
1070
    74
1070
     0
1000
MTEXTEND
1000
MTEXTBEGIN
1070
    73
1070
     1
1070
    44
1040
1.0
1070
    74
1070
     0
1000
MTEXTEND
1000
MTEXTBEGIN
1070
    73
1070
     1
1070
    44
1040
1.0
1070
    74
1070
     0
1000
MTEXTEND
1000
MTEXTBEGIN
1070
    73
1070
     1
1070
    44
1040
1.0
1070
    74
1070
     0
1000
MTEXTEND
1000
MTEXTBEGIN
1070
    73
1070
     1
1070
    44
1040
1.0
1070
    74
1070
     0
1000
MTEXTEND
1000
MTEXTBEGIN
1070
    73
1070
     1
1070
    44
1040
1.0
1070
    74
1070
     0
1000
MTEXTEND
1000
MTEXTBEGIN
1070
    73
1070
     1
1070
    44
1040
1.0
1070
    74
1070
     0
1000
MTEXTEND
1000
MTEXTBEGIN
1070
    73
1070
     1
1070
    44
1040
1.0
1070
    74
1070
     0
1000
MTEXTEND
1000
MTEXTBEGIN
1070
    73
1070
     1
1070
    44
1040
1.0
1070
    74
1070
     0
1000
MTEXTEND
1000
MTEXTBEGIN
1070
    73
1070
     1
1070
    44
1040
1.0
1070
    74
1070
     0
1000
MTEXTEND
1000
MTEXTBEGIN
1070
    73
1070
     1
1070
    44
1040
1.0
1070
    74
1070
     0
1000
MTEXTEND
1000
MTEXTBEGIN
1070
    73
1070
     1
1070
    44
1040
1.0
1070
    74
1070
     0
1000
MTEXTEND
  0
TEXT
  5
2129
330
1F
100
AcDbEntity
  8
SUNPO
 62
     7
100
AcDbText
 10
2437.5
 20
1308.809523809524
 30
0.0
 40
38.0
  1
70
 50
90.0
  7
ADD
100
AcDbText
1001
ACAD
1000
MTEXTBEGIN
1070
    73
1070
     1
1070
    44
1040
1.0
1070
    74
1070
     0
1000
MTEXTEND
1000
MTEXTBEGIN
1070
    73
1070
     1
1070
    44
1040
1.0
1070
    74
1070
     0
1000
MTEXTEND
1000
MTEXTBEGIN
1070
    73
1070
     1
1070
    44
1040
1.0
1070
    74
1070
     0
1000
MTEXTEND
1000
MTEXTBEGIN
1070
    73
1070
     1
1070
    44
1040
1.0
1070
    74
1070
     0
1000
MTEXTEND
1000
MTEXTBEGIN
1070
    73
1070
     1
1070
    44
1040
1.0
1070
    74
1070
     0
1000
MTEXTEND
1000
MTEXTBEGIN
1070
    73
1070
     1
1070
    44
1040
1.0
1070
    74
1070
     0
1000
MTEXTEND
1000
MTEXTBEGIN
1070
    73
1070
     1
1070
    44
1040
1.0
1070
    74
1070
     0
1000
MTEXTEND
1000
MTEXTBEGIN
1070
    73
1070
     1
1070
    44
1040
1.0
1070
    74
1070
     0
1000
MTEXTEND
1000
MTEXTBEGIN
1070
    73
1070
     1
1070
    44
1040
1.0
1070
    74
1070
     0
1000
MTEXTEND
1000
MTEXTBEGIN
1070
    73
1070
     1
1070
    44
1040
1.0
1070
    74
1070
     0
1000
MTEXTEND
1000
MTEXTBEGIN
1070
    73
1070
     1
1070
    44
1040
1.0
1070
    74
1070
     0
1000
MTEXTEND
1000
MTEXTBEGIN
1070
    73
1070
     1
1070
    44
1040
1.0
1070
    74
1070
     0
1000
MTEXTEND
1000
MTEXTBEGIN
1070
    73
1070
     1
1070
    44
1040
1.0
1070
    74
1070
     0
1000
MTEXTEND
1000
MTEXTBEGIN
1070
    73
1070
     1
1070
    44
1040
1.0
1070
    74
1070
     0
1000
MTEXTEND
  0
TEXT
  5
212A
330
1F
100
AcDbEntity
  8
SUNPO
 62
     7
100
AcDbText
 10
1167.352744998325
 20
2326.511194455839
 30
0.0
 40
38.0
  1
R70
 50
36.70729451686987
  7
ADD
100
AcDbText
1001
ACAD
1000
MTEXTBEGIN
1070
    73
1070
     1
1070
    44
1040
1.0
1070
    74
1070
     0
1000
MTEXTEND
1000
MTEXTBEGIN
1070
    73
1070
     1
1070
    44
1040
1.0
1070
    74
1070
     0
1000
MTEXTEND
1000
MTEXTBEGIN
1070
    73
1070
     1
1070
    44
1040
1.0
1070
    74
1070
     0
1000
MTEXTEND
1000
MTEXTBEGIN
1070
    73
1070
     1
1070
    44
1040
1.0
1070
    74
1070
     0
1000
MTEXTEND
1000
MTEXTBEGIN
1070
    73
1070
     1
1070
    44
1040
1.0
1070
    74
1070
     0
1000
MTEXTEND
1000
MTEXTBEGIN
1070
    73
1070
     1
1070
    44
1040
1.0
1070
    74
1070
     0
1000
MTEXTEND
1000
MTEXTBEGIN
1070
    73
1070
     1
1070
    44
1040
1.0
1070
    74
1070
     0
1000
MTEXTEND
1000
MTEXTBEGIN
1070
    73
1070
     1
1070
    44
1040
1.0
1070
    74
1070
     0
1000
MTEXTEND
1000
MTEXTBEGIN
1070
    73
1070
     1
1070
    44
1040
1.0
1070
    74
1070
     0
1000
MTEXTEND
1000
MTEXTBEGIN
1070
    73
1070
     1
1070
    44
1040
1.0
1070
    74
1070
     0
1000
MTEXTEND
1000
MTEXTBEGIN
1070
    73
1070
     1
1070
    44
1040
1.0
1070
    74
1070
     0
1000
MTEXTEND
1000
MTEXTBEGIN
1070
    73
1070
     1
1070
    44
1040
1.0
1070
    74
1070
     0
1000
MTEXTEND
1000
MTEXTBEGIN
1070
    73
1070
     1
1070
    44
1040
1.0
1070
    74
1070
     0
1000
MTEXTEND
1000
MTEXTBEGIN
1070
    73
1070
     1
1070
    44
1040
1.0
1070
    74
1070
     0
1000
MTEXTEND
  0
TEXT
  5
212B
330
1F
100
AcDbEntity
  8
SUNPO
 62
     7
100
AcDbText
 10
2772.48943744882
 20
2934.455897603415
 30
0.0
 40
38.0
  1
R40
 50
45.19540443085456
  7
ADD
100
AcDbText
1001
ACAD
1000
MTEXTBEGIN
1070
    73
1070
     1
1070
    44
1040
1.0
1070
    74
1070
     0
1000
MTEXTEND
1000
MTEXTBEGIN
1070
    73
1070
     1
1070
    44
1040
1.0
1070
    74
1070
     0
1000
MTEXTEND
1000
MTEXTBEGIN
1070
    73
1070
     1
1070
    44
1040
1.0
1070
    74
1070
     0
1000
MTEXTEND
1000
MTEXTBEGIN
1070
    73
1070
     1
1070
    44
1040
1.0
1070
    74
1070
     0
1000
MTEXTEND
1000
MTEXTBEGIN
1070
    73
1070
     1
1070
    44
1040
1.0
1070
    74
1070
     0
1000
MTEXTEND
1000
MTEXTBEGIN
1070
    73
1070
     1
1070
    44
1040
1.0
1070
    74
1070
     0
1000
MTEXTEND
1000
MTEXTBEGIN
1070
    73
1070
     1
1070
    44
1040
1.0
1070
    74
1070
     0
1000
MTEXTEND
1000
MTEXTBEGIN
1070
    73
1070
     1
1070
    44
1040
1.0
1070
    74
1070
     0
1000
MTEXTEND
1000
MTEXTBEGIN
1070
    73
1070
     1
1070
    44
1040
1.0
1070
    74
1070
     0
1000
MTEXTEND
1000
MTEXTBEGIN
1070
    73
1070
     1
1070
    44
1040
1.0
1070
    74
1070
     0
1000
MTEXTEND
1000
MTEXTBEGIN
1070
    73
1070
     1
1070
    44
1040
1.0
1070
    74
1070
     0
1000
MTEXTEND
1000
MTEXTBEGIN
1070
    73
1070
     1
1070
    44
1040
1.0
1070
    74
1070
     0
1000
MTEXTEND
1000
MTEXTBEGIN
1070
    73
1070
     1
1070
    44
1040
1.0
1070
    74
1070
     0
1000
MTEXTEND
1000
MTEXTBEGIN
1070
    73
1070
     1
1070
    44
1040
1.0
1070
    74
1070
     0
1000
MTEXTEND
  0
TEXT
  5
212C
330
1F
100
AcDbEntity
  8
SUNPO
 62
     7
100
AcDbText
 10
1612.209140811017
 20
3088.06810708758
 30
0.0
 40
38.0
  1
R30
 50
39.8433101966644
  7
ADD
100
AcDbText
1001
ACAD
1000
MTEXTBEGIN
1070
    73
1070
     1
1070
    44
1040
1.0
1070
    74
1070
     0
1000
MTEXTEND
1000
MTEXTBEGIN
1070
    73
1070
     1
1070
    44
1040
1.0
1070
    74
1070
     0
1000
MTEXTEND
1000
MTEXTBEGIN
1070
    73
1070
     1
1070
    44
1040
1.0
1070
    74
1070
     0
1000
MTEXTEND
1000
MTEXTBEGIN
1070
    73
1070
     1
1070
    44
1040
1.0
1070
    74
1070
     0
1000
MTEXTEND
1000
MTEXTBEGIN
1070
    73
1070
     1
1070
    44
1040
1.0
1070
    74
1070
     0
1000
MTEXTEND
1000
MTEXTBEGIN
1070
    73
1070
     1
1070
    44
1040
1.0
1070
    74
1070
     0
1000
MTEXTEND
1000
MTEXTBEGIN
1070
    73
1070
     1
1070
    44
1040
1.0
1070
    74
1070
     0
1000
MTEXTEND
1000
MTEXTBEGIN
1070
    73
1070
     1
1070
    44
1040
1.0
1070
    74
1070
     0
1000
MTEXTEND
1000
MTEXTBEGIN
1070
    73
1070
     1
1070
    44
1040
1.0
1070
    74
1070
     0
1000
MTEXTEND
1000
MTEXTBEGIN
1070
    73
1070
     1
1070
    44
1040
1.0
1070
    74
1070
     0
1000
MTEXTEND
1000
MTEXTBEGIN
1070
    73
1070
     1
1070
    44
1040
1.0
1070
    74
1070
     0
1000
MTEXTEND
1000
MTEXTBEGIN
1070
    73
1070
     1
1070
    44
1040
1.0
1070
    74
1070
     0
1000
MTEXTEND
1000
MTEXTBEGIN
1070
    73
1070
     1
1070
    44
1040
1.0
1070
    74
1070
     0
1000
MTEXTEND
1000
MTEXTBEGIN
1070
    73
1070
     1
1070
    44
1040
1.0
1070
    74
1070
     0
1000
MTEXTEND
  0
TEXT
  5
212D
330
1F
100
AcDbEntity
  8
SUNPO
 62
     7
100
AcDbText
 10
1615.336378096768
 20
2314.647484231789
 30
0.0
 40
36.0
  1
R350
 50
284.5242575497104
  7
ADD
100
AcDbText
1001
ACAD
1000
MTEXTBEGIN
1070
    73
1070
     1
1070
    44
1040
1.0
1070
    74
1070
     0
1000
MTEXTEND
1000
MTEXTBEGIN
1070
    73
1070
     1
1070
    44
1040
1.0
1070
    74
1070
     0
1000
MTEXTEND
1000
MTEXTBEGIN
1070
    73
1070
     1
1070
    44
1040
1.0
1070
    74
1070
     0
1000
MTEXTEND
1000
MTEXTBEGIN
1070
    73
1070
     1
1070
    44
1040
1.0
1070
    74
1070
     0
1000
MTEXTEND
1000
MTEXTBEGIN
1070
    73
1070
     1
1070
    44
1040
1.0
1070
    74
1070
     0
1000
MTEXTEND
1000
MTEXTBEGIN
1070
    73
1070
     1
1070
    44
1040
1.0
1070
    74
1070
     0
1000
MTEXTEND
1000
MTEXTBEGIN
1070
    73
1070
     1
1070
    44
1040
1.0
1070
    74
1070
     0
1000
MTEXTEND
1000
MTEXTBEGIN
1070
    73
1070
     1
1070
    44
1040
1.0
1070
    74
1070
     0
1000
MTEXTEND
1000
MTEXTBEGIN
1070
    73
1070
     1
1070
    44
1040
1.0
1070
    74
1070
     0
1000
MTEXTEND
1000
MTEXTBEGIN
1070
    73
1070
     1
1070
    44
1040
1.0
1070
    74
1070
     0
1000
MTEXTEND
1000
MTEXTBEGIN
1070
    73
1070
     1
1070
    44
1040
1.0
1070
    74
1070
     0
1000
MTEXTEND
1000
MTEXTBEGIN
1070
    73
1070
     1
1070
    44
1040
1.0
1070
    74
1070
     0
1000
MTEXTEND
1000
MTEXTBEGIN
1070
    73
1070
     1
1070
    44
1040
1.0
1070
    74
1070
     0
1000
MTEXTEND
1000
MTEXTBEGIN
1070
    73
1070
     1
1070
    44
1040
1.0
1070
    74
1070
     0
1000
MTEXTEND
  0
TEXT
  5
212E
330
1F
100
AcDbEntity
  8
SUNPO
 62
     7
100
AcDbText
 10
1467.499999999999
 20
2898.571428571429
 30
0.0
 40
36.0
  1
200
 50
90.0
  7
ADD
100
AcDbText
1001
ACAD
1000
MTEXTBEGIN
1070
    73
1070
     1
1070
    44
1040
1.0
1070
    74
1070
     0
1000
MTEXTEND
1000
MTEXTBEGIN
1070
    73
1070
     1
1070
    44
1040
1.0
1070
    74
1070
     0
1000
MTEXTEND
1000
MTEXTBEGIN
1070
    73
1070
     1
1070
    44
1040
1.0
1070
    74
1070
     0
1000
MTEXTEND
1000
MTEXTBEGIN
1070
    73
1070
     1
1070
    44
1040
1.0
1070
    74
1070
     0
1000
MTEXTEND
1000
MTEXTBEGIN
1070
    73
1070
     1
1070
    44
1040
1.0
1070
    74
1070
     0
1000
MTEXTEND
1000
MTEXTBEGIN
1070
    73
1070
     1
1070
    44
1040
1.0
1070
    74
1070
     0
1000
MTEXTEND
1000
MTEXTBEGIN
1070
    73
1070
     1
1070
    44
1040
1.0
1070
    74
1070
     0
1000
MTEXTEND
1000
MTEXTBEGIN
1070
    73
1070
     1
1070
    44
1040
1.0
1070
    74
1070
     0
1000
MTEXTEND
1000
MTEXTBEGIN
1070
    73
1070
     1
1070
    44
1040
1.0
1070
    74
1070
     0
1000
MTEXTEND
1000
MTEXTBEGIN
1070
    73
1070
     1
1070
    44
1040
1.0
1070
    74
1070
     0
1000
MTEXTEND
1000
MTEXTBEGIN
1070
    73
1070
     1
1070
    44
1040
1.0
1070
    74
1070
     0
1000
MTEXTEND
1000
MTEXTBEGIN
1070
    73
1070
     1
1070
    44
1040
1.0
1070
    74
1070
     0
1000
MTEXTEND
1000
MTEXTBEGIN
1070
    73
1070
     1
1070
    44
1040
1.0
1070
    74
1070
     0
1000
MTEXTEND
1000
MTEXTBEGIN
1070
    73
1070
     1
1070
    44
1040
1.0
1070
    74
1070
     0
1000
MTEXTEND
  0
TEXT
  5
212F
330
1F
100
AcDbEntity
  8
SUNPO
 62
     7
100
AcDbText
 10
4787.499999999999
 20
2766.0
 30
0.0
 40
36.0
  1
120
 50
90.0
  7
ADD
100
AcDbText
1001
ACAD
1000
MTEXTBEGIN
1070
    73
1070
     1
1070
    44
1040
1.0
1070
    74
1070
     0
1000
MTEXTEND
1000
MTEXTBEGIN
1070
    73
1070
     1
1070
    44
1040
1.0
1070
    74
1070
     0
1000
MTEXTEND
1000
MTEXTBEGIN
1070
    73
1070
     1
1070
    44
1040
1.0
1070
    74
1070
     0
1000
MTEXTEND
1000
MTEXTBEGIN
1070
    73
1070
     1
1070
    44
1040
1.0
1070
    74
1070
     0
1000
MTEXTEND
1000
MTEXTBEGIN
1070
    73
1070
     1
1070
    44
1040
1.0
1070
    74
1070
     0
1000
MTEXTEND
1000
MTEXTBEGIN
1070
    73
1070
     1
1070
    44
1040
1.0
1070
    74
1070
     0
1000
MTEXTEND
1000
MTEXTBEGIN
1070
    73
1070
     1
1070
    44
1040
1.0
1070
    74
1070
     0
1000
MTEXTEND
1000
MTEXTBEGIN
1070
    73
1070
     1
1070
    44
1040
1.0
1070
    74
1070
     0
1000
MTEXTEND
1000
MTEXTBEGIN
1070
    73
1070
     1
1070
    44
1040
1.0
1070
    74
1070
     0
1000
MTEXTEND
1000
MTEXTBEGIN
1070
    73
1070
     1
1070
    44
1040
1.0
1070
    74
1070
     0
1000
MTEXTEND
1000
MTEXTBEGIN
1070
    73
1070
     1
1070
    44
1040
1.0
1070
    74
1070
     0
1000
MTEXTEND
1000
MTEXTBEGIN
1070
    73
1070
     1
1070
    44
1040
1.0
1070
    74
1070
     0
1000
MTEXTEND
1000
MTEXTBEGIN
1070
    73
1070
     1
1070
    44
1040
1.0
1070
    74
1070
     0
1000
MTEXTEND
1000
MTEXTBEGIN
1070
    73
1070
     1
1070
    44
1040
1.0
1070
    74
1070
     0
1000
MTEXTEND
  0
TEXT
  5
2130
330
1F
100
AcDbEntity
  8
SUNPO
 62
     7
100
AcDbText
 10
4297.714285714285
 20
3162.5
 30
0.0
 40
36.0
  1
600
  7
ADD
100
AcDbText
1001
ACAD
1000
MTEXTBEGIN
1070
    73
1070
     1
1070
    44
1040
1.0
1070
    74
1070
     0
1000
MTEXTEND
1000
MTEXTBEGIN
1070
    73
1070
     1
1070
    44
1040
1.0
1070
    74
1070
     0
1000
MTEXTEND
1000
MTEXTBEGIN
1070
    73
1070
     1
1070
    44
1040
1.0
1070
    74
1070
     0
1000
MTEXTEND
1000
MTEXTBEGIN
1070
    73
1070
     1
1070
    44
1040
1.0
1070
    74
1070
     0
1000
MTEXTEND
1000
MTEXTBEGIN
1070
    73
1070
     1
1070
    44
1040
1.0
1070
    74
1070
     0
1000
MTEXTEND
1000
MTEXTBEGIN
1070
    73
1070
     1
1070
    44
1040
1.0
1070
    74
1070
     0
1000
MTEXTEND
1000
MTEXTBEGIN
1070
    73
1070
     1
1070
    44
1040
1.0
1070
    74
1070
     0
1000
MTEXTEND
1000
MTEXTBEGIN
1070
    73
1070
     1
1070
    44
1040
1.0
1070
    74
1070
     0
1000
MTEXTEND
1000
MTEXTBEGIN
1070
    73
1070
     1
1070
    44
1040
1.0
1070
    74
1070
     0
1000
MTEXTEND
1000
MTEXTBEGIN
1070
    73
1070
     1
1070
    44
1040
1.0
1070
    74
1070
     0
1000
MTEXTEND
1000
MTEXTBEGIN
1070
    73
1070
     1
1070
    44
1040
1.0
1070
    74
1070
     0
1000
MTEXTEND
1000
MTEXTBEGIN
1070
    73
1070
     1
1070
    44
1040
1.0
1070
    74
1070
     0
1000
MTEXTEND
1000
MTEXTBEGIN
1070
    73
1070
     1
1070
    44
1040
1.0
1070
    74
1070
     0
1000
MTEXTEND
1000
MTEXTBEGIN
1070
    73
1070
     1
1070
    44
1040
1.0
1070
    74
1070
     0
1000
MTEXTEND
  0
TEXT
  5
2131
330
1F
100
AcDbEntity
  8
SUNPO
 62
     7
100
AcDbText
 10
3581.42857142857
 20
3312.5
 30
0.0
 40
36.0
  1
2000
  7
ADD
100
AcDbText
1001
ACAD
1000
MTEXTBEGIN
1070
    73
1070
     1
1070
    44
1040
1.0
1070
    74
1070
     0
1000
MTEXTEND
1000
MTEXTBEGIN
1070
    73
1070
     1
1070
    44
1040
1.0
1070
    74
1070
     0
1000
MTEXTEND
1000
MTEXTBEGIN
1070
    73
1070
     1
1070
    44
1040
1.0
1070
    74
1070
     0
1000
MTEXTEND
1000
MTEXTBEGIN
1070
    73
1070
     1
1070
    44
1040
1.0
1070
    74
1070
     0
1000
MTEXTEND
1000
MTEXTBEGIN
1070
    73
1070
     1
1070
    44
1040
1.0
1070
    74
1070
     0
1000
MTEXTEND
1000
MTEXTBEGIN
1070
    73
1070
     1
1070
    44
1040
1.0
1070
    74
1070
     0
1000
MTEXTEND
1000
MTEXTBEGIN
1070
    73
1070
     1
1070
    44
1040
1.0
1070
    74
1070
     0
1000
MTEXTEND
1000
MTEXTBEGIN
1070
    73
1070
     1
1070
    44
1040
1.0
1070
    74
1070
     0
1000
MTEXTEND
1000
MTEXTBEGIN
1070
    73
1070
     1
1070
    44
1040
1.0
1070
    74
1070
     0
1000
MTEXTEND
1000
MTEXTBEGIN
1070
    73
1070
     1
1070
    44
1040
1.0
1070
    74
1070
     0
1000
MTEXTEND
1000
MTEXTBEGIN
1070
    73
1070
     1
1070
    44
1040
1.0
1070
    74
1070
     0
1000
MTEXTEND
1000
MTEXTBEGIN
1070
    73
1070
     1
1070
    44
1040
1.0
1070
    74
1070
     0
1000
MTEXTEND
1000
MTEXTBEGIN
1070
    73
1070
     1
1070
    44
1040
1.0
1070
    74
1070
     0
1000
MTEXTEND
1000
MTEXTBEGIN
1070
    73
1070
     1
1070
    44
1040
1.0
1070
    74
1070
     0
1000
MTEXTEND
  0
TEXT
  5
2132
330
1F
100
AcDbEntity
  8
SUNPO
 62
     7
100
AcDbText
 10
1467.499999999999
 20
2770.714285714285
 30
0.0
 40
36.0
  1
90
 50
90.0
  7
ADD
100
AcDbText
1001
ACAD
1000
MTEXTBEGIN
1070
    73
1070
     1
1070
    44
1040
1.0
1070
    74
1070
     0
1000
MTEXTEND
1000
MTEXTBEGIN
1070
    73
1070
     1
1070
    44
1040
1.0
1070
    74
1070
     0
1000
MTEXTEND
1000
MTEXTBEGIN
1070
    73
1070
     1
1070
    44
1040
1.0
1070
    74
1070
     0
1000
MTEXTEND
1000
MTEXTBEGIN
1070
    73
1070
     1
1070
    44
1040
1.0
1070
    74
1070
     0
1000
MTEXTEND
1000
MTEXTBEGIN
1070
    73
1070
     1
1070
    44
1040
1.0
1070
    74
1070
     0
1000
MTEXTEND
1000
MTEXTBEGIN
1070
    73
1070
     1
1070
    44
1040
1.0
1070
    74
1070
     0
1000
MTEXTEND
1000
MTEXTBEGIN
1070
    73
1070
     1
1070
    44
1040
1.0
1070
    74
1070
     0
1000
MTEXTEND
1000
MTEXTBEGIN
1070
    73
1070
     1
1070
    44
1040
1.0
1070
    74
1070
     0
1000
MTEXTEND
1000
MTEXTBEGIN
1070
    73
1070
     1
1070
    44
1040
1.0
1070
    74
1070
     0
1000
MTEXTEND
1000
MTEXTBEGIN
1070
    73
1070
     1
1070
    44
1040
1.0
1070
    74
1070
     0
1000
MTEXTEND
1000
MTEXTBEGIN
1070
    73
1070
     1
1070
    44
1040
1.0
1070
    74
1070
     0
1000
MTEXTEND
1000
MTEXTBEGIN
1070
    73
1070
     1
1070
    44
1040
1.0
1070
    74
1070
     0
1000
MTEXTEND
1000
MTEXTBEGIN
1070
    73
1070
     1
1070
    44
1040
1.0
1070
    74
1070
     0
1000
MTEXTEND
  0
TEXT
  5
2133
330
1F
100
AcDbEntity
  8
SUNPO
 62
     7
100
AcDbText
 10
1230.714285714285
 20
2112.5
 30
0.0
 40
36.0
  1
70
  7
ADD
100
AcDbText
1001
ACAD
1000
MTEXTBEGIN
1070
    73
1070
     1
1070
    44
1040
1.0
1070
    74
1070
     0
1000
MTEXTEND
1000
MTEXTBEGIN
1070
    73
1070
     1
1070
    44
1040
1.0
1070
    74
1070
     0
1000
MTEXTEND
1000
MTEXTBEGIN
1070
    73
1070
     1
1070
    44
1040
1.0
1070
    74
1070
     0
1000
MTEXTEND
1000
MTEXTBEGIN
1070
    73
1070
     1
1070
    44
1040
1.0
1070
    74
1070
     0
1000
MTEXTEND
1000
MTEXTBEGIN
1070
    73
1070
     1
1070
    44
1040
1.0
1070
    74
1070
     0
1000
MTEXTEND
1000
MTEXTBEGIN
1070
    73
1070
     1
1070
    44
1040
1.0
1070
    74
1070
     0
1000
MTEXTEND
1000
MTEXTBEGIN
1070
    73
1070
     1
1070
    44
1040
1.0
1070
    74
1070
     0
1000
MTEXTEND
1000
MTEXTBEGIN
1070
    73
1070
     1
1070
    44
1040
1.0
1070
    74
1070
     0
1000
MTEXTEND
1000
MTEXTBEGIN
1070
    73
1070
     1
1070
    44
1040
1.0
1070
    74
1070
     0
1000
MTEXTEND
1000
MTEXTBEGIN
1070
    73
1070
     1
1070
    44
1040
1.0
1070
    74
1070
     0
1000
MTEXTEND
1000
MTEXTBEGIN
1070
    73
1070
     1
1070
    44
1040
1.0
1070
    74
1070
     0
1000
MTEXTEND
1000
MTEXTBEGIN
1070
    73
1070
     1
1070
    44
1040
1.0
1070
    74
1070
     0
1000
MTEXTEND
1000
MTEXTBEGIN
1070
    73
1070
     1
1070
    44
1040
1.0
1070
    74
1070
     0
1000
MTEXTEND
  0
TEXT
  5
2134
330
1F
100
AcDbEntity
  8
SUNPO
 62
     7
100
AcDbText
 10
1700.714285714285
 20
2112.5
 30
0.0
 40
36.0
  1
70
  7
ADD
100
AcDbText
1001
ACAD
1000
MTEXTBEGIN
1070
    73
1070
     1
1070
    44
1040
1.0
1070
    74
1070
     0
1000
MTEXTEND
1000
MTEXTBEGIN
1070
    73
1070
     1
1070
    44
1040
1.0
1070
    74
1070
     0
1000
MTEXTEND
1000
MTEXTBEGIN
1070
    73
1070
     1
1070
    44
1040
1.0
1070
    74
1070
     0
1000
MTEXTEND
1000
MTEXTBEGIN
1070
    73
1070
     1
1070
    44
1040
1.0
1070
    74
1070
     0
1000
MTEXTEND
1000
MTEXTBEGIN
1070
    73
1070
     1
1070
    44
1040
1.0
1070
    74
1070
     0
1000
MTEXTEND
1000
MTEXTBEGIN
1070
    73
1070
     1
1070
    44
1040
1.0
1070
    74
1070
     0
1000
MTEXTEND
1000
MTEXTBEGIN
1070
    73
1070
     1
1070
    44
1040
1.0
1070
    74
1070
     0
1000
MTEXTEND
1000
MTEXTBEGIN
1070
    73
1070
     1
1070
    44
1040
1.0
1070
    74
1070
     0
1000
MTEXTEND
1000
MTEXTBEGIN
1070
    73
1070
     1
1070
    44
1040
1.0
1070
    74
1070
     0
1000
MTEXTEND
1000
MTEXTBEGIN
1070
    73
1070
     1
1070
    44
1040
1.0
1070
    74
1070
     0
1000
MTEXTEND
1000
MTEXTBEGIN
1070
    73
1070
     1
1070
    44
1040
1.0
1070
    74
1070
     0
1000
MTEXTEND
1000
MTEXTBEGIN
1070
    73
1070
     1
1070
    44
1040
1.0
1070
    74
1070
     0
1000
MTEXTEND
1000
MTEXTBEGIN
1070
    73
1070
     1
1070
    44
1040
1.0
1070
    74
1070
     0
1000
MTEXTEND
  0
TEXT
  5
2135
330
1F
100
AcDbEntity
  8
SUNPO
 62
     7
100
AcDbText
 10
1448.571428571428
 20
2112.5
 30
0.0
 40
36.0
  1
400
  7
ADD
100
AcDbText
1001
ACAD
1000
MTEXTBEGIN
1070
    73
1070
     1
1070
    44
1040
1.0
1070
    74
1070
     0
1000
MTEXTEND
1000
MTEXTBEGIN
1070
    73
1070
     1
1070
    44
1040
1.0
1070
    74
1070
     0
1000
MTEXTEND
1000
MTEXTBEGIN
1070
    73
1070
     1
1070
    44
1040
1.0
1070
    74
1070
     0
1000
MTEXTEND
1000
MTEXTBEGIN
1070
    73
1070
     1
1070
    44
1040
1.0
1070
    74
1070
     0
1000
MTEXTEND
1000
MTEXTBEGIN
1070
    73
1070
     1
1070
    44
1040
1.0
1070
    74
1070
     0
1000
MTEXTEND
1000
MTEXTBEGIN
1070
    73
1070
     1
1070
    44
1040
1.0
1070
    74
1070
     0
1000
MTEXTEND
1000
MTEXTBEGIN
1070
    73
1070
     1
1070
    44
1040
1.0
1070
    74
1070
     0
1000
MTEXTEND
1000
MTEXTBEGIN
1070
    73
1070
     1
1070
    44
1040
1.0
1070
    74
1070
     0
1000
MTEXTEND
1000
MTEXTBEGIN
1070
    73
1070
     1
1070
    44
1040
1.0
1070
    74
1070
     0
1000
MTEXTEND
1000
MTEXTBEGIN
1070
    73
1070
     1
1070
    44
1040
1.0
1070
    74
1070
     0
1000
MTEXTEND
1000
MTEXTBEGIN
1070
    73
1070
     1
1070
    44
1040
1.0
1070
    74
1070
     0
1000
MTEXTEND
1000
MTEXTBEGIN
1070
    73
1070
     1
1070
    44
1040
1.0
1070
    74
1070
     0
1000
MTEXTEND
1000
MTEXTBEGIN
1070
    73
1070
     1
1070
    44
1040
1.0
1070
    74
1070
     0
1000
MTEXTEND
  0
LINE
  5
2136
330
1F
100
AcDbEntity
  8
SUNPO
100
AcDbLine
 10
1367.124264991113
 20
2867.635032772918
 30
0.0
 11
1295.443803539692
 21
2874.410831331852
 31
0.0
1001
ACAD
1000
DSTYLE
1002
{
1070
     5
1000

1070
    40
1040
20.0
1070
    41
1040
1.399999999999999
1070
    77
1070
     0
1070
   140
1040
1.8
1070
   141
1040
1.399999999999999
1070
   147
1040
0.625
1070
   342
1005
0
1002
}
  0
LINE
  5
2137
330
1F
100
AcDbEntity
  8
SUNPO
100
AcDbLine
 10
1632.875735008886
 20
2867.635032772918
 30
0.0
 11
1704.556196460308
 21
2874.410831331852
 31
0.0
210
0.0
220
0.0
230
-1.0
1001
ACAD
1000
DSTYLE
1002
{
1070
     5
1000

1070
    40
1040
20.0
1070
    41
1040
1.399999999999999
1070
    77
1070
     0
1070
   140
1040
1.8
1070
   141
1040
1.399999999999999
1070
   147
1040
0.625
1070
   342
1005
0
1002
}
  0
LINE
  5
2138
330
1F
100
AcDbEntity
  8
SUNPO
100
AcDbLine
 10
1788.289206135645
 20
2878.225172240273
 30
0.0
 11
1840.0
 21
2930.0
 31
0.0
1001
ACAD
1000
DSTYLE
1002
{
1070
     5
1000

1070
    40
1040
20.0
1070
    41
1040
1.399999999999999
1070
    77
1070
     0
1070
   140
1040
1.8
1070
   141
1040
1.399999999999999
1070
   147
1040
0.625
1070
   342
1005
0
1002
}
  0
LINE
  5
2139
330
1F
100
AcDbEntity
  8
SUNPO
100
AcDbLine
 10
1840.0
 20
2930.0
 30
0.0
 11
1920.0
 21
2930.0
 31
0.0
1001
ACAD
1000
DSTYLE
1002
{
1070
     5
1000

1070
    40
1040
20.0
1070
    41
1040
1.399999999999999
1070
    77
1070
     0
1070
   140
1040
1.8
1070
   141
1040
1.399999999999999
1070
   147
1040
0.625
1070
   342
1005
0
1002
}
  0
LINE
  5
213A
330
1F
100
AcDbEntity
  8
SUNPO
100
AcDbLine
 10
1776.439339988146
 20
2261.877163124017
 30
0.0
 11
1870.0
 21
2160.0
 31
0.0
1001
ACAD
1000
DSTYLE
1002
{
1070
     5
1000

1070
    40
1040
20.0
1070
    41
1040
1.399999999999999
1070
    77
1070
     0
1070
   140
1040
1.8
1070
   141
1040
1.399999999999999
1070
   147
1040
0.625
1070
   342
1005
0
1002
}
  0
LINE
  5
213B
330
1F
100
AcDbEntity
  8
SUNPO
100
AcDbLine
 10
1870.0
 20
2160.0
 30
0.0
 11
1990.0
 21
2160.0
 31
0.0
1001
ACAD
1000
DSTYLE
1002
{
1070
     5
1000

1070
    40
1040
20.0
1070
    41
1040
1.399999999999999
1070
    77
1070
     0
1070
   140
1040
1.8
1070
   141
1040
1.399999999999999
1070
   147
1040
0.625
1070
   342
1005
0
1002
}
  0
TEXT
  5
213C
330
1F
100
AcDbEntity
  8
SUNPO
 62
     7
100
AcDbText
 10
1183.021316293663
 20
2837.665930198832
 30
0.0
 40
36.0
  1
R70
 50
324.707547363146
  7
ADD
100
AcDbText
1001
ACAD
1000
MTEXTBEGIN
1070
    73
1070
     1
1070
    44
1040
1.0
1070
    74
1070
     0
1000
MTEXTEND
1000
MTEXTBEGIN
1070
    73
1070
     1
1070
    44
1040
1.0
1070
    74
1070
     0
1000
MTEXTEND
1000
MTEXTBEGIN
1070
    73
1070
     1
1070
    44
1040
1.0
1070
    74
1070
     0
1000
MTEXTEND
1000
MTEXTBEGIN
1070
    73
1070
     1
1070
    44
1040
1.0
1070
    74
1070
     0
1000
MTEXTEND
  0
TEXT
  5
213D
330
1F
100
AcDbEntity
  8
SUNPO
 62
     7
100
AcDbText
 10
3581.42857142857
 20
2012.5
 30
0.0
 40
36.0
  1
2000
  7
ADD
100
AcDbText
1001
ACAD
1000
MTEXTBEGIN
1070
    73
1070
     1
1070
    44
1040
1.0
1070
    74
1070
     0
1000
MTEXTEND
1000
MTEXTBEGIN
1070
    73
1070
     1
1070
    44
1040
1.0
1070
    74
1070
     0
1000
MTEXTEND
1000
MTEXTBEGIN
1070
    73
1070
     1
1070
    44
1040
1.0
1070
    74
1070
     0
1000
MTEXTEND
  0
VIEWPORT
  5
72
330
1B
100
AcDbEntity
 67
     1
  8
0
100
AcDbViewport
 10
645.8325449029127
 20
277.0
 30
0.0
 40
1380.967339805825
 41
628.4520000000001
 68
     2
 69
     1
1001
ACAD
1000
MVIEW
1002
{
1070
    16
1010
0.0
1020
0.0
1030
0.0
1010
0.0
1020
0.0
1030
1.0
1040
0.0
1040
628.4520000000001
1040
645.8325449029127
1040
277.0
1040
50.0
1040
0.0
1040
0.0
1070
     0
1070
   100
1070
     1
1070
     1
1070
     0
1070
     0
1070
     0
1070
     0
1040
0.0
1040
0.0
1040
0.0
1040
10.0
1040
10.0
1040
10.0
1040
10.0
1070
     0
1002
{
1002
}
1002
}
  0
VIEWPORT
  5
74
330
1B
100
AcDbEntity
 67
     1
  8
VIEWPORT
100
AcDbViewport
 10
414.3779638919211
 20
277.3177265058034
 30
0.0
 40
840.0353682728887
 41
567.2285469943826
 68
     1
 69
     2
1001
ACAD
1000
MVIEW
1002
{
1070
    16
1010
0.0
1020
0.0
1030
0.0
1010
0.0
1020
0.0
1030
1.0
1040
0.0
1040
579.5583043546323
1040
424.4938908624541
1040
286.1973242720074
1040
50.0
1040
0.0
1040
0.0
1070
     0
1070
   100
1070
     1
1070
     1
1070
     0
1070
     0
1070
     0
1070
     0
1040
0.0
1040
0.0
1040
0.0
1040
10.0
1040
10.0
1040
10.0
1040
10.0
1070
     0
1002
{
1002
}
1002
}
  0
ENDSEC
  0
SECTION
  2
OBJECTS
  0
DICTIONARY
  5
C
330
0
100
AcDbDictionary
  3
ACAD_GROUP
350
D
  3
ACAD_LAYOUT
350
1A
  3
ACAD_MLINESTYLE
350
17
  3
ACAD_PLOTSETTINGS
350
19
  3
ACADDIM
350
1390
  3
DWGPROPS
350
4C7
1001
ACAD
1000
TREAT_AS_HARD
1070
     0
  0
DICTIONARY
  5
1873
330
1F
100
AcDbDictionary
  3
ACAD_LAYOUTSELFREF
350
2140
1001
ACAD
1000
TREAT_AS_HARD
1070
     1
  0
DICTIONARY
  5
1875
330
1B
100
AcDbDictionary
  3
ACAD_LAYOUTSELFREF
350
213F
1001
ACAD
1000
TREAT_AS_HARD
1070
     1
  0
DICTIONARY
  5
D
102
{ACAD_REACTORS
330
C
102
}
330
C
100
AcDbDictionary
1001
ACAD
1000
TREAT_AS_HARD
1070
     0
  0
DICTIONARY
  5
1A
102
{ACAD_REACTORS
330
C
102
}
330
C
100
AcDbDictionary
1001
ACAD
1000
TREAT_AS_HARD
1070
     0
  0
DICTIONARY
  5
17
102
{ACAD_REACTORS
330
C
102
}
330
C
100
AcDbDictionary
  3
STANDARD
350
18
1001
ACAD
1000
TREAT_AS_HARD
1070
     0
  0
DICTIONARY
  5
19
102
{ACAD_REACTORS
330
C
102
}
330
C
100
AcDbDictionary
1001
ACAD
1000
TREAT_AS_HARD
1070
     0
  0
XRECORD
  5
1390
102
{ACAD_REACTORS
330
C
102
}
330
C
100
AcDbXrecord
 90
   990106
  3

 60
     0
 61
     0
 62
     1
 63
     3
 64
     0
 65
     0
 66
     0
 67
     3
 68
     1
 69
     0
 70
     0
 71
     0
 72
     0
 40
0.0
170
     0
  0
XRECORD
  5
4C7
102
{ACAD_REACTORS
330
C
102
}
330
C
100
AcDbXrecord
  1
DWGPROPS COOKIE
  2
印刷用テスト
  3
AutoCAD2000による建築設計
  4
鈴木 裕二
  6

  7

  8
U2
  9

300
=
301
=
302
=
303
=
304
=
305
=
306
=
307
=
308
=
309
=
 40
0.7653446875
 41
2451285.4846114
 42
2451333.689743032
  1

 90
        0
  0
XRECORD
  5
2140
102
{ACAD_REACTORS
330
1873
102
}
330
1873
100
AcDbXrecord
340
1F
  0
XRECORD
  5
213F
102
{ACAD_REACTORS
330
1875
102
}
330
1875
100
AcDbXrecord
340
1B
  0
MLINESTYLE
  5
18
102
{ACAD_REACTORS
330
17
102
}
330
17
100
AcDbMlineStyle
  2
STANDARD
 70
     0
  3

 62
   256
 51
90.0
 52
90.0
 71
     2
 49
0.5
 62
   256
  6
BYLAYER
 49
-0.5
 62
   256
  6
BYLAYER
  0
ENDSEC
  0
EOF
