  0
SECTION
  2
HEADER
  9
$ACADVER
  1
AC1009
  9
$INSBASE
 10
0
 20
0
 30
0
  9
$EXTMIN
 10
0
 20
0
  9
$EXTMAX
 10
5940
 20
4200
  9
$LIMMIN
 10
0
 20
0
  9
$LIMMAX
 10
5940
 20
4200
  9
$LTSCALE
 40
20
  0
ENDSEC
  0
SECTION
  2
TABLES
  0
TABLE
  2
LTYPE
 70
     9
  0
LTYPE
  2
CONTINUOUS
 70
    64
  3
実線
 72
    65
 73
     0
 40
0.0
  0
LTYPE
  2
DASHED1
 70
    64
  3
--  --  --  --  --  --  --  --  
 72
    65
 73
     2
 40
2.5
 49
1.25
 49
-1.25
  0
LTYPE
  2
DASHED2
 70
    64
  3
----    ----    ----    ----    
 72
    65
 73
     2
 40
5.0
 49
2.5
 49
-2.5
  0
LTYPE
  2
DASHED3
 70
    64
  3
------  ------  ------  ------  
 72
    65
 73
     2
 40
5.0
 49
3.75
 49
-1.25
  0
LTYPE
  2
CENTER1
 70
    64
  3
----- - ----- - ----- - ----- - 
 72
    65
 73
     4
 40
10.0
 49
6.25
 49
-1.25
 49
1.25
 49
-1.25
  0
LTYPE
  2
CENTER2
 70
    64
  3
----------  --  ----------  --  
 72
    65
 73
     4
 40
20.0
 49
12.5
 49
-2.5
 49
2.5
 49
-2.5
  0
LTYPE
  2
PHANTOM1
 70
    64
  3
--- - - --- - - --- - - --- - - 
 72
    65
 73
     6
 40
10.0
 49
3.25
 49
-1.25
 49
1.25
 49
-1.25
 49
1.25
 49
-1.25
  0
LTYPE
  2
PHANTOM2
 70
    64
  3
--------  -  -  --------  -  -  
 72
    65
 73
     6
 40
20.0
 49
10.0
 49
-2.5
 49
1.25
 49
-2.5
 49
1.25
 49
-2.5
  0
LTYPE
  2
DOT
 70
    64
  3
-   -   -   -   -   -   -   -   
 72
    65
 73
     2
 40
2.5
 49
0.625
 49
-1.875
  0
LTYPE
  2
DUMMY
 70
    64
  3
ダミー
 72
    65
 73
     0
 40
0.0
  0
LTYPE
  2
RAND1
 70
    64
  3
ランダム線1
 72
    65
 73
     4
 40
10.0
 49
1.0
 49
-2.0
 49
3.0
 49
-4.0
  0
LTYPE
  2
RAND2
 70
    64
  3
ランダム線2
 72
    65
 73
     4
 40
14.0
 49
2.0
 49
-3.0
 49
4.0
 49
-5.0
  0
LTYPE
  2
RAND3
 70
    64
  3
ランダム線3
 72
    65
 73
     4
 40
18.0
 49
3.0
 49
-4.0
 49
5.0
 49
-6.0
  0
LTYPE
  2
RAND4
 70
    64
  3
ランダム線4
 72
    65
 73
     4
 40
22.0
 49
4.0
 49
-5.0
 49
6.0
 49
-7.0
  0
LTYPE
  2
RAND5
 70
    64
  3
ランダム線5
 72
    65
 73
     4
 40
26.0
 49
5.0
 49
-6.0
 49
7.0
 49
-8.0
  0
LTYPE
  2
LONG1
 70
    64
  3
----------  --  ----------  --  
 72
    65
 73
     4
 40
40.0
 49
32.5
 49
-2.5
 49
2.5
 49
-2.5
  0
LTYPE
  2
LONG2
 70
    64
  3
--------  -  -  --------  -  -  
 72
    65
 73
     6
 40
40.0
 49
30.0
 49
-2.5
 49
1.25
 49
-2.5
 49
1.25
 49
-2.5
  0
LTYPE
  2
LONG3
 70
    64
  3
+++++++++++++++..+++++++++++++++
 72
    65
 73
     2
 40
40.0
 49
37.5
 49
-2.5
  0
LTYPE
  2
LONG4
 70
    64
  3
+++++++++++++++..+++++++++++++++
 72
    65
 73
     2
 40
80.0
 49
75.0
 49
-5.0
  0
LTYPE
  2
LONG5
 70
    64
  3
----------  --  ----------  --  
 72
    65
 73
     4
 40
60.0
 49
37.5
 49
-7.5
 49
7.5
 49
-7.5
  0
LTYPE
  2
dashed
 70
   64
  3
-------   -------------   ------
 72
   65
 73
    2
 40
7.5
 49
6
 49
-1.5
  0
LTYPE
  2
dashed_spaced
 70
   64
  3
----        --------        ----
 72
   65
 73
    2
 40
12
 49
6
 49
-6
  0
LTYPE
  2
long_dashed_dotted
 70
   64
  3
------------- --- --------------
 72
   65
 73
    4
 40
15.25
 49
12
 49
-1.5
 49
0.25
 49
-1.5
  0
LTYPE
  2
long_dashed_double-dotted
 70
   64
  3
----------- --- --- ------------
 72
   65
 73
    6
 40
17
 49
12
 49
-1.5
 49
0.25
 49
-1.5
 49
0.25
 49
-1.5
  0
LTYPE
  2
long_dashed_triplicate-dotted
 70
   64
  3
--------- --- --- --- ----------
 72
   65
 73
    8
 40
18.75
 49
12
 49
-1.5
 49
0.25
 49
-1.5
 49
0.25
 49
-1.5
 49
0.25
 49
-1.5
  0
LTYPE
  2
dotted
 70
   64
  3
   -       -       -       -    
 72
   65
 73
    2
 40
1.75
 49
0.25
 49
-1.5
  0
LTYPE
  2
chain
 70
   64
  3
-------------- -- --------------
 72
   65
 73
    4
 40
18.5
 49
12
 49
-1.5
 49
3.5
 49
-1.5
  0
LTYPE
  2
chain_double_dash
 70
   64
  3
------------ -- -- -------------
 72
   65
 73
    6
 40
23.5
 49
12
 49
-1.5
 49
3.5
 49
-1.5
 49
3.5
 49
-1.5
  0
LTYPE
  2
dashed_dotted
 70
   64
  3
-----------     -     ----------
 72
   65
 73
    4
 40
9.25
 49
6
 49
-1.5
 49
0.25
 49
-1.5
  0
LTYPE
  2
double-dashed_dotted
 70
   64
  3
------   -----------   -   -----
 72
   65
 73
    6
 40
16.75
 49
6
 49
-1.5
 49
6
 49
-1.5
 49
0.25
 49
-1.5
  0
LTYPE
  2
dashed_double-dotted
 70
   64
  3
---------    -    -    ---------
 72
   65
 73
    6
 40
11
 49
6
 49
-1.5
 49
0.25
 49
-1.5
 49
0.25
 49
-1.5
  0
LTYPE
  2
double-dashed_double-dotted
 70
   64
  3
-----   ---------   -   -   ----
 72
   65
 73
    8
 40
18.5
 49
6
 49
-1.5
 49
6
 49
-1.5
 49
0.25
 49
-1.5
 49
0.25
 49
-1.5
  0
LTYPE
  2
dashed_triplicate-dotted
 70
   64
  3
-------    -    -    -    ------
 72
   65
 73
    8
 40
12.75
 49
6
 49
-1.5
 49
0.25
 49
-1.5
 49
0.25
 49
-1.5
 49
0.25
 49
-1.5
  0
LTYPE
  2
double-dashed_triplicate-dotted
 70
   64
  3
-----  ---------  -  -  -  -----
 72
   65
 73
   10
 40
20.25
 49
6
 49
-1.5
 49
6
 49
-1.5
 49
0.25
 49
-1.5
 49
0.25
 49
-1.5
 49
0.25
 49
-1.5
  0
LTYPE
  2
undefined
 70
   64
  3
--------------------------------
 72
   65
 73
    0
 40
0
  0
ENDTAB
  0
TABLE
  2
STYLE
  5
3
100
AcDbSymbolTable
 70
     1
  0
STYLE
  5
10
100
AcDbSymbolTableRecord
100
AcDbTextStyleTableRecord
  2
STANDARD
 70
     0
 40
0.0
 41
1.0
 50
0.0
 71
     0
 42
0.2
  3
txt
  4
bigfont.shx
  0
STYLE
  5
26
100
AcDbSymbolTableRecord
100
AcDbTextStyleTableRecord
  2
TATEGAKI
 70
    68
 40
0.0
 41
1.0
 50
0.0
 71
     0
 42
1.0
  3
txt
  4
bigfont.shx
  0
ENDTAB
  0
TABLE
  2
LAYER
 70
    5
  0
LAYER
  2
_0-5_2C1
 70
   64
 62
    7
  6
CONTINUOUS
  0
LAYER
  2
_0-a_3C1
 70
   64
 62
    7
  6
CONTINUOUS
  0
LAYER
  2
_1-2_HOJO
 70
   64
 62
    7
  6
CONTINUOUS
  0
LAYER
  2
_1-5_SUNPO
 70
   64
 62
    7
  6
CONTINUOUS
  0
LAYER
  2
ADD_LINE
 70
   64
 62
    7
  6
CONTINUOUS
  0
ENDTAB
  0
ENDSEC
  0
SECTION
  2
BLOCKS
  0
ENDSEC
  0
SECTION
  2
ENTITIES
  0
LINE
  8
_0-a_3C1
  6
CONTINUOUS
 62
    7
 10
360.00000662785226
 20
560.00001517041767
 11
5580.0002120912759
 21
560.00001517041767
  0
LINE
  8
_0-a_3C1
  6
CONTINUOUS
 62
    7
 10
360.00000662785226
 20
260.00000235656984
 11
360.00000662785226
 21
560.00001517041767
  0
LINE
  8
_0-a_3C1
  6
CONTINUOUS
 62
    7
 10
2360.0000483096796
 20
260.00000235656984
 11
2360.0000483096796
 21
560.00001517041767
  0
LINE
  8
_0-a_3C1
  6
CONTINUOUS
 62
    7
 10
3160.0000824799408
 20
260.00000235656984
 11
3160.0000824799408
 21
560.00001517041767
  0
LINE
  8
_0-a_3C1
  6
CONTINUOUS
 62
    7
 10
3660.0000600925277
 20
260.00000235656984
 11
3660.0000600925277
 21
560.00001517041767
  0
LINE
  8
_0-a_3C1
  6
CONTINUOUS
 62
    7
 10
1408.6250299284357
 20
2900.0000801233709
 11
1591.3750107223923
 21
2900.0000801233709
  0
LINE
  8
_0-a_3C1
  6
CONTINUOUS
 62
    7
 10
2650.000091317077
 20
2900.0000801233709
 11
2713.9803358394665
 21
2893.6021081637227
  0
LINE
  8
_0-a_3C1
  6
CONTINUOUS
 62
    7
 10
2750.000051844534
 20
2853.8006509316933
 11
2750.000051844534
 21
2850.000012371991
  0
LINE
  8
_0-a_3C1
  6
CONTINUOUS
 62
    7
 10
4550.0000412399704
 20
2853.8006509316933
 11
4550.0000412399704
 21
2850.000012371991
  0
LINE
  8
_0-a_3C1
  6
CONTINUOUS
 62
    7
 10
2650.000091317077
 20
1657.5001025107836
 11
4650.0001767427302
 21
1657.5001025107836
  0
LINE
  8
_0-a_3C1
  6
CONTINUOUS
 62
    7
 10
2650.000091317077
 20
1502.499979969157
 11
4650.0001767427302
 21
1502.499979969157
  0
LINE
  8
_0-a_3C1
  6
DASHED1
 62
    7
 10
2650.000091317077
 20
1680.0000017674274
 11
2750.000051844534
 21
1680.0000017674274
  0
LINE
  8
_0-a_3C1
  6
DASHED1
 62
    7
 10
2650.000091317077
 20
1480.0000807125136
 11
2750.000051844534
 21
1480.0000807125136
  0
LINE
  8
_0-a_3C1
  6
DASHED1
 62
    7
 10
2750.000051844534
 20
1680.0000017674274
 11
2750.000051844534
 21
1480.0000807125136
  0
LINE
  8
_0-a_3C1
  6
CONTINUOUS
 62
    7
 10
2650.000091317077
 20
1676.0000663374381
 11
4650.0001767427302
 21
1676.0000663374381
  0
LINE
  8
_0-a_3C1
  6
CONTINUOUS
 62
    7
 10
2650.000091317077
 20
1484.0000161425028
 11
4650.0001767427302
 21
1484.0000161425028
  0
LINE
  8
_0-a_3C1
  6
DASHED1
 62
    7
 10
2650.000091317077
 20
2850.000012371991
 11
4650.0001767427302
 21
2850.000012371991
  0
LINE
  8
_0-5_2C1
  6
CONTINUOUS
 62
    7
 10
2650.000091317077
 20
1664.4999895132646
 11
4650.0001767427302
 21
1664.4999895132646
  0
LINE
  8
_0-5_2C1
  6
CONTINUOUS
 62
    7
 10
2650.000091317077
 20
1650.5000405329995
 11
4650.0001767427302
 21
1650.5000405329995
  0
LINE
  8
_0-a_3C1
  6
CONTINUOUS
 62
    7
 10
2650.000091317077
 20
1509.5000419469411
 11
4650.0001767427302
 21
1509.5000419469411
  0
LINE
  8
_0-5_2C1
  6
CONTINUOUS
 62
    7
 10
2650.000091317077
 20
1509.5000419469411
 11
4650.0001767427302
 21
1509.5000419469411
  0
LINE
  8
_0-5_2C1
  6
CONTINUOUS
 62
    7
 10
2650.000091317077
 20
1495.5000929666762
 11
4650.0001767427302
 21
1495.5000929666762
  0
LINE
  8
_0-a_3C1
  6
CONTINUOUS
 62
    7
 10
1403.9999952279461
 20
2850.000012371991
 11
1307.9945458960808
 21
2855.8186411029124
  0
LINE
  8
_0-a_3C1
  6
CONTINUOUS
 62
    7
 10
1305.0000185579868
 20
2853.000138919786
 11
1305.0000185579868
 21
2756.0001299648211
  0
LINE
  8
_0-a_3C1
  6
CONTINUOUS
 62
    7
 10
1595.99995793523
 20
2850.000012371991
 11
1692.0055822423983
 21
2855.8186411029124
  0
LINE
  8
_0-a_3C1
  6
CONTINUOUS
 62
    7
 10
1695.0001095804928
 20
2853.000138919786
 11
1695.0001095804928
 21
2756.0001299648211
  0
LINE
  8
_0-a_3C1
  6
CONTINUOUS
 62
    7
 10
1695.0001095804928
 20
2756.0001299648211
 11
1305.0000185579868
 21
2756.0001299648211
  0
LINE
  8
_0-a_3C1
  6
CONTINUOUS
 62
    7
 10
4650.0001767427302
 20
2756.0001299648211
 11
2650.000091317077
 21
2756.0001299648211
  0
LINE
  8
_0-a_3C1
  6
CONTINUOUS
 62
    7
 10
4650.0001767427302
 20
2856.0000904922776
 11
2650.000091317077
 21
2856.0000904922776
  0
LINE
  8
_0-a_3C1
  6
CONTINUOUS
 62
    7
 10
2650.000091317077
 20
2856.0000904922776
 11
2650.000091317077
 21
2756.0001299648211
  0
LINE
  8
_0-a_3C1
  6
CONTINUOUS
 62
    7
 10
2650.000091317077
 20
1775.0000430073976
 11
4650.0001767427302
 21
1775.0000430073976
  0
LINE
  8
_0-a_3C1
  6
CONTINUOUS
 62
    7
 10
2650.000091317077
 20
1385.000039472543
 11
4650.0001767427302
 21
1385.000039472543
  0
LINE
  8
_0-a_3C1
  6
CONTINUOUS
 62
    7
 10
4650.0001767427302
 20
1775.0000430073976
 11
4650.0001767427302
 21
1385.000039472543
  0
LINE
  8
_0-a_3C1
  6
CONTINUOUS
 62
    7
 10
2650.000091317077
 20
1775.0000430073976
 11
2650.000091317077
 21
1385.000039472543
  0
LINE
  8
_0-a_3C1
  6
CONTINUOUS
 62
    7
 10
4650.0001767427302
 20
2857.3192293027196
 11
4650.0001767427302
 21
2756.0001299648211
  0
LINE
  8
_0-a_3C1
  6
CONTINUOUS
 62
    7
 10
4050.0000636273826
 20
1676.0000663374381
 11
4050.0000636273826
 21
1484.0000161425028
  0
LINE
  8
_0-a_3C1
  6
DASHED1
 62
    7
 10
1425.0104172165329
 20
2880.000053022819
 11
1574.989623434295
 21
2880.000053022819
  0
LINE
  8
_0-a_3C1
  6
CONTINUOUS
 62
    7
 10
1692.0055822423983
 20
2855.8186411029124
 11
1695.0001095804928
 21
2853.000138919786
  0
LINE
  8
_0-a_3C1
  6
CONTINUOUS
 62
    7
 10
1305.0000185579868
 20
2853.000138919786
 11
1307.9945458960808
 21
2855.8186411029124
  0
LINE
  8
_0-a_3C1
  6
CONTINUOUS
 62
    7
 10
1307.9945458960808
 20
2855.8186411029124
 11
1403.9999952279461
 21
2850.000012371991
  0
LINE
  8
_0-a_3C1
  6
CONTINUOUS
 62
    7
 10
1394.018354084501
 20
2850.6050769702806
 11
1403.0790127198206
 21
2840.04251782038
  0
LINE
  8
_0-a_3C1
  6
CONTINUOUS
 62
    7
 10
1605.9817740539784
 20
2850.6050769702806
 11
1596.9210279310071
 21
2840.04251782038
  0
LINE
  8
_0-a_3C1
  6
CONTINUOUS
 62
    7
 10
1396.7329209375564
 20
2847.4404736375254
 11
1305.0000185579868
 21
2853.000138919786
  0
LINE
  8
_0-a_3C1
  6
CONTINUOUS
 62
    7
 10
1603.2621329171318
 20
2847.4346994525217
 11
1695.0001095804928
 21
2852.9943647347818
  0
LINE
  8
_0-a_3C1
  6
CONTINUOUS
 62
    7
 10
4650.0001767427302
 20
2853.000138919786
 11
2650.000091317077
 21
2853.000138919786
  0
LINE
  8
_1-5_SUNPO
  6
CONTINUOUS
 62
    7
 10
2650.000091317077
 20
1795.0000701079498
 11
2650.000091317077
 21
1960.000031224549
  0
LINE
  8
_1-5_SUNPO
  6
CONTINUOUS
 62
    7
 10
4650.0001767427302
 20
1795.0000701079498
 11
4650.0001767427302
 21
1960.000031224549
  0
LINE
  8
_1-5_SUNPO
  6
CONTINUOUS
 62
    7
 10
2677.9999892776073
 20
1950.0000176742728
 11
4622.0002787821995
 21
1950.0000176742728
  0
LINE
  8
_1-5_SUNPO
  6
CONTINUOUS
 62
    7
 10
1715.1103711220287
 20
2856.0000904922776
 11
1860.000070697092
 21
2856.0000904922776
  0
LINE
  8
_1-5_SUNPO
  6
CONTINUOUS
 62
    7
 10
1714.9999617057415
 20
2756.0001299648211
 11
1860.000070697092
 21
2756.0001299648211
  0
LINE
  8
_1-5_SUNPO
  6
CONTINUOUS
 62
    7
 10
1850.0000571468161
 20
2883.9999884528083
 11
1850.0000571468161
 21
2912.0000613886414
  0
LINE
  8
_1-5_SUNPO
  6
CONTINUOUS
 62
    7
 10
1850.0000571468161
 20
2728.0000570289876
 11
1850.0000571468161
 21
2699.9999840931541
  0
LINE
  8
_1-5_SUNPO
  6
CONTINUOUS
 62
    7
 10
1850.0000571468161
 20
2856.0000904922776
 11
1850.0000571468161
 21
2756.0001299648211
  0
LINE
  8
_1-5_SUNPO
  6
CONTINUOUS
 62
    7
 10
1714.9999617057415
 20
2756.0001299648211
 11
1960.000031224549
 21
2756.0001299648211
  0
LINE
  8
_1-5_SUNPO
  6
CONTINUOUS
 62
    7
 10
1576.0001058099811
 20
2850.000012371991
 11
1470.0000671622374
 21
2850.000012371991
  0
LINE
  8
_1-5_SUNPO
  6
CONTINUOUS
 62
    7
 10
1480.0000807125136
 20
2756.0001299648211
 11
1470.0000671622374
 21
2756.0001299648211
  0
LINE
  8
_1-5_SUNPO
  6
CONTINUOUS
 62
    7
 10
1480.0000807125136
 20
2822.0001144114603
 11
1480.0000807125136
 21
2784.0000279253513
  0
LINE
  8
_1-5_SUNPO
  6
CONTINUOUS
 62
    7
 10
4780.8281610555168
 20
2982.1215891009592
 11
4665.821793604081
 21
2892.8770105074727
  0
LINE
  8
_1-5_SUNPO
  6
CONTINUOUS
 62
    7
 10
4619.9999611165995
 20
2857.3192293027196
 11
4643.7014157799676
 21
2875.7110583920276
  0
LINE
  8
_1-5_SUNPO
  6
CONTINUOUS
 62
    7
 10
4670.0002038432822
 20
2880.000053022819
 11
4810.0000435965394
 21
2880.000053022819
  0
LINE
  8
_1-5_SUNPO
  6
CONTINUOUS
 62
    7
 10
4670.0002038432822
 20
2756.0001299648211
 11
4810.0000435965394
 21
2756.0001299648211
  0
LINE
  8
_1-5_SUNPO
  6
CONTINUOUS
 62
    7
 10
4800.0002050215671
 20
2851.9999800869855
 11
4800.0002050215671
 21
2784.0000279253513
  0
LINE
  8
_1-5_SUNPO
  6
CONTINUOUS
 62
    7
 10
4650.0001767427302
 20
2900.0000801233709
 11
4650.0001767427302
 21
3260.0002179827011
  0
LINE
  8
_1-5_SUNPO
  6
CONTINUOUS
 62
    7
 10
2650.000091317077
 20
3070.0001355027598
 11
2650.000091317077
 21
3260.0002179827011
  0
LINE
  8
_1-5_SUNPO
  6
CONTINUOUS
 62
    7
 10
4622.0002787821995
 20
3250.0000294571214
 11
2677.9999892776073
 21
3250.0000294571214
  0
LINE
  8
_1-5_SUNPO
  6
CONTINUOUS
 62
    7
 10
4050.0000636273826
 20
3070.0001355027598
 11
4050.0000636273826
 21
3160.0000824799408
  0
LINE
  8
_1-5_SUNPO
  6
CONTINUOUS
 62
    7
 10
4650.0001767427302
 20
2900.0000801233709
 11
4650.0001767427302
 21
3160.0000824799408
  0
LINE
  8
_1-5_SUNPO
  6
CONTINUOUS
 62
    7
 10
4077.9999615879133
 20
3150.0002439049676
 11
4622.0002787821995
 21
3150.0002439049676
  0
LINE
  8
_1-5_SUNPO
  6
CONTINUOUS
 62
    7
 10
1305.0000185579868
 20
2736.0001028642687
 11
1305.0000185579868
 21
2540.0001172393445
  0
LINE
  8
_1-5_SUNPO
  6
CONTINUOUS
 62
    7
 10
1695.0001095804928
 20
2736.0001028642687
 11
1695.0001095804928
 21
2540.0001172393445
  0
LINE
  8
_1-5_SUNPO
  6
CONTINUOUS
 62
    7
 10
1333.0000040061686
 20
2550.0001307896205
 11
1667.0000366446593
 21
2550.0001307896205
  0
LINE
  8
_1-5_SUNPO
  6
CONTINUOUS
 62
    7
 10
1403.9999952279461
 20
2829.9999852714386
 11
1403.9999952279461
 21
2640.0000777668015
  0
LINE
  8
_1-5_SUNPO
  6
CONTINUOUS
 62
    7
 10
1595.99995793523
 20
2829.9999852714386
 11
1595.99995793523
 21
2640.0000777668015
  0
LINE
  8
_1-5_SUNPO
  6
CONTINUOUS
 62
    7
 10
1432.0000681637796
 20
2650.000091317077
 11
1568.0000599746998
 21
2650.000091317077
  0
LINE
  8
_0-a_3C1
  6
CONTINUOUS
 62
    7
 10
2650.000091317077
 20
2739.0000544367608
 11
2650.000091317077
 21
2590.0000100154211
  0
LINE
  8
_0-a_3C1
  6
CONTINUOUS
 62
    7
 10
2750.000051844534
 20
2739.0000544367608
 11
2750.000051844534
 21
2590.0000100154211
  0
LINE
  8
_0-a_3C1
  6
CONTINUOUS
 62
    7
 10
2622.0000183812435
 20
2600.0000235656971
 11
2594.0001204207138
 21
2600.0000235656971
  0
LINE
  8
_0-a_3C1
  6
CONTINUOUS
 62
    7
 10
2778.0001247803675
 20
2600.0000235656971
 11
2806.0000227408977
 21
2600.0000235656971
  0
LINE
  8
_0-a_3C1
  6
CONTINUOUS
 62
    7
 10
2650.000091317077
 20
2600.0000235656971
 11
2750.000051844534
 21
2600.0000235656971
  0
LINE
  8
_1-5_SUNPO
  6
CONTINUOUS
 62
    7
 10
1480.0000807125136
 20
2850.000012371991
 11
1470.0000671622374
 21
2850.000012371991
  0
LINE
  8
_1-5_SUNPO
  6
CONTINUOUS
 62
    7
 10
2864.126118545827
 20
3008.9813479861696
 11
2757.9190841144577
 21
2902.0474661455187
  0
LINE
  8
_1-5_SUNPO
  6
CONTINUOUS
 62
    7
 10
2709.9999976434301
 20
2853.8006509316933
 11
2738.1878190795424
 21
2882.1812951518764
  0
LINE
  8
_1-5_SUNPO
  6
CONTINUOUS
 62
    7
 10
2770.000078945086
 20
2890.000066573095
 11
2910.0000936736469
 21
2890.000066573095
  0
LINE
  8
_1-5_SUNPO
  6
CONTINUOUS
 62
    7
 10
2770.000078945086
 20
2850.000012371991
 11
2910.0000936736469
 21
2850.000012371991
  0
LINE
  8
_1-5_SUNPO
  6
CONTINUOUS
 62
    7
 10
2900.0000801233709
 20
2918.0001395089284
 11
2900.0000801233709
 21
2946.0000374694582
  0
LINE
  8
_1-5_SUNPO
  6
CONTINUOUS
 62
    7
 10
2900.0000801233709
 20
2822.0001144114603
 11
2900.0000801233709
 21
2794.0000414756269
  0
LINE
  8
_1-5_SUNPO
  6
CONTINUOUS
 62
    7
 10
2900.0000801233709
 20
2890.000066573095
 11
2900.0000801233709
 21
2850.000012371991
  0
LINE
  8
_1-5_SUNPO
  6
CONTINUOUS
 62
    7
 10
2630.0000642165251
 20
2900.0000801233709
 11
2540.0001172393445
 21
2900.0000801233709
  0
LINE
  8
_1-5_SUNPO
  6
CONTINUOUS
 62
    7
 10
2630.0000642165251
 20
2850.000012371991
 11
2540.0001172393445
 21
2850.000012371991
  0
LINE
  8
_1-5_SUNPO
  6
CONTINUOUS
 62
    7
 10
2550.0001307896205
 20
2928.0001530592044
 11
2550.0001307896205
 21
2956.0002259950379
  0
LINE
  8
_1-5_SUNPO
  6
CONTINUOUS
 62
    7
 10
2550.0001307896205
 20
2822.0001144114603
 11
2550.0001307896205
 21
2794.0000414756269
  0
LINE
  8
_1-5_SUNPO
  6
CONTINUOUS
 62
    7
 10
2550.0001307896205
 20
2900.0000801233709
 11
2550.0001307896205
 21
2850.000012371991
  0
LINE
  8
_0-a_3C1
  6
CONTINUOUS
 62
    7
 10
360.00000662785226
 20
260.00000235656984
 11
5580.0002120912759
 21
260.00000235656984
  0
LINE
  8
_0-a_3C1
  6
CONTINUOUS
 62
    7
 10
5580.0002120912759
 20
260.00000235656984
 11
5580.0002120912759
 21
3940.0000895496496
  0
LINE
  8
_0-a_3C1
  6
CONTINUOUS
 62
    7
 10
5580.0002120912759
 20
3940.0000895496496
 11
360.00000662785226
 21
3940.0000895496496
  0
LINE
  8
_0-a_3C1
  6
CONTINUOUS
 62
    7
 10
360.00000662785226
 20
3940.0000895496496
 11
360.00000662785226
 21
260.00000235656984
  0
LINE
  8
_1-2_HOJO
  6
CONTINUOUS
 62
    5
 10
0
 20
0
 11
5940
 21
0
  0
LINE
  8
_1-2_HOJO
  6
CONTINUOUS
 62
    5
 10
5940
 20
0
 11
5940
 21
4200.0000919062195
  0
LINE
  8
_1-2_HOJO
  6
CONTINUOUS
 62
    5
 10
5940
 20
4200.0000919062195
 11
0
 21
4200.0000919062195
  0
LINE
  8
_1-2_HOJO
  6
CONTINUOUS
 62
    5
 10
0
 20
4200.0000919062195
 11
0
 21
0
  0
LINE
  8
_1-5_SUNPO
  6
CONTINUOUS
 62
    7
 10
1367.1243000398729
 20
2867.6350732751789
 11
1295.4439173517999
 21
2874.4109918896293
  0
LINE
  8
_1-5_SUNPO
  6
CONTINUOUS
 62
    7
 10
1632.8758280986062
 20
2867.6350732751789
 11
1704.5562107866795
 21
2874.4109918896293
  0
LINE
  8
_1-5_SUNPO
  6
CONTINUOUS
 62
    7
 10
1713.40576171875
 20
2874.1039102326026
 11
1779.999962294884
 21
2940.0001343244749
  0
LINE
  8
_1-5_SUNPO
  6
CONTINUOUS
 62
    7
 10
1779.999962294884
 20
2940.0001343244749
 11
1860.000070697092
 21
2940.0001343244749
  0
LINE
  8
_0-a_3C1
  6
CONTINUOUS
 62
    7
 10
1415.3557174270215
 20
2972.7632099873308
 11
1395.3051224638598
 21
2756.0001299648211
  0
LINE
  8
_0-a_3C1
  6
CONTINUOUS
 62
    7
 10
1445.228201081854
 20
3000.0002156261307
 11
1500.0001078130654
 21
3000.0002156261307
  0
LINE
  8
_0-a_3C1
  6
CONTINUOUS
 62
    7
 10
1554.7719270566254
 20
3000.0002156261307
 11
1500.0001078130654
 21
3000.0002156261307
  0
LINE
  8
_0-a_3C1
  6
CONTINUOUS
 62
    7
 10
1584.6444107114578
 20
2972.7632099873308
 11
1604.6950056746198
 21
2756.0001299648211
  0
LINE
  8
_1-5_SUNPO
  6
CONTINUOUS
 62
    7
 10
1597.5000212091277
 20
3000.0002156261307
 11
1960.000031224549
 21
3000.0002156261307
  0
LINE
  8
_1-5_SUNPO
  6
CONTINUOUS
 62
    7
 10
1710.3975863070102
 20
3103.7213759256606
 11
1594.6794193223636
 21
3007.1602050309934
  0
LINE
  8
_1-5_SUNPO
  6
CONTINUOUS
 62
    7
 10
1550.1469798437874
 20
2970.0003499506061
 11
1573.1809037256423
 21
2989.221037050932
  0
LINE
  8
_1-5_SUNPO
  6
CONTINUOUS
 62
    7
 10
1582.0000089549649
 20
3002.3210880471011
 11
1582.0000089549649
 21
3110.0001897038642
  0
LINE
  8
_1-5_SUNPO
  6
CONTINUOUS
 62
    7
 10
1480.0000807125136
 20
3000.0002156261307
 11
1470.0000671622374
 21
3000.0002156261307
  0
LINE
  8
_1-5_SUNPO
  6
CONTINUOUS
 62
    7
 10
1450.5000319904341
 20
3100.0003511288915
 11
1549.500096148045
 21
3100.0003511288915
  0
LINE
  8
_1-5_SUNPO
  6
CONTINUOUS
 62
    7
 10
1418.0000316958628
 20
3002.3210880471011
 11
1418.0000316958628
 21
3110.0001897038642
  0
LINE
  8
_1-5_SUNPO
  6
CONTINUOUS
 62
    7
 10
1480.0000807125136
 20
2972.000317665601
 11
1480.0000807125136
 21
2878.0000853078245
  0
LINE
  8
_1-5_SUNPO
  6
CONTINUOUS
 62
    7
 10
1950.0000176742728
 20
2972.000317665601
 11
1950.0000176742728
 21
2784.0000279253513
  0
LINE
  8
_0-a_3C1
  6
CONTINUOUS
 62
    7
 10
2650.000091317077
 20
3000.0002156261307
 11
4050.0000636273826
 21
3000.0002156261307
  0
LINE
  8
_0-a_3C1
  6
CONTINUOUS
 62
    7
 10
2650.000091317077
 20
3000.0002156261307
 11
2650.000091317077
 21
2900.0000801233709
  0
LINE
  8
_0-a_3C1
  6
CONTINUOUS
 62
    7
 10
4625.8836806602912
 20
2884.8234222294282
 11
4050.0000636273826
 21
3000.0002156261307
  0
LINE
  8
_0-a_3C1
  6
CONTINUOUS
 62
    7
 10
4650.0001767427302
 20
2855.4060493380866
 11
4650.0001767427302
 21
2756.0001299648211
  0
LINE
  8
_1-5_SUNPO
  6
CONTINUOUS
 62
    7
 10
2677.9999892776073
 20
1954.6666090092604
 11
2677.9999892776073
 21
1945.3334263392856
  0
LINE
  8
_1-5_SUNPO
  6
CONTINUOUS
 62
    7
 10
2677.9999892776073
 20
1945.3334263392856
 11
2650.000091317077
 21
1950.0000176742728
  0
LINE
  8
_1-5_SUNPO
  6
CONTINUOUS
 62
    7
 10
2650.000091317077
 20
1950.0000176742728
 11
2677.9999892776073
 21
1954.6666090092604
  0
LINE
  8
_1-5_SUNPO
  6
CONTINUOUS
 62
    7
 10
2677.9999892776073
 20
1954.6666090092604
 11
2650.000091317077
 21
1950.0000176742728
  0
LINE
  8
_1-5_SUNPO
  6
CONTINUOUS
 62
    7
 10
2677.9999892776073
 20
1945.3334263392856
 11
2650.000091317077
 21
1950.0000176742728
  0
LINE
  8
_1-5_SUNPO
  6
CONTINUOUS
 62
    7
 10
4622.0002787821995
 20
1954.6666090092604
 11
4622.0002787821995
 21
1945.3334263392856
  0
LINE
  8
_1-5_SUNPO
  6
CONTINUOUS
 62
    7
 10
4622.0002787821995
 20
1945.3334263392856
 11
4650.0001767427302
 21
1950.0000176742728
  0
LINE
  8
_1-5_SUNPO
  6
CONTINUOUS
 62
    7
 10
4650.0001767427302
 20
1950.0000176742728
 11
4622.0002787821995
 21
1954.6666090092604
  0
LINE
  8
_1-5_SUNPO
  6
CONTINUOUS
 62
    7
 10
4622.0002787821995
 20
1954.6666090092604
 11
4650.0001767427302
 21
1950.0000176742728
  0
LINE
  8
_1-5_SUNPO
  6
CONTINUOUS
 62
    7
 10
4622.0002787821995
 20
1945.3334263392856
 11
4650.0001767427302
 21
1950.0000176742728
  0
LINE
  8
_1-5_SUNPO
  6
CONTINUOUS
 62
    7
 10
1845.3334658118288
 20
2883.9999884528083
 11
1854.6666484818033
 21
2883.9999884528083
  0
LINE
  8
_1-5_SUNPO
  6
CONTINUOUS
 62
    7
 10
1854.6666484818033
 20
2883.9999884528083
 11
1850.0000571468161
 21
2856.0000904922776
  0
LINE
  8
_1-5_SUNPO
  6
CONTINUOUS
 62
    7
 10
1850.0000571468161
 20
2856.0000904922776
 11
1845.3334658118288
 21
2883.9999884528083
  0
LINE
  8
_1-5_SUNPO
  6
CONTINUOUS
 62
    7
 10
1845.3334658118288
 20
2883.9999884528083
 11
1850.0000571468161
 21
2856.0000904922776
  0
LINE
  8
_1-5_SUNPO
  6
CONTINUOUS
 62
    7
 10
1854.6666484818033
 20
2883.9999884528083
 11
1850.0000571468161
 21
2856.0000904922776
  0
LINE
  8
_1-5_SUNPO
  6
CONTINUOUS
 62
    7
 10
1845.3334658118288
 20
2728.0000570289876
 11
1854.6666484818033
 21
2728.0000570289876
  0
LINE
  8
_1-5_SUNPO
  6
CONTINUOUS
 62
    7
 10
1854.6666484818033
 20
2728.0000570289876
 11
1850.0000571468161
 21
2756.0001299648211
  0
LINE
  8
_1-5_SUNPO
  6
CONTINUOUS
 62
    7
 10
1850.0000571468161
 20
2756.0001299648211
 11
1845.3334658118288
 21
2728.0000570289876
  0
LINE
  8
_1-5_SUNPO
  6
CONTINUOUS
 62
    7
 10
1845.3334658118288
 20
2728.0000570289876
 11
1850.0000571468161
 21
2756.0001299648211
  0
LINE
  8
_1-5_SUNPO
  6
CONTINUOUS
 62
    7
 10
1854.6666484818033
 20
2728.0000570289876
 11
1850.0000571468161
 21
2756.0001299648211
  0
LINE
  8
_1-5_SUNPO
  6
CONTINUOUS
 62
    7
 10
1945.3334263392856
 20
2784.0000279253513
 11
1954.6666090092604
 21
2784.0000279253513
  0
LINE
  8
_1-5_SUNPO
  6
CONTINUOUS
 62
    7
 10
1954.6666090092604
 20
2784.0000279253513
 11
1950.0000176742728
 21
2756.0001299648211
  0
LINE
  8
_1-5_SUNPO
  6
CONTINUOUS
 62
    7
 10
1950.0000176742728
 20
2756.0001299648211
 11
1945.3334263392856
 21
2784.0000279253513
  0
LINE
  8
_1-5_SUNPO
  6
CONTINUOUS
 62
    7
 10
1945.3334263392856
 20
2784.0000279253513
 11
1950.0000176742728
 21
2756.0001299648211
  0
LINE
  8
_1-5_SUNPO
  6
CONTINUOUS
 62
    7
 10
1954.6666090092604
 20
2784.0000279253513
 11
1950.0000176742728
 21
2756.0001299648211
  0
LINE
  8
_1-5_SUNPO
  6
CONTINUOUS
 62
    7
 10
1716.6881234305245
 20
2870.7867284355011
 11
1693.5028459114458
 21
2854.4092150360461
  0
LINE
  8
_1-5_SUNPO
  6
CONTINUOUS
 62
    7
 10
1693.5028459114458
 20
2854.4092150360461
 11
1710.1234000069753
 21
2877.4209170544009
  0
LINE
  8
_1-5_SUNPO
  6
CONTINUOUS
 62
    7
 10
1710.1234000069753
 20
2877.4209170544009
 11
1716.6881234305245
 21
2870.7867284355011
  0
LINE
  8
_1-5_SUNPO
  6
CONTINUOUS
 62
    7
 10
1716.6881234305245
 20
2870.7867284355011
 11
1710.1234000069753
 21
2877.4209170544009
  0
LINE
  8
_1-5_SUNPO
  6
CONTINUOUS
 62
    7
 10
1693.5028459114458
 20
2854.4092150360461
 11
1710.1234000069753
 21
2877.4209170544009
  0
LINE
  8
_1-5_SUNPO
  6
CONTINUOUS
 62
    7
 10
-1632.4366400877022
 20
2872.2810175243949
 11
-1604.999987628009
 21
2865.0001201850564
  0
LINE
  8
_1-5_SUNPO
  6
CONTINUOUS
 62
    7
 10
-1604.999987628009
 20
2865.0001201850564
 11
-1633.3150161095102
 21
2862.9891290259638
  0
LINE
  8
_1-5_SUNPO
  6
CONTINUOUS
 62
    7
 10
-1633.3150161095102
 20
2862.9891290259638
 11
-1632.4366400877022
 21
2872.2810175243949
  0
LINE
  8
_1-5_SUNPO
  6
CONTINUOUS
 62
    7
 10
-1632.4366400877022
 20
2872.2810175243949
 11
-1633.3150161095102
 21
2862.9891290259638
  0
LINE
  8
_1-5_SUNPO
  6
CONTINUOUS
 62
    7
 10
-1604.999987628009
 20
2865.0001201850564
 11
-1633.3150161095102
 21
2862.9891290259638
  0
LINE
  8
_1-5_SUNPO
  6
CONTINUOUS
 62
    7
 10
1367.5634880507776
 20
2872.2810175243949
 11
1395.000053022819
 21
2865.0001201850564
  0
LINE
  8
_1-5_SUNPO
  6
CONTINUOUS
 62
    7
 10
1395.000053022819
 20
2865.0001201850564
 11
1366.6851120289687
 21
2862.9891290259638
  0
LINE
  8
_1-5_SUNPO
  6
CONTINUOUS
 62
    7
 10
1366.6851120289687
 20
2862.9891290259638
 11
1367.5634880507776
 21
2872.2810175243949
  0
LINE
  8
_1-5_SUNPO
  6
CONTINUOUS
 62
    7
 10
1367.5634880507776
 20
2872.2810175243949
 11
1366.6851120289687
 21
2862.9891290259638
  0
LINE
  8
_1-5_SUNPO
  6
CONTINUOUS
 62
    7
 10
1395.000053022819
 20
2865.0001201850564
 11
1366.6851120289687
 21
2862.9891290259638
  0
LINE
  8
_1-5_SUNPO
  6
CONTINUOUS
 62
    7
 10
1475.3334893775261
 20
2822.0001144114603
 11
1484.6666720475009
 21
2822.0001144114603
  0
LINE
  8
_1-5_SUNPO
  6
CONTINUOUS
 62
    7
 10
1484.6666720475009
 20
2822.0001144114603
 11
1480.0000807125136
 21
2850.000012371991
  0
LINE
  8
_1-5_SUNPO
  6
CONTINUOUS
 62
    7
 10
1480.0000807125136
 20
2850.000012371991
 11
1475.3334893775261
 21
2822.0001144114603
  0
LINE
  8
_1-5_SUNPO
  6
CONTINUOUS
 62
    7
 10
1475.3334893775261
 20
2822.0001144114603
 11
1480.0000807125136
 21
2850.000012371991
  0
LINE
  8
_1-5_SUNPO
  6
CONTINUOUS
 62
    7
 10
1484.6666720475009
 20
2822.0001144114603
 11
1480.0000807125136
 21
2850.000012371991
  0
LINE
  8
_1-5_SUNPO
  6
CONTINUOUS
 62
    7
 10
1475.3334893775261
 20
2784.0000279253513
 11
1484.6666720475009
 21
2784.0000279253513
  0
LINE
  8
_1-5_SUNPO
  6
CONTINUOUS
 62
    7
 10
1484.6666720475009
 20
2784.0000279253513
 11
1480.0000807125136
 21
2756.0001299648211
  0
LINE
  8
_1-5_SUNPO
  6
CONTINUOUS
 62
    7
 10
1480.0000807125136
 20
2756.0001299648211
 11
1475.3334893775261
 21
2784.0000279253513
  0
LINE
  8
_1-5_SUNPO
  6
CONTINUOUS
 62
    7
 10
1475.3334893775261
 20
2784.0000279253513
 11
1480.0000807125136
 21
2756.0001299648211
  0
LINE
  8
_1-5_SUNPO
  6
CONTINUOUS
 62
    7
 10
1484.6666720475009
 20
2784.0000279253513
 11
1480.0000807125136
 21
2756.0001299648211
  0
LINE
  8
_1-5_SUNPO
  6
CONTINUOUS
 62
    7
 10
4662.9609473975925
 20
2896.5637401448253
 11
4668.6826398105695
 21
2889.1899309195146
  0
LINE
  8
_1-5_SUNPO
  6
CONTINUOUS
 62
    7
 10
4668.6826398105695
 20
2889.1899309195146
 11
4643.7014157799676
 21
2875.7110583920276
  0
LINE
  8
_1-5_SUNPO
  6
CONTINUOUS
 62
    7
 10
4643.7014157799676
 20
2875.7110583920276
 11
4662.9609473975925
 21
2896.5637401448253
  0
LINE
  8
_1-5_SUNPO
  6
CONTINUOUS
 62
    7
 10
4662.9609473975925
 20
2896.5637401448253
 11
4643.7014157799676
 21
2875.7110583920276
  0
LINE
  8
_1-5_SUNPO
  6
CONTINUOUS
 62
    7
 10
4668.6826398105695
 20
2889.1899309195146
 11
4643.7014157799676
 21
2875.7110583920276
  0
LINE
  8
_1-5_SUNPO
  6
CONTINUOUS
 62
    7
 10
4795.3336136865792
 20
2851.9999800869855
 11
4804.6664464059477
 21
2851.9999800869855
  0
LINE
  8
_1-5_SUNPO
  6
CONTINUOUS
 62
    7
 10
4804.6664464059477
 20
2851.9999800869855
 11
4800.0002050215671
 21
2880.000053022819
  0
LINE
  8
_1-5_SUNPO
  6
CONTINUOUS
 62
    7
 10
4800.0002050215671
 20
2880.000053022819
 11
4795.3336136865792
 21
2851.9999800869855
  0
LINE
  8
_1-5_SUNPO
  6
CONTINUOUS
 62
    7
 10
4795.3336136865792
 20
2851.9999800869855
 11
4800.0002050215671
 21
2880.000053022819
  0
LINE
  8
_1-5_SUNPO
  6
CONTINUOUS
 62
    7
 10
4804.6664464059477
 20
2851.9999800869855
 11
4800.0002050215671
 21
2880.000053022819
  0
LINE
  8
_1-5_SUNPO
  6
CONTINUOUS
 62
    7
 10
4795.3336136865792
 20
2784.0000279253513
 11
4804.6664464059477
 21
2784.0000279253513
  0
LINE
  8
_1-5_SUNPO
  6
CONTINUOUS
 62
    7
 10
4804.6664464059477
 20
2784.0000279253513
 11
4800.0002050215671
 21
2756.0001299648211
  0
LINE
  8
_1-5_SUNPO
  6
CONTINUOUS
 62
    7
 10
4800.0002050215671
 20
2756.0001299648211
 11
4795.3336136865792
 21
2784.0000279253513
  0
LINE
  8
_1-5_SUNPO
  6
CONTINUOUS
 62
    7
 10
4795.3336136865792
 20
2784.0000279253513
 11
4800.0002050215671
 21
2756.0001299648211
  0
LINE
  8
_1-5_SUNPO
  6
CONTINUOUS
 62
    7
 10
4804.6664464059477
 20
2784.0000279253513
 11
4800.0002050215671
 21
2756.0001299648211
  0
LINE
  8
_1-5_SUNPO
  6
CONTINUOUS
 62
    7
 10
4622.0002787821995
 20
3254.666970742715
 11
4622.0002787821995
 21
3245.3334381221343
  0
LINE
  8
_1-5_SUNPO
  6
CONTINUOUS
 62
    7
 10
4622.0002787821995
 20
3245.3334381221343
 11
4650.0001767427302
 21
3250.0000294571214
  0
LINE
  8
_1-5_SUNPO
  6
CONTINUOUS
 62
    7
 10
4650.0001767427302
 20
3250.0000294571214
 11
4622.0002787821995
 21
3254.666970742715
  0
LINE
  8
_1-5_SUNPO
  6
CONTINUOUS
 62
    7
 10
4622.0002787821995
 20
3254.666970742715
 11
4650.0001767427302
 21
3250.0000294571214
  0
LINE
  8
_1-5_SUNPO
  6
CONTINUOUS
 62
    7
 10
4622.0002787821995
 20
3245.3334381221343
 11
4650.0001767427302
 21
3250.0000294571214
  0
LINE
  8
_1-5_SUNPO
  6
CONTINUOUS
 62
    7
 10
2677.9999892776073
 20
3254.666970742715
 11
2677.9999892776073
 21
3245.3334381221343
  0
LINE
  8
_1-5_SUNPO
  6
CONTINUOUS
 62
    7
 10
2677.9999892776073
 20
3245.3334381221343
 11
2650.000091317077
 21
3250.0000294571214
  0
LINE
  8
_1-5_SUNPO
  6
CONTINUOUS
 62
    7
 10
2650.000091317077
 20
3250.0000294571214
 11
2677.9999892776073
 21
3254.666970742715
  0
LINE
  8
_1-5_SUNPO
  6
CONTINUOUS
 62
    7
 10
2677.9999892776073
 20
3254.666970742715
 11
2650.000091317077
 21
3250.0000294571214
  0
LINE
  8
_1-5_SUNPO
  6
CONTINUOUS
 62
    7
 10
2677.9999892776073
 20
3245.3334381221343
 11
2650.000091317077
 21
3250.0000294571214
  0
LINE
  8
_1-5_SUNPO
  6
CONTINUOUS
 62
    7
 10
4077.9999615879133
 20
3154.6668352399552
 11
4077.9999615879133
 21
3145.3333026193741
  0
LINE
  8
_1-5_SUNPO
  6
CONTINUOUS
 62
    7
 10
4077.9999615879133
 20
3145.3333026193741
 11
4050.0000636273826
 21
3150.0002439049676
  0
LINE
  8
_1-5_SUNPO
  6
CONTINUOUS
 62
    7
 10
4050.0000636273826
 20
3150.0002439049676
 11
4077.9999615879133
 21
3154.6668352399552
  0
LINE
  8
_1-5_SUNPO
  6
CONTINUOUS
 62
    7
 10
4077.9999615879133
 20
3154.6668352399552
 11
4050.0000636273826
 21
3150.0002439049676
  0
LINE
  8
_1-5_SUNPO
  6
CONTINUOUS
 62
    7
 10
4077.9999615879133
 20
3145.3333026193741
 11
4050.0000636273826
 21
3150.0002439049676
  0
LINE
  8
_1-5_SUNPO
  6
CONTINUOUS
 62
    7
 10
4622.0002787821995
 20
3154.6668352399552
 11
4622.0002787821995
 21
3145.3333026193741
  0
LINE
  8
_1-5_SUNPO
  6
CONTINUOUS
 62
    7
 10
4622.0002787821995
 20
3145.3333026193741
 11
4650.0001767427302
 21
3150.0002439049676
  0
LINE
  8
_1-5_SUNPO
  6
CONTINUOUS
 62
    7
 10
4650.0001767427302
 20
3150.0002439049676
 11
4622.0002787821995
 21
3154.6668352399552
  0
LINE
  8
_1-5_SUNPO
  6
CONTINUOUS
 62
    7
 10
4622.0002787821995
 20
3154.6668352399552
 11
4650.0001767427302
 21
3150.0002439049676
  0
LINE
  8
_1-5_SUNPO
  6
CONTINUOUS
 62
    7
 10
4622.0002787821995
 20
3145.3333026193741
 11
4650.0001767427302
 21
3150.0002439049676
  0
LINE
  8
_1-5_SUNPO
  6
CONTINUOUS
 62
    7
 10
1333.0000040061686
 20
2554.6667221246075
 11
1333.0000040061686
 21
2545.3333644793297
  0
LINE
  8
_1-5_SUNPO
  6
CONTINUOUS
 62
    7
 10
1333.0000040061686
 20
2545.3333644793297
 11
1305.0000185579868
 21
2550.0001307896205
  0
LINE
  8
_1-5_SUNPO
  6
CONTINUOUS
 62
    7
 10
1305.0000185579868
 20
2550.0001307896205
 11
1333.0000040061686
 21
2554.6667221246075
  0
LINE
  8
_1-5_SUNPO
  6
CONTINUOUS
 62
    7
 10
1333.0000040061686
 20
2554.6667221246075
 11
1305.0000185579868
 21
2550.0001307896205
  0
LINE
  8
_1-5_SUNPO
  6
CONTINUOUS
 62
    7
 10
1333.0000040061686
 20
2545.3333644793297
 11
1305.0000185579868
 21
2550.0001307896205
  0
LINE
  8
_1-5_SUNPO
  6
CONTINUOUS
 62
    7
 10
1667.0000366446593
 20
2554.6667221246075
 11
1667.0000366446593
 21
2545.3333644793297
  0
LINE
  8
_1-5_SUNPO
  6
CONTINUOUS
 62
    7
 10
1667.0000366446593
 20
2545.3333644793297
 11
1695.0001095804928
 21
2550.0001307896205
  0
LINE
  8
_1-5_SUNPO
  6
CONTINUOUS
 62
    7
 10
1695.0001095804928
 20
2550.0001307896205
 11
1667.0000366446593
 21
2554.6667221246075
  0
LINE
  8
_1-5_SUNPO
  6
CONTINUOUS
 62
    7
 10
1667.0000366446593
 20
2554.6667221246075
 11
1695.0001095804928
 21
2550.0001307896205
  0
LINE
  8
_1-5_SUNPO
  6
CONTINUOUS
 62
    7
 10
1667.0000366446593
 20
2545.3333644793297
 11
1695.0001095804928
 21
2550.0001307896205
  0
LINE
  8
_1-5_SUNPO
  6
CONTINUOUS
 62
    7
 10
1432.0000681637796
 20
2654.6668576273673
 11
1432.0000681637796
 21
2645.3333250067867
  0
LINE
  8
_1-5_SUNPO
  6
CONTINUOUS
 62
    7
 10
1432.0000681637796
 20
2645.3333250067867
 11
1403.9999952279461
 21
2650.000091317077
  0
LINE
  8
_1-5_SUNPO
  6
CONTINUOUS
 62
    7
 10
1403.9999952279461
 20
2650.000091317077
 11
1432.0000681637796
 21
2654.6668576273673
  0
LINE
  8
_1-5_SUNPO
  6
CONTINUOUS
 62
    7
 10
1432.0000681637796
 20
2654.6668576273673
 11
1403.9999952279461
 21
2650.000091317077
  0
LINE
  8
_1-5_SUNPO
  6
CONTINUOUS
 62
    7
 10
1432.0000681637796
 20
2645.3333250067867
 11
1403.9999952279461
 21
2650.000091317077
  0
LINE
  8
_1-5_SUNPO
  6
CONTINUOUS
 62
    7
 10
1568.0000599746998
 20
2654.6668576273673
 11
1568.0000599746998
 21
2645.3333250067867
  0
LINE
  8
_1-5_SUNPO
  6
CONTINUOUS
 62
    7
 10
1568.0000599746998
 20
2645.3333250067867
 11
1595.99995793523
 21
2650.000091317077
  0
LINE
  8
_1-5_SUNPO
  6
CONTINUOUS
 62
    7
 10
1595.99995793523
 20
2650.000091317077
 11
1568.0000599746998
 21
2654.6668576273673
  0
LINE
  8
_1-5_SUNPO
  6
CONTINUOUS
 62
    7
 10
1568.0000599746998
 20
2654.6668576273673
 11
1595.99995793523
 21
2650.000091317077
  0
LINE
  8
_1-5_SUNPO
  6
CONTINUOUS
 62
    7
 10
1568.0000599746998
 20
2645.3333250067867
 11
1595.99995793523
 21
2650.000091317077
  0
LINE
  8
_0-a_3C1
  6
CONTINUOUS
 62
    7
 10
2622.0000183812435
 20
2604.6667898759874
 11
2622.0000183812435
 21
2595.3332572554068
  0
LINE
  8
_0-a_3C1
  6
CONTINUOUS
 62
    7
 10
2622.0000183812435
 20
2595.3332572554068
 11
2650.000091317077
 21
2600.0000235656971
  0
LINE
  8
_0-a_3C1
  6
CONTINUOUS
 62
    7
 10
2650.000091317077
 20
2600.0000235656971
 11
2622.0000183812435
 21
2604.6667898759874
  0
LINE
  8
_0-a_3C1
  6
CONTINUOUS
 62
    7
 10
2622.0000183812435
 20
2604.6667898759874
 11
2650.000091317077
 21
2600.0000235656971
  0
LINE
  8
_0-a_3C1
  6
CONTINUOUS
 62
    7
 10
2622.0000183812435
 20
2595.3332572554068
 11
2650.000091317077
 21
2600.0000235656971
  0
LINE
  8
_0-a_3C1
  6
CONTINUOUS
 62
    7
 10
2778.0001247803675
 20
2604.6667898759874
 11
2778.0001247803675
 21
2595.3332572554068
  0
LINE
  8
_0-a_3C1
  6
CONTINUOUS
 62
    7
 10
2778.0001247803675
 20
2595.3332572554068
 11
2750.000051844534
 21
2600.0000235656971
  0
LINE
  8
_0-a_3C1
  6
CONTINUOUS
 62
    7
 10
2750.000051844534
 20
2600.0000235656971
 11
2778.0001247803675
 21
2604.6667898759874
  0
LINE
  8
_0-a_3C1
  6
CONTINUOUS
 62
    7
 10
2778.0001247803675
 20
2604.6667898759874
 11
2750.000051844534
 21
2600.0000235656971
  0
LINE
  8
_0-a_3C1
  6
CONTINUOUS
 62
    7
 10
2778.0001247803675
 20
2595.3332572554068
 11
2750.000051844534
 21
2600.0000235656971
  0
LINE
  8
_1-5_SUNPO
  6
CONTINUOUS
 62
    7
 10
1475.3334893775261
 20
2878.0000853078245
 11
1484.6666720475009
 21
2878.0000853078245
  0
LINE
  8
_1-5_SUNPO
  6
CONTINUOUS
 62
    7
 10
1484.6666720475009
 20
2878.0000853078245
 11
1480.0000807125136
 21
2850.000012371991
  0
LINE
  8
_1-5_SUNPO
  6
CONTINUOUS
 62
    7
 10
1480.0000807125136
 20
2850.000012371991
 11
1475.3334893775261
 21
2878.0000853078245
  0
LINE
  8
_1-5_SUNPO
  6
CONTINUOUS
 62
    7
 10
1475.3334893775261
 20
2878.0000853078245
 11
1480.0000807125136
 21
2850.000012371991
  0
LINE
  8
_1-5_SUNPO
  6
CONTINUOUS
 62
    7
 10
1484.6666720475009
 20
2878.0000853078245
 11
1480.0000807125136
 21
2850.000012371991
  0
LINE
  8
_1-5_SUNPO
  6
CONTINUOUS
 62
    7
 10
2754.6080264529664
 20
2905.3359519929036
 11
2761.2299668006453
 21
2898.758805322831
  0
LINE
  8
_1-5_SUNPO
  6
CONTINUOUS
 62
    7
 10
2761.2299668006453
 20
2898.758805322831
 11
2738.1878190795424
 21
2882.1812951518764
  0
LINE
  8
_1-5_SUNPO
  6
CONTINUOUS
 62
    7
 10
2738.1878190795424
 20
2882.1812951518764
 11
2754.6080264529664
 21
2905.3359519929036
  0
LINE
  8
_1-5_SUNPO
  6
CONTINUOUS
 62
    7
 10
2754.6080264529664
 20
2905.3359519929036
 11
2738.1878190795424
 21
2882.1812951518764
  0
LINE
  8
_1-5_SUNPO
  6
CONTINUOUS
 62
    7
 10
2761.2299668006453
 20
2898.758805322831
 11
2738.1878190795424
 21
2882.1812951518764
  0
LINE
  8
_1-5_SUNPO
  6
CONTINUOUS
 62
    7
 10
2895.3333138130806
 20
2918.0001395089284
 11
2904.6668464336612
 21
2918.0001395089284
  0
LINE
  8
_1-5_SUNPO
  6
CONTINUOUS
 62
    7
 10
2904.6668464336612
 20
2918.0001395089284
 11
2900.0000801233709
 21
2890.000066573095
  0
LINE
  8
_1-5_SUNPO
  6
CONTINUOUS
 62
    7
 10
2900.0000801233709
 20
2890.000066573095
 11
2895.3333138130806
 21
2918.0001395089284
  0
LINE
  8
_1-5_SUNPO
  6
CONTINUOUS
 62
    7
 10
2895.3333138130806
 20
2918.0001395089284
 11
2900.0000801233709
 21
2890.000066573095
  0
LINE
  8
_1-5_SUNPO
  6
CONTINUOUS
 62
    7
 10
2904.6668464336612
 20
2918.0001395089284
 11
2900.0000801233709
 21
2890.000066573095
  0
LINE
  8
_1-5_SUNPO
  6
CONTINUOUS
 62
    7
 10
2895.3333138130806
 20
2822.0001144114603
 11
2904.6668464336612
 21
2822.0001144114603
  0
LINE
  8
_1-5_SUNPO
  6
CONTINUOUS
 62
    7
 10
2904.6668464336612
 20
2822.0001144114603
 11
2900.0000801233709
 21
2850.000012371991
  0
LINE
  8
_1-5_SUNPO
  6
CONTINUOUS
 62
    7
 10
2900.0000801233709
 20
2850.000012371991
 11
2895.3333138130806
 21
2822.0001144114603
  0
LINE
  8
_1-5_SUNPO
  6
CONTINUOUS
 62
    7
 10
2895.3333138130806
 20
2822.0001144114603
 11
2900.0000801233709
 21
2850.000012371991
  0
LINE
  8
_1-5_SUNPO
  6
CONTINUOUS
 62
    7
 10
2904.6668464336612
 20
2822.0001144114603
 11
2900.0000801233709
 21
2850.000012371991
  0
LINE
  8
_1-5_SUNPO
  6
CONTINUOUS
 62
    7
 10
2545.3333644793297
 20
2928.0001530592044
 11
2554.6667221246075
 21
2928.0001530592044
  0
LINE
  8
_1-5_SUNPO
  6
CONTINUOUS
 62
    7
 10
2554.6667221246075
 20
2928.0001530592044
 11
2550.0001307896205
 21
2900.0000801233709
  0
LINE
  8
_1-5_SUNPO
  6
CONTINUOUS
 62
    7
 10
2550.0001307896205
 20
2900.0000801233709
 11
2545.3333644793297
 21
2928.0001530592044
  0
LINE
  8
_1-5_SUNPO
  6
CONTINUOUS
 62
    7
 10
2545.3333644793297
 20
2928.0001530592044
 11
2550.0001307896205
 21
2900.0000801233709
  0
LINE
  8
_1-5_SUNPO
  6
CONTINUOUS
 62
    7
 10
2554.6667221246075
 20
2928.0001530592044
 11
2550.0001307896205
 21
2900.0000801233709
  0
LINE
  8
_1-5_SUNPO
  6
CONTINUOUS
 62
    7
 10
2545.3333644793297
 20
2822.0001144114603
 11
2554.6667221246075
 21
2822.0001144114603
  0
LINE
  8
_1-5_SUNPO
  6
CONTINUOUS
 62
    7
 10
2554.6667221246075
 20
2822.0001144114603
 11
2550.0001307896205
 21
2850.000012371991
  0
LINE
  8
_1-5_SUNPO
  6
CONTINUOUS
 62
    7
 10
2550.0001307896205
 20
2850.000012371991
 11
2545.3333644793297
 21
2822.0001144114603
  0
LINE
  8
_1-5_SUNPO
  6
CONTINUOUS
 62
    7
 10
2545.3333644793297
 20
2822.0001144114603
 11
2550.0001307896205
 21
2850.000012371991
  0
LINE
  8
_1-5_SUNPO
  6
CONTINUOUS
 62
    7
 10
2554.6667221246075
 20
2822.0001144114603
 11
2550.0001307896205
 21
2850.000012371991
  0
LINE
  8
_1-5_SUNPO
  6
CONTINUOUS
 62
    7
 10
1633.3150161095105
 20
2862.9891290259638
 11
1605.000162603312
 21
2864.9999452097536
  0
LINE
  8
_1-5_SUNPO
  6
CONTINUOUS
 62
    7
 10
1605.000162603312
 20
2864.9999452097536
 11
1632.436640087702
 21
2872.2810175243949
  0
LINE
  8
_1-5_SUNPO
  6
CONTINUOUS
 62
    7
 10
1632.436640087702
 20
2872.2810175243949
 11
1633.3150161095105
 21
2862.9891290259638
  0
LINE
  8
_1-5_SUNPO
  6
CONTINUOUS
 62
    7
 10
1633.3150161095105
 20
2862.9891290259638
 11
1632.436640087702
 21
2872.2810175243949
  0
LINE
  8
_1-5_SUNPO
  6
CONTINUOUS
 62
    7
 10
1605.000162603312
 20
2864.9999452097536
 11
1632.436640087702
 21
2872.2810175243949
  0
LINE
  8
_1-5_SUNPO
  6
CONTINUOUS
 62
    7
 10
1945.3334263392856
 20
2972.000317665601
 11
1954.6666090092604
 21
2972.000317665601
  0
LINE
  8
_1-5_SUNPO
  6
CONTINUOUS
 62
    7
 10
1954.6666090092604
 20
2972.000317665601
 11
1950.0000176742728
 21
3000.0002156261307
  0
LINE
  8
_1-5_SUNPO
  6
CONTINUOUS
 62
    7
 10
1950.0000176742728
 20
3000.0002156261307
 11
1945.3334263392856
 21
2972.000317665601
  0
LINE
  8
_1-5_SUNPO
  6
CONTINUOUS
 62
    7
 10
1945.3334263392856
 20
2972.000317665601
 11
1950.0000176742728
 21
3000.0002156261307
  0
LINE
  8
_1-5_SUNPO
  6
CONTINUOUS
 62
    7
 10
1954.6666090092604
 20
2972.000317665601
 11
1950.0000176742728
 21
3000.0002156261307
  0
LINE
  8
_1-5_SUNPO
  6
CONTINUOUS
 62
    7
 10
1591.689441342151
 20
3010.7433492888813
 11
1597.6692223272726
 21
3003.5770607731051
  0
LINE
  8
_1-5_SUNPO
  6
CONTINUOUS
 62
    7
 10
1597.6692223272726
 20
3003.5770607731051
 11
1573.1809037256423
 21
2989.221037050932
  0
LINE
  8
_1-5_SUNPO
  6
CONTINUOUS
 62
    7
 10
1573.1809037256423
 20
2989.221037050932
 11
1591.689441342151
 21
3010.7433492888813
  0
LINE
  8
_1-5_SUNPO
  6
CONTINUOUS
 62
    7
 10
1591.689441342151
 20
3010.7433492888813
 11
1573.1809037256423
 21
2989.221037050932
  0
LINE
  8
_1-5_SUNPO
  6
CONTINUOUS
 62
    7
 10
1597.6692223272726
 20
3003.5770607731051
 11
1573.1809037256423
 21
2989.221037050932
  0
LINE
  8
_1-5_SUNPO
  6
CONTINUOUS
 62
    7
 10
1554.0001109944346
 20
3104.6669424638781
 11
1554.0001109944346
 21
3095.3334098432974
  0
LINE
  8
_1-5_SUNPO
  6
CONTINUOUS
 62
    7
 10
1554.0001109944346
 20
3095.3334098432974
 11
1582.0000089549649
 21
3100.0003511288915
  0
LINE
  8
_1-5_SUNPO
  6
CONTINUOUS
 62
    7
 10
1582.0000089549649
 20
3100.0003511288915
 11
1554.0001109944346
 21
3104.6669424638781
  0
LINE
  8
_1-5_SUNPO
  6
CONTINUOUS
 62
    7
 10
1554.0001109944346
 20
3104.6669424638781
 11
1582.0000089549649
 21
3100.0003511288915
  0
LINE
  8
_1-5_SUNPO
  6
CONTINUOUS
 62
    7
 10
1554.0001109944346
 20
3095.3334098432974
 11
1582.0000089549649
 21
3100.0003511288915
  0
LINE
  8
_1-5_SUNPO
  6
CONTINUOUS
 62
    7
 10
1475.3334893775261
 20
2972.000317665601
 11
1484.6666720475009
 21
2972.000317665601
  0
LINE
  8
_1-5_SUNPO
  6
CONTINUOUS
 62
    7
 10
1484.6666720475009
 20
2972.000317665601
 11
1480.0000807125136
 21
3000.0002156261307
  0
LINE
  8
_1-5_SUNPO
  6
CONTINUOUS
 62
    7
 10
1480.0000807125136
 20
3000.0002156261307
 11
1475.3334893775261
 21
2972.000317665601
  0
LINE
  8
_1-5_SUNPO
  6
CONTINUOUS
 62
    7
 10
1475.3334893775261
 20
2972.000317665601
 11
1480.0000807125136
 21
3000.0002156261307
  0
LINE
  8
_1-5_SUNPO
  6
CONTINUOUS
 62
    7
 10
1484.6666720475009
 20
2972.000317665601
 11
1480.0000807125136
 21
3000.0002156261307
  0
LINE
  8
_1-5_SUNPO
  6
CONTINUOUS
 62
    7
 10
1446.0000171440447
 20
3104.6669424638781
 11
1446.0000171440447
 21
3095.3334098432974
  0
LINE
  8
_1-5_SUNPO
  6
CONTINUOUS
 62
    7
 10
1446.0000171440447
 20
3095.3334098432974
 11
1418.0000316958628
 21
3100.0003511288915
  0
LINE
  8
_1-5_SUNPO
  6
CONTINUOUS
 62
    7
 10
1418.0000316958628
 20
3100.0003511288915
 11
1446.0000171440447
 21
3104.6669424638781
  0
LINE
  8
_1-5_SUNPO
  6
CONTINUOUS
 62
    7
 10
1446.0000171440447
 20
3104.6669424638781
 11
1418.0000316958628
 21
3100.0003511288915
  0
LINE
  8
_1-5_SUNPO
  6
CONTINUOUS
 62
    7
 10
1446.0000171440447
 20
3095.3334098432974
 11
1418.0000316958628
 21
3100.0003511288915
  0
ARC
  8
_0-a_3C1
  6
CONTINUOUS
 62
    7
 10
2709.9999976434301
 20
2853.8006509316933
 40
40.000002255310882
 50
0
 51
84.289398193359375
  0
ARC
  8
_0-a_3C1
  6
CONTINUOUS
 62
    7
 10
1425.0104172165329
 20
2860.000025922267
 40
20.000001127655441
 50
90
 51
174.71516418457031
  0
ARC
  8
_0-a_3C1
  6
CONTINUOUS
 62
    7
 10
1574.989623434295
 20
2860.000025922267
 40
20.000001127655441
 50
5.284820556640625
 51
89.999999999999986
  0
ARC
  8
_0-a_3C1
  6
CONTINUOUS
 62
    7
 10
1445.228201081854
 20
2970
 40
29.999999640991327
 50
90
 51
174.71517944335937
  0
ARC
  8
_0-a_3C1
  6
CONTINUOUS
 62
    7
 10
1554.7719270566254
 20
2970
 40
29.999999640991327
 50
5.2848052978515625
 51
90
  0
ARC
  8
_0-a_3C1
  6
CONTINUOUS
 62
    7
 10
4620.0003110672051
 20
2855.4060493380866
 40
29.999999640991327
 50
0
 51
78.6900634765625
  0
TEXT
  8
_1-5_SUNPO
 62
    4
 10
1799.6248694460364
 20
2951.999940614442
 40
40
 41
1
 50
0
  1
3C
  0
TEXT
  8
_1-5_SUNPO
 62
    4
 10
1643.4690472753243
 20
2877.4277448127168
 40
40
 41
1
 50
5.400102517728941
  1
6
  0
TEXT
  8
_1-5_SUNPO
 62
    4
 10
1679.4990868232776
 20
2880.8336390885147
 40
40
 41
1
 50
5.400102517728941
  1
%
  0
TEXT
  8
_1-5_SUNPO
 62
    7
 10
734.76190132524039
 20
370.00002017812847
 40
80
 41
1
 50
0
  1
BFLTブロック
  0
TEXT
  8
_1-5_SUNPO
 62
    4
 10
1292.2881462624414
 20
2885.0909598260819
 40
40
 41
1
 50
-5.4001259965040846
  1
6
  0
TEXT
  8
_1-5_SUNPO
 62
    4
 10
1328.3180108350919
 20
2881.685065550284
 40
40
 41
1
 50
-5.4001259965040846
  1
%
  0
TEXT
  8
_1-5_SUNPO
 62
    7
 10
3246.6803184715473
 20
359.22749066444908
 40
60
 41
1
 50
0
  1
１／２０
  0
TEXT
  8
_1-5_SUNPO
 62
    4
 10
381.88625976385765
 20
488.69189243979434
 40
50
 41
1
 50
0
  1
製品名
  0
TEXT
  8
_1-5_SUNPO
 62
    4
 10
2376.2904042718951
 20
494.4532167589341
 40
50
 41
1
 50
0
  1
型式
  0
TEXT
  8
_1-5_SUNPO
 62
    4
 10
3177.5102787680607
 20
488.69189243979434
 40
50
 41
1
 50
0
  1
縮尺
  0
TEXT
  8
_1-5_SUNPO
 62
    3
 10
3730.8710682990468
 20
352.27261605870297
 40
100
 41
1
 50
0
  1
千葉県コンクリート製品協同組合
  0
TEXT
  8
_1-5_SUNPO
 62
    4
 10
2537.5000709821775
 20
2854.6461586970622
 40
40
 41
1
 50
90.000002504478161
  1
50
  0
TEXT
  8
_1-5_SUNPO
 62
    4
 10
2887.5000203159284
 20
2849.6122942007646
 40
40
 41
1
 50
90.000002504478161
  1
40
  0
TEXT
  8
_1-5_SUNPO
 62
    4
 10
2772.489590743302
 20
2934.4558303649756
 40
40
 41
1
 50
45.195419794582335
  1
R40
  0
TEXT
  8
_1-5_SUNPO
 62
    4
 10
2669.9443419467525
 20
2612.5000842473678
 40
40
 41
1
 50
0
  1
100
  0
TEXT
  8
_1-5_SUNPO
 62
    4
 10
1467.8717082255594
 20
2662.4999770234449
 40
40
 41
1
 50
0
  1
192
  0
TEXT
  8
_1-5_SUNPO
 62
    4
 10
1470.4431452806393
 20
2562.5000164959879
 40
40
 41
1
 50
0
  1
390
  0
TEXT
  8
_1-5_SUNPO
 62
    4
 10
4320.6347556095789
 20
3162.5001296113355
 40
40
 41
1
 50
0
  1
600
  0
TEXT
  8
_1-5_SUNPO
 62
    4
 10
3611.1599578268278
 20
3262.4999151634893
 40
40
 41
1
 50
0
  1
2000
  0
TEXT
  8
_1-5_SUNPO
 62
    4
 10
4787.4999706759345
 20
2787.991255241011
 40
40
 41
1
 50
90.000002504478203
  1
124
  0
TEXT
  8
_1-5_SUNPO
 62
    4
 10
4684.7373227867411
 20
2923.3774786443773
 40
40
 41
1
 50
37.811589150826762
  1
R30
  0
TEXT
  8
_1-5_SUNPO
 62
    4
 10
1467.5000209050704
 20
2782.9726000458118
 40
40
 41
1
 50
90.000002504478061
  1
94
  0
TEXT
  8
_1-5_SUNPO
 62
    4
 10
1837.4999977764874
 20
2776.8554769979937
 40
40
 41
1
 50
90.000002504478203
  1
100
  0
TEXT
  8
_1-5_SUNPO
 62
    4
 10
3611.1599578268278
 20
1962.5000783559437
 40
40
 41
1
 50
0
  1
2000
  0
TEXT
  8
_1-5_SUNPO
 62
    4
 10
1612.2091516747307
 20
3038.0681974509794
 40
40
 41
1
 50
39.843245994919855
  1
R30
  0
TEXT
  8
_1-5_SUNPO
 62
    4
 10
1470.8924818591258
 20
3112.5002368352584
 40
40
 41
1
 50
0
  1
164
  0
TEXT
  8
_1-5_SUNPO
 62
    4
 10
1937.4999583039437
 20
2873.5923230970229
 40
40
 41
1
 50
90.000002504478203
  1
244
  0
TEXT
  8
_1-5_SUNPO
 62
    4
 10
1467.5000213421843
 20
2913.6870389371302
 40
40
 41
1
 50
90.000002504478203
  1
150
  0
TEXT
  8
_1-5_SUNPO
 62
    7
 10
2484.7619973554574
 20
370.00002017812847
 40
80
 41
1
 50
0
  1
BFLT30-15
  0
ENDSEC
  0
EOF
