  0
SECTION
  2
HEADER
  9
$ACADVER
  1
AC1012
  9
$DWGCODEPAGE
  3
dos932
  9
$INSBASE
 10
0.0
 20
0.0
 30
0.0
  9
$EXTMIN
 10
0.0
 20
0.0
 30
0.0
  9
$EXTMAX
 10
5940.0
 20
4200.0
 30
0.0
  9
$LIMMIN
 10
0.0
 20
0.0
  9
$LIMMAX
 10
5940.0
 20
4200.0
  9
$ORTHOMODE
 70
     0
  9
$REGENMODE
 70
     1
  9
$FILLMODE
 70
     1
  9
$QTEXTMODE
 70
     0
  9
$MIRRTEXT
 70
     0
  9
$DRAGMODE
 70
     2
  9
$LTSCALE
 40
10.0
  9
$OSMODE
 70
    39
  9
$ATTMODE
 70
     1
  9
$TEXTSIZE
 40
50.0
  9
$TRACEWID
 40
1.0
  9
$TEXTSTYLE
  7
ADD
  9
$CLAYER
  8
SUNPO
  9
$CELTYPE
  6
BYLAYER
  9
$CECOLOR
 62
   256
  9
$CELTSCALE
 40
1.0
  9
$DELOBJ
 70
     1
  9
$DISPSILH
 70
     0
  9
$DIMSCALE
 40
20.0
  9
$DIMASZ
 40
1.399999999999999
  9
$DIMEXO
 40
1.0
  9
$DIMDLI
 40
7.0
  9
$DIMRND
 40
0.0
  9
$DIMDLE
 40
0.0
  9
$DIMEXE
 40
0.5
  9
$DIMTP
 40
0.0
  9
$DIMTM
 40
0.0
  9
$DIMTXT
 40
1.8
  9
$DIMCEN
 40
1.399999999999999
  9
$DIMTSZ
 40
0.0
  9
$DIMTOL
 70
     0
  9
$DIMLIM
 70
     0
  9
$DIMTIH
 70
     0
  9
$DIMTOH
 70
     0
  9
$DIMSE1
 70
     0
  9
$DIMSE2
 70
     0
  9
$DIMTAD
 70
     1
  9
$DIMZIN
 70
     8
  9
$DIMBLK
  1

  9
$DIMASO
 70
     1
  9
$DIMSHO
 70
     1
  9
$DIMPOST
  1

  9
$DIMAPOST
  1

  9
$DIMALT
 70
     0
  9
$DIMALTD
 70
     3
  9
$DIMALTF
 40
0.03937007874016
  9
$DIMLFAC
 40
1.0
  9
$DIMTOFL
 70
     1
  9
$DIMTVP
 40
0.7
  9
$DIMTIX
 70
     1
  9
$DIMSOXD
 70
     0
  9
$DIMSAH
 70
     0
  9
$DIMBLK1
  1

  9
$DIMBLK2
  1

  9
$DIMSTYLE
  2
ADD
  9
$DIMCLRD
 70
   144
  9
$DIMCLRE
 70
   144
  9
$DIMCLRT
 70
     7
  9
$DIMTFAC
 40
1.0
  9
$DIMGAP
 40
0.625
  9
$DIMJUST
 70
     0
  9
$DIMSD1
 70
     0
  9
$DIMSD2
 70
     0
  9
$DIMTOLJ
 70
     2
  9
$DIMTZIN
 70
     8
  9
$DIMALTZ
 70
     0
  9
$DIMALTTZ
 70
     0
  9
$DIMFIT
 70
     5
  9
$DIMUPT
 70
     0
  9
$DIMUNIT
 70
     2
  9
$DIMDEC
 70
     1
  9
$DIMTDEC
 70
     1
  9
$DIMALTU
 70
     2
  9
$DIMALTTD
 70
     3
  9
$DIMTXSTY
  7
ADD
  9
$DIMAUNIT
 70
     0
  9
$LUNITS
 70
     2
  9
$LUPREC
 70
     4
  9
$SKETCHINC
 40
1.0
  9
$FILLETRAD
 40
20.0
  9
$AUNITS
 70
     0
  9
$AUPREC
 70
     1
  9
$MENU
  1
.
  9
$ELEVATION
 40
0.0
  9
$PELEVATION
 40
0.0
  9
$THICKNESS
 40
0.0
  9
$LIMCHECK
 70
     0
  9
$BLIPMODE
 70
     0
  9
$CHAMFERA
 40
10.0
  9
$CHAMFERB
 40
10.0
  9
$CHAMFERC
 40
20.0
  9
$CHAMFERD
 40
0.0
  9
$SKPOLY
 70
     0
  9
$TDCREATE
 40
2451801.142532870
  9
$TDUPDATE
 40
2451857.968356713
  9
$TDINDWG
 40
0.4167842477
  9
$TDUSRTIMER
 40
0.4167842477
  9
$USRTIMER
 70
     1
  9
$ANGBASE
 50
0.0
  9
$ANGDIR
 70
     0
  9
$PDMODE
 70
     0
  9
$PDSIZE
 40
0.0
  9
$PLINEWID
 40
0.0
  9
$COORDS
 70
     2
  9
$SPLFRAME
 70
     0
  9
$SPLINETYPE
 70
     6
  9
$SPLINESEGS
 70
     8
  9
$ATTDIA
 70
     0
  9
$ATTREQ
 70
     1
  9
$HANDLING
 70
 10241
  9
$HANDSEED
  5
1F4D
  9
$SURFTAB1
 70
     6
  9
$SURFTAB2
 70
     6
  9
$SURFTYPE
 70
     6
  9
$SURFU
 70
     6
  9
$SURFV
 70
     6
  9
$UCSNAME
  2

  9
$UCSORG
 10
0.0
 20
0.0
 30
0.0
  9
$UCSXDIR
 10
1.0
 20
0.0
 30
0.0
  9
$UCSYDIR
 10
0.0
 20
1.0
 30
0.0
  9
$PUCSNAME
  2

  9
$PUCSORG
 10
0.0
 20
0.0
 30
0.0
  9
$PUCSXDIR
 10
1.0
 20
0.0
 30
0.0
  9
$PUCSYDIR
 10
0.0
 20
1.0
 30
0.0
  9
$USERI1
 70
     0
  9
$USERI2
 70
     0
  9
$USERI3
 70
     0
  9
$USERI4
 70
     0
  9
$USERI5
 70
     0
  9
$USERR1
 40
841.0
  9
$USERR2
 40
594.0
  9
$USERR3
 40
1.0
  9
$USERR4
 40
0.0
  9
$USERR5
 40
0.0
  9
$WORLDVIEW
 70
     1
  9
$SHADEDGE
 70
     3
  9
$SHADEDIF
 70
    70
  9
$TILEMODE
 70
     1
  9
$MAXACTVP
 70
    48
  9
$PINSBASE
 10
0.0
 20
0.0
 30
0.0
  9
$PLIMCHECK
 70
     0
  9
$PEXTMIN
 10
-5.639720244523232
 20
-6.296546991387913
 30
0.0
  9
$PEXTMAX
 10
834.3956480283654
 20
560.9320000029947
 30
0.0
  9
$PLIMMIN
 10
-7.500000000000001
 20
-20.0
  9
$PLIMMAX
 10
833.5000000000002
 20
574.0000000000001
  9
$UNITMODE
 70
     0
  9
$VISRETAIN
 70
     1
  9
$PLINEGEN
 70
     0
  9
$PSLTSCALE
 70
     1
  9
$TREEDEPTH
 70
  3020
  9
$PICKSTYLE
 70
     1
  9
$CMLSTYLE
  2
STANDARD
  9
$CMLJUST
 70
     0
  9
$CMLSCALE
 40
20.0
  9
$SAVEIMAGES
 70
     1
  0
ENDSEC
  0
SECTION
  2
CLASSES
  0
CLASS
  1
ACDBDICTIONARYWDFLT
  2
AcDbDictionaryWithDefault
  3
AutoCAD 2000
 90
    32768
280
     0
281
     0
  0
CLASS
  1
ACDBPLACEHOLDER
  2
AcDbPlaceHolder
  3
AutoCAD 2000
 90
    32768
280
     0
281
     0
  0
CLASS
  1
LAYOUT
  2
AcDbLayout
  3
AutoCAD 2000
 90
    32768
280
     0
281
     0
  0
CLASS
  1
RTEXT
  2
RText
  3
RText|AutoCAD Express Tool|expresstools@autodesk.com
 90
    32768
280
     0
281
     1
  0
CLASS
  1
DICTIONARYVAR
  2
AcDbDictionaryVar
  3
AutoCAD 2000
 90
    32768
280
     0
281
     0
  0
CLASS
  1
LONG_TRANSACTION
  2
AcDbLongTransaction
  3
AutoCAD 2000
 90
    32768
280
     0
281
     0
  0
CLASS
  1
LWPOLYLINE
  2
AcDbPolyline
  3
AutoCAD 2000
 90
    32768
280
     0
281
     1
  0
CLASS
  1
HATCH
  2
AcDbHatch
  3
AutoCAD 2000
 90
    32768
280
     0
281
     1
  0
CLASS
  1
XRECORD
  2
AcDbXrecord
  3
AutoCAD 2000
 90
    32768
280
     0
281
     0
  0
CLASS
  1
LONG_TRANSACTION
  2
AcDbLongTransaction
  3
AutoCAD 2000
 90
    32768
280
     0
281
     0
  0
CLASS
  1
LWPOLYLINE
  2
AcDbPolyline
  3
AutoCAD 2000
 90
    32768
280
     0
281
     1
  0
CLASS
  1
HATCH
  2
AcDbHatch
  3
AutoCAD 2000
 90
    32768
280
     0
281
     1
  0
CLASS
  1
XRECORD
  2
AcDbXrecord
  3
AutoCAD 2000
 90
    32768
280
     0
281
     0
  0
CLASS
  1
LONG_TRANSACTION
  2
AcDbLongTransaction
  3
AutoCAD 2000
 90
    32768
280
     0
281
     0
  0
CLASS
  1
LWPOLYLINE
  2
AcDbPolyline
  3
AutoCAD 2000
 90
    32768
280
     0
281
     1
  0
CLASS
  1
HATCH
  2
AcDbHatch
  3
AutoCAD 2000
 90
    32768
280
     0
281
     1
  0
CLASS
  1
XRECORD
  2
AcDbXrecord
  3
AutoCAD 2000
 90
    32768
280
     0
281
     0
  0
CLASS
  1
LONG_TRANSACTION
  2
AcDbLongTransaction
  3
AutoCAD 2000
 90
    32768
280
     0
281
     0
  0
CLASS
  1
LWPOLYLINE
  2
AcDbPolyline
  3
AutoCAD 2000
 90
    32768
280
     0
281
     1
  0
CLASS
  1
HATCH
  2
AcDbHatch
  3
AutoCAD 2000
 90
    32768
280
     0
281
     1
  0
CLASS
  1
XRECORD
  2
AcDbXrecord
  3
AutoCAD 2000
 90
    32768
280
     0
281
     0
  0
CLASS
  1
LONG_TRANSACTION
  2
AcDbLongTransaction
  3
AutoCAD 2000
 90
    32768
280
     0
281
     0
  0
CLASS
  1
LWPOLYLINE
  2
AcDbPolyline
  3
AutoCAD 2000
 90
    32768
280
     0
281
     1
  0
CLASS
  1
HATCH
  2
AcDbHatch
  3
AutoCAD 2000
 90
    32768
280
     0
281
     1
  0
CLASS
  1
XRECORD
  2
AcDbXrecord
  3
AutoCAD 2000
 90
    32768
280
     0
281
     0
  0
CLASS
  1
LONG_TRANSACTION
  2
AcDbLongTransaction
  3
AutoCAD 2000
 90
    32768
280
     0
281
     0
  0
CLASS
  1
LWPOLYLINE
  2
AcDbPolyline
  3
AutoCAD 2000
 90
    32768
280
     0
281
     1
  0
CLASS
  1
HATCH
  2
AcDbHatch
  3
AutoCAD 2000
 90
    32768
280
     0
281
     1
  0
CLASS
  1
XRECORD
  2
AcDbXrecord
  3
AutoCAD 2000
 90
    32768
280
     0
281
     0
  0
CLASS
  1
LONG_TRANSACTION
  2
AcDbLongTransaction
  3
AutoCAD 2000
 90
    32768
280
     0
281
     0
  0
CLASS
  1
LWPOLYLINE
  2
AcDbPolyline
  3
AutoCAD 2000
 90
    32768
280
     0
281
     1
  0
CLASS
  1
HATCH
  2
AcDbHatch
  3
AutoCAD 2000
 90
    32768
280
     0
281
     1
  0
CLASS
  1
XRECORD
  2
AcDbXrecord
  3
AutoCAD 2000
 90
    32768
280
     0
281
     0
  0
CLASS
  1
LONG_TRANSACTION
  2
AcDbLongTransaction
  3
AutoCAD 2000
 90
    32768
280
     0
281
     0
  0
CLASS
  1
LWPOLYLINE
  2
AcDbPolyline
  3
AutoCAD 2000
 90
    32768
280
     0
281
     1
  0
CLASS
  1
HATCH
  2
AcDbHatch
  3
AutoCAD 2000
 90
    32768
280
     0
281
     1
  0
CLASS
  1
XRECORD
  2
AcDbXrecord
  3
AutoCAD 2000
 90
    32768
280
     0
281
     0
  0
CLASS
  1
LONG_TRANSACTION
  2
AcDbLongTransaction
  3
AutoCAD 2000
 90
    32768
280
     0
281
     0
  0
CLASS
  1
LWPOLYLINE
  2
AcDbPolyline
  3
AutoCAD 2000
 90
    32768
280
     0
281
     1
  0
CLASS
  1
HATCH
  2
AcDbHatch
  3
AutoCAD 2000
 90
    32768
280
     0
281
     1
  0
CLASS
  1
XRECORD
  2
AcDbXrecord
  3
AutoCAD 2000
 90
    32768
280
     0
281
     0
  0
CLASS
  1
LONG_TRANSACTION
  2
AcDbLongTransaction
  3
AutoCAD 2000
 90
    32768
280
     0
281
     0
  0
CLASS
  1
LWPOLYLINE
  2
AcDbPolyline
  3
AutoCAD 2000
 90
    32768
280
     0
281
     1
  0
CLASS
  1
HATCH
  2
AcDbHatch
  3
AutoCAD 2000
 90
    32768
280
     0
281
     1
  0
CLASS
  1
XRECORD
  2
AcDbXrecord
  3
AutoCAD 2000
 90
    32768
280
     0
281
     0
  0
ENDSEC
  0
SECTION
  2
TABLES
  0
TABLE
  2
VPORT
  5
8
330
0
100
AcDbSymbolTable
 70
     2
  0
VPORT
  5
1F3D
330
8
100
AcDbSymbolTableRecord
100
AcDbViewportTableRecord
  2
*ACTIVE
 70
     0
 10
0.0
 20
0.0
 11
1.0
 21
1.0
 12
2970.00004149295
 22
2315.855086644425
 13
0.0
 23
0.0
 14
50.0
 24
50.0
 15
10.0
 25
10.0
 16
0.0
 26
0.0
 36
1.0
 17
0.0
 27
0.0
 37
0.0
 40
4719.038149378898
 41
2.198738170347003
 42
50.0
 43
0.0
 44
0.0
 50
0.0
 51
0.0
 71
     0
 72
   100
 73
     1
 74
     1
 75
     1
 76
     0
 77
     0
 78
     0
  0
ENDTAB
  0
TABLE
  2
LTYPE
  5
5
330
0
100
AcDbSymbolTable
 70
     5
  0
LTYPE
  5
14
330
5
100
AcDbSymbolTableRecord
100
AcDbLinetypeTableRecord
  2
BYBLOCK
 70
     0
  3

 72
    65
 73
     0
 40
0.0
  0
LTYPE
  5
15
330
5
100
AcDbSymbolTableRecord
100
AcDbLinetypeTableRecord
  2
BYLAYER
 70
     0
  3

 72
    65
 73
     0
 40
0.0
  0
LTYPE
  5
16
330
5
100
AcDbSymbolTableRecord
100
AcDbLinetypeTableRecord
  2
CONTINUOUS
 70
     0
  3
Solid line
 72
    65
 73
     0
 40
0.0
  0
LTYPE
  5
555
330
5
100
AcDbSymbolTableRecord
100
AcDbLinetypeTableRecord
  2
CENTER
 70
     0
  3
Center ____ _ ____ _ ____ _ ____ _ ____ _ ____
 72
    65
 73
     4
 40
50.8
 49
31.75
 74
     0
 49
-6.349999999999999
 74
     0
 49
6.349999999999999
 74
     0
 49
-6.349999999999999
 74
     0
  0
LTYPE
  5
556
330
5
100
AcDbSymbolTableRecord
100
AcDbLinetypeTableRecord
  2
HIDDEN
 70
     0
  3
Hidden __ __ __ __ __ __ __ __ __ __ __ __ __ _
 72
    65
 73
     2
 40
9.524999999999998
 49
6.349999999999999
 74
     0
 49
-3.174999999999999
 74
     0
  0
LTYPE
  5
557
330
5
100
AcDbSymbolTableRecord
100
AcDbLinetypeTableRecord
  2
HIDDEN2
 70
     0
  3
Hidden (.5x) _ _ _ _ _ _ _ _ _ _ _ _ _ _ _ _ _
 72
    65
 73
     2
 40
4.762499999999999
 49
3.174999999999999
 74
     0
 49
-1.587499999999999
 74
     0
  0
LTYPE
  5
558
330
5
100
AcDbSymbolTableRecord
100
AcDbLinetypeTableRecord
  2
PHANTOM
 70
     0
  3
Phantom ______  __  __  ______  __  __  ______
 72
    65
 73
     6
 40
63.5
 49
31.75
 74
     0
 49
-6.349999999999999
 74
     0
 49
6.349999999999999
 74
     0
 49
-6.349999999999999
 74
     0
 49
6.349999999999999
 74
     0
 49
-6.349999999999999
 74
     0
  0
ENDTAB
  0
TABLE
  2
LAYER
  5
2
330
0
100
AcDbSymbolTable
 70
    22
  0
LAYER
  5
10
330
2
100
AcDbSymbolTableRecord
100
AcDbLayerTableRecord
  2
0
 70
     0
 62
     7
  6
CONTINUOUS
  0
LAYER
  5
75
330
2
100
AcDbSymbolTableRecord
100
AcDbLayerTableRecord
  2
VIEWPORT
 70
     0
 62
     1
  6
CONTINUOUS
  0
LAYER
  5
504
330
2
100
AcDbSymbolTableRecord
100
AcDbLayerTableRecord
  2
DEFPOINTS
 70
     0
 62
     7
  6
CONTINUOUS
  0
LAYER
  5
505
330
2
100
AcDbSymbolTableRecord
100
AcDbLayerTableRecord
  2
1C1
 70
     0
 62
   254
  6
CONTINUOUS
  0
LAYER
  5
506
330
2
100
AcDbSymbolTableRecord
100
AcDbLayerTableRecord
  2
1C2
 70
     0
 62
   254
  6
CONTINUOUS
  0
LAYER
  5
507
330
2
100
AcDbSymbolTableRecord
100
AcDbLayerTableRecord
  2
2C1
 70
     0
 62
   144
  6
CONTINUOUS
  0
LAYER
  5
508
330
2
100
AcDbSymbolTableRecord
100
AcDbLayerTableRecord
  2
2C2
 70
     0
 62
   144
  6
CONTINUOUS
  0
LAYER
  5
509
330
2
100
AcDbSymbolTableRecord
100
AcDbLayerTableRecord
  2
2H1
 70
     0
 62
   144
  6
HIDDEN
  0
LAYER
  5
50A
330
2
100
AcDbSymbolTableRecord
100
AcDbLayerTableRecord
  2
2H2
 70
     0
 62
   144
  6
HIDDEN2
  0
LAYER
  5
50B
330
2
100
AcDbSymbolTableRecord
100
AcDbLayerTableRecord
  2
2P1
 70
     0
 62
   144
  6
PHANTOM
  0
LAYER
  5
50C
330
2
100
AcDbSymbolTableRecord
100
AcDbLayerTableRecord
  2
3C1
 70
     0
 62
     7
  6
CONTINUOUS
  0
LAYER
  5
50D
330
2
100
AcDbSymbolTableRecord
100
AcDbLayerTableRecord
  2
3C2
 70
     0
 62
     7
  6
CONTINUOUS
  0
LAYER
  5
50E
330
2
100
AcDbSymbolTableRecord
100
AcDbLayerTableRecord
  2
3C3
 70
     0
 62
     7
  6
CONTINUOUS
  0
LAYER
  5
50F
330
2
100
AcDbSymbolTableRecord
100
AcDbLayerTableRecord
  2
4H1
 70
     0
 62
     6
  6
HIDDEN
  0
LAYER
  5
510
330
2
100
AcDbSymbolTableRecord
100
AcDbLayerTableRecord
  2
4H2
 70
     0
 62
     6
  6
HIDDEN2
  0
LAYER
  5
511
330
2
100
AcDbSymbolTableRecord
100
AcDbLayerTableRecord
  2
5C1
 70
     0
 62
    55
  6
CONTINUOUS
  0
LAYER
  5
512
330
2
100
AcDbSymbolTableRecord
100
AcDbLayerTableRecord
  2
5C2
 70
     0
 62
    55
  6
CONTINUOUS
  0
LAYER
  5
513
330
2
100
AcDbSymbolTableRecord
100
AcDbLayerTableRecord
  2
8C1
 70
     0
 62
    92
  6
CONTINUOUS
  0
LAYER
  5
514
330
2
100
AcDbSymbolTableRecord
100
AcDbLayerTableRecord
  2
HOJO
 70
     0
 62
     5
  6
CONTINUOUS
  0
LAYER
  5
515
330
2
100
AcDbSymbolTableRecord
100
AcDbLayerTableRecord
  2
KIJUN
 70
     0
 62
     1
  6
CENTER
  0
LAYER
  5
516
330
2
100
AcDbSymbolTableRecord
100
AcDbLayerTableRecord
  2
MOJI
 70
     0
 62
     7
  6
CONTINUOUS
  0
LAYER
  5
517
330
2
100
AcDbSymbolTableRecord
100
AcDbLayerTableRecord
  2
SUNPO
 70
     0
 62
   144
  6
CONTINUOUS
  0
ENDTAB
  0
TABLE
  2
STYLE
  5
3
330
0
100
AcDbSymbolTable
 70
     6
  0
STYLE
  5
11
330
3
100
AcDbSymbolTableRecord
100
AcDbTextStyleTableRecord
  2
STANDARD
 70
     0
 40
0.0
 41
1.0
 50
0.0
 71
     0
 42
2.5
  3
txt
  4

  0
STYLE
  5
2C
330
3
100
AcDbSymbolTableRecord
100
AcDbTextStyleTableRecord
  2

 70
     1
 40
0.0
 41
1.0
 50
0.0
 71
     0
 42
2.5
  3
ltypeshp.shx
  4

  0
STYLE
  5
18E
330
3
100
AcDbSymbolTableRecord
100
AcDbTextStyleTableRecord
  2
ADD
 70
     0
 40
0.0
 41
1.0
 50
0.0
 71
     0
 42
50.0
  3
romans.shx
  4
bigfont.shx
  0
STYLE
  5
191
330
3
100
AcDbSymbolTableRecord
100
AcDbTextStyleTableRecord
  2
MSG
 70
     0
 40
0.0
 41
1.0
 50
0.0
 71
     0
 42
2.5
  3
MS Gothic.ttf
  4

1001
ACAD
1000
MS Gothic
1071
    32817
  0
STYLE
  5
5C8
330
3
100
AcDbSymbolTableRecord
100
AcDbTextStyleTableRecord
  2
STANDARD15
 70
     0
 40
0.0
 41
1.0
 50
15.0
 71
     0
 42
2.5
  3
ROMANS
  4
bigfont
  0
STYLE
  5
5C9
330
3
100
AcDbSymbolTableRecord
100
AcDbTextStyleTableRecord
  2
ROMANS15
 70
     0
 40
0.0
 41
1.0
 50
15.0
 71
     0
 42
2.5
  3
romans
  4

  0
ENDTAB
  0
TABLE
  2
VIEW
  5
6
330
0
100
AcDbSymbolTable
 70
     1
  0
VIEW
  5
54D
330
6
100
AcDbSymbolTableRecord
100
AcDbViewTableRecord
  2
ALL
 70
     0
 40
594.0
 10
420.5
 20
297.0
 41
865.125
 11
0.0
 21
0.0
 31
1.0
 12
0.0
 22
0.0
 32
0.0
 42
50.0
 43
0.0
 44
0.0
 50
0.0
 71
     0
  0
ENDTAB
  0
TABLE
  2
UCS
  5
7
330
0
100
AcDbSymbolTable
 70
     0
  0
ENDTAB
  0
TABLE
  2
APPID
  5
9
330
0
100
AcDbSymbolTable
 70
     4
  0
APPID
  5
12
330
9
100
AcDbSymbolTableRecord
100
AcDbRegAppTableRecord
  2
ACAD
 70
     0
  0
APPID
  5
5CB
330
9
100
AcDbSymbolTableRecord
100
AcDbRegAppTableRecord
  2
ARAIGUMI_YOHEKI
 70
     0
  0
APPID
  5
5CC
330
9
100
AcDbSymbolTableRecord
100
AcDbRegAppTableRecord
  2
CONTENTTABDATA
 70
     0
  0
APPID
  5
5CD
330
9
100
AcDbSymbolTableRecord
100
AcDbRegAppTableRecord
  2
CONTENTCURRENTTAB
 70
     0
  0
ENDTAB
  0
TABLE
  2
DIMSTYLE
  5
A
330
0
100
AcDbSymbolTable
 70
    10
  0
DIMSTYLE
105
27
330
A
100
AcDbSymbolTableRecord
100
AcDbDimStyleTableRecord
  2
ISO-25
 70
     0
  3

  4

  5

  6

  7

 40
1.0
 41
2.5
 42
0.625
 43
3.75
 44
1.25
 45
0.0
 46
0.0
 47
0.0
 48
0.0
140
2.5
141
2.5
142
0.0
143
0.03937007874016
144
1.0
145
0.0
146
1.0
147
0.625
 71
     0
 72
     0
 73
     0
 74
     0
 75
     0
 76
     0
 77
     1
 78
     8
170
     0
171
     3
172
     1
173
     0
174
     0
175
     0
176
     0
177
     0
178
     0
270
     2
271
     2
272
     2
273
     2
274
     3
340
11
275
     0
280
     0
281
     0
282
     0
283
     0
284
     8
285
     0
286
     0
287
     3
288
     0
  0
DIMSTYLE
105
197
330
A
100
AcDbSymbolTableRecord
100
AcDbDimStyleTableRecord
  2
ADD
 70
     0
  3

  4

  5

  6

  7

 40
1.0
 41
2.5
 42
1.0
 43
7.0
 44
0.5
 45
0.0
 46
0.0
 47
0.0
 48
0.0
140
2.5
141
2.5
142
0.0
143
0.03937007874016
144
1.0
145
0.7
146
1.0
147
0.625
 71
     0
 72
     0
 73
     0
 74
     0
 75
     0
 76
     0
 77
     1
 78
     8
170
     0
171
     3
172
     1
173
     0
174
     1
175
     0
176
   144
177
   144
178
     7
270
     2
271
     1
272
     1
273
     2
274
     3
340
18E
275
     0
280
     0
281
     0
282
     0
283
     2
284
     8
285
     0
286
     0
287
     5
288
     0
  0
DIMSTYLE
105
3E6
330
A
100
AcDbSymbolTableRecord
100
AcDbDimStyleTableRecord
  2
ADD$2
 70
     0
  3

  4

  5

  6

  7

 40
1.0
 41
2.5
 42
1.0
 43
7.0
 44
0.5
 45
0.0
 46
0.0
 47
0.0
 48
0.0
140
2.5
141
2.5
142
0.0
143
0.03937007874016
144
1.0
145
0.7
146
1.0
147
0.625
 71
     0
 72
     0
 73
     0
 74
     0
 75
     0
 76
     0
 77
     1
 78
     8
170
     0
171
     3
172
     1
173
     0
174
     1
175
     0
176
   144
177
   144
178
     7
270
     2
271
     1
272
     1
273
     2
274
     3
340
18E
275
     0
280
     0
281
     0
282
     0
283
     2
284
     8
285
     0
286
     0
287
     5
288
     0
  0
DIMSTYLE
105
3E7
102
{ACAD_REACTORS
330
1991
330
16CD
330
16C3
102
}
330
A
100
AcDbSymbolTableRecord
100
AcDbDimStyleTableRecord
  2
ADD$4
 70
     0
  3

  4

  5

  6

  7

 40
1.0
 41
2.5
 42
1.0
 43
7.0
 44
0.5
 45
0.0
 46
0.0
 47
0.0
 48
0.0
140
2.5
141
2.5
142
0.0
143
0.03937007874016
144
1.0
145
0.0
146
1.0
147
0.625
 71
     0
 72
     0
 73
     0
 74
     0
 75
     0
 76
     0
 77
     1
 78
     8
170
     0
171
     3
172
     1
173
     0
174
     1
175
     0
176
   144
177
   144
178
     7
270
     2
271
     1
272
     1
273
     2
274
     3
340
18E
275
     0
280
     0
281
     0
282
     0
283
     2
284
     8
285
     0
286
     0
287
     5
288
     0
  0
DIMSTYLE
105
3E8
330
A
100
AcDbSymbolTableRecord
100
AcDbDimStyleTableRecord
  2
ADD$3
 70
     0
  3

  4

  5

  6

  7

 40
1.0
 41
2.5
 42
1.0
 43
7.0
 44
0.5
 45
0.0
 46
0.0
 47
0.0
 48
0.0
140
2.5
141
2.5
142
0.0
143
0.03937007874016
144
1.0
145
0.0
146
1.0
147
0.625
 71
     0
 72
     0
 73
     0
 74
     0
 75
     0
 76
     0
 77
     1
 78
     8
170
     0
171
     3
172
     1
173
     0
174
     1
175
     0
176
   144
177
   144
178
     7
270
     2
271
     1
272
     1
273
     2
274
     3
340
18E
275
     0
280
     0
281
     0
282
     0
283
     2
284
     8
285
     0
286
     0
287
     5
288
     0
  0
DIMSTYLE
105
3E9
330
A
100
AcDbSymbolTableRecord
100
AcDbDimStyleTableRecord
  2
ADD$6
 70
     0
  3

  4

  5

  6

  7

 40
1.0
 41
2.5
 42
1.0
 43
7.0
 44
0.5
 45
0.0
 46
0.0
 47
0.0
 48
0.0
140
2.5
141
2.5
142
0.0
143
0.03937007874016
144
1.0
145
0.0
146
1.0
147
0.625
 71
     0
 72
     0
 73
     0
 74
     0
 75
     0
 76
     0
 77
     1
 78
     8
170
     0
171
     3
172
     1
173
     0
174
     1
175
     0
176
   144
177
   144
178
     7
270
     2
271
     1
272
     1
273
     2
274
     3
340
18E
275
     0
280
     0
281
     0
282
     0
283
     2
284
     8
285
     0
286
     0
287
     5
288
     0
  0
DIMSTYLE
105
3EA
330
A
100
AcDbSymbolTableRecord
100
AcDbDimStyleTableRecord
  2
ADD$7
 70
     0
  3

  4

  5

  6

  7

 40
1.0
 41
2.5
 42
1.0
 43
7.0
 44
0.5
 45
0.0
 46
0.0
 47
0.0
 48
0.0
140
2.5
141
2.5
142
0.0
143
0.03937007874016
144
1.0
145
0.0
146
1.0
147
0.625
 71
     0
 72
     0
 73
     0
 74
     0
 75
     0
 76
     0
 77
     0
 78
     8
170
     0
171
     3
172
     1
173
     0
174
     1
175
     0
176
   144
177
   144
178
     7
270
     2
271
     1
272
     1
273
     2
274
     3
340
18E
275
     0
280
     0
281
     0
282
     0
283
     2
284
     8
285
     0
286
     0
287
     5
288
     0
  0
DIMSTYLE
105
518
330
A
100
AcDbSymbolTableRecord
100
AcDbDimStyleTableRecord
  2
STANDARD
 70
     0
  3

  4

  5

  6

  7

 40
1.0
 41
0.18
 42
0.0625
 43
0.38
 44
0.18
 45
0.0
 46
0.0
 47
0.0
 48
0.0
140
0.18
141
0.09
142
0.0
143
25.4
144
1.0
145
0.0
146
1.0
147
0.09
 71
     0
 72
     0
 73
     1
 74
     1
 75
     0
 76
     0
 77
     0
 78
     0
170
     0
171
     2
172
     0
173
     0
174
     0
175
     0
176
     0
177
     0
178
     0
270
     2
271
     4
272
     4
273
     2
274
     2
340
11
275
     0
280
     0
281
     0
282
     0
283
     1
284
     0
285
     0
286
     0
287
     3
288
     0
  0
DIMSTYLE
105
550
102
{ACAD_REACTORS
330
1E17
330
1C82
330
1C75
330
19BE
330
1983
330
1976
330
1969
330
1923
330
1843
330
181A
330
1771
330
15E1
330
1549
330
127C
102
}
330
A
100
AcDbSymbolTableRecord
100
AcDbDimStyleTableRecord
  2
ADD$0
 70
     0
  3

  4

  5

  6

  7

 40
1.0
 41
2.2
 42
1.0
 43
7.0
 44
0.5
 45
0.0
 46
0.0
 47
0.0
 48
0.0
140
2.5
141
2.5
142
0.0
143
0.03937007874016
144
1.0
145
0.7
146
1.0
147
0.625
 71
     0
 72
     0
 73
     0
 74
     0
 75
     0
 76
     0
 77
     1
 78
     8
170
     0
171
     3
172
     1
173
     0
174
     1
175
     0
176
   144
177
   144
178
     7
270
     2
271
     1
272
     1
273
     2
274
     3
340
18E
275
     0
280
     0
281
     0
282
     0
283
     2
284
     8
285
     0
286
     0
287
     5
288
     0
  0
DIMSTYLE
105
59B
330
A
100
AcDbSymbolTableRecord
100
AcDbDimStyleTableRecord
  2
ADD_M
 70
     0
  3

  4

  5

  6

  7

 40
1.0
 41
2.5
 42
1.0
 43
7.0
 44
0.5
 45
0.0
 46
0.0
 47
0.0
 48
0.0
140
2.5
141
2.5
142
0.0
143
0.03937007874016
144
1.0
145
0.7
146
1.0
147
0.625
 71
     0
 72
     0
 73
     0
 74
     0
 75
     0
 76
     0
 77
     1
 78
     8
170
     0
171
     3
172
     1
173
     0
174
     1
175
     0
176
   144
177
   144
178
     7
270
     2
271
     1
272
     1
273
     2
274
     3
340
18E
275
     0
280
     0
281
     0
282
     0
283
     2
284
     8
285
     0
286
     0
287
     5
288
     0
  0
ENDTAB
  0
TABLE
  2
BLOCK_RECORD
  5
1
330
0
100
AcDbSymbolTable
 70
    22
  0
BLOCK_RECORD
  5
1F
102
{ACAD_XDICTIONARY
360
19D8
102
}
330
1
100
AcDbSymbolTableRecord
100
AcDbBlockTableRecord
  2
*MODEL_SPACE
  0
BLOCK_RECORD
  5
1B
102
{ACAD_XDICTIONARY
360
19DA
102
}
330
1
100
AcDbSymbolTableRecord
100
AcDbBlockTableRecord
  2
*PAPER_SPACE
  0
BLOCK_RECORD
  5
192
330
1
100
AcDbSymbolTableRecord
100
AcDbBlockTableRecord
  2
_DOT
  0
BLOCK_RECORD
  5
5CE
330
1
100
AcDbSymbolTableRecord
100
AcDbBlockTableRecord
  2
A4
  0
BLOCK_RECORD
  5
636
330
1
100
AcDbSymbolTableRecord
100
AcDbBlockTableRecord
  2
_OPEN90
  0
BLOCK_RECORD
  5
63C
330
1
100
AcDbSymbolTableRecord
100
AcDbBlockTableRecord
  2
_OPEN30
  0
BLOCK_RECORD
  5
FDC
330
1
100
AcDbSymbolTableRecord
100
AcDbBlockTableRecord
  2
_DATUMFILLED
  0
BLOCK_RECORD
  5
127D
330
1
100
AcDbSymbolTableRecord
100
AcDbBlockTableRecord
  2
*D5
  0
BLOCK_RECORD
  5
154A
330
1
100
AcDbSymbolTableRecord
100
AcDbBlockTableRecord
  2
*D6
  0
BLOCK_RECORD
  5
15E2
330
1
100
AcDbSymbolTableRecord
100
AcDbBlockTableRecord
  2
*D7
  0
BLOCK_RECORD
  5
16C4
330
1
100
AcDbSymbolTableRecord
100
AcDbBlockTableRecord
  2
*D8
  0
BLOCK_RECORD
  5
16CE
330
1
100
AcDbSymbolTableRecord
100
AcDbBlockTableRecord
  2
*D9
  0
BLOCK_RECORD
  5
1772
330
1
100
AcDbSymbolTableRecord
100
AcDbBlockTableRecord
  2
*D10
  0
BLOCK_RECORD
  5
181B
330
1
100
AcDbSymbolTableRecord
100
AcDbBlockTableRecord
  2
*D11
  0
BLOCK_RECORD
  5
1844
330
1
100
AcDbSymbolTableRecord
100
AcDbBlockTableRecord
  2
*D12
  0
BLOCK_RECORD
  5
1924
330
1
100
AcDbSymbolTableRecord
100
AcDbBlockTableRecord
  2
*D13
  0
BLOCK_RECORD
  5
196A
330
1
100
AcDbSymbolTableRecord
100
AcDbBlockTableRecord
  2
*D14
  0
BLOCK_RECORD
  5
1977
330
1
100
AcDbSymbolTableRecord
100
AcDbBlockTableRecord
  2
*D15
  0
BLOCK_RECORD
  5
1984
330
1
100
AcDbSymbolTableRecord
100
AcDbBlockTableRecord
  2
*D16
  0
BLOCK_RECORD
  5
1992
330
1
100
AcDbSymbolTableRecord
100
AcDbBlockTableRecord
  2
*D17
  0
BLOCK_RECORD
  5
19BF
330
1
100
AcDbSymbolTableRecord
100
AcDbBlockTableRecord
  2
*D18
  0
BLOCK_RECORD
  5
1C76
330
1
100
AcDbSymbolTableRecord
100
AcDbBlockTableRecord
  2
*D19
  0
BLOCK_RECORD
  5
1C83
330
1
100
AcDbSymbolTableRecord
100
AcDbBlockTableRecord
  2
*D20
  0
BLOCK_RECORD
  5
1E18
330
1
100
AcDbSymbolTableRecord
100
AcDbBlockTableRecord
  2
*D21
  0
ENDTAB
  0
ENDSEC
  0
SECTION
  2
BLOCKS
  0
BLOCK
  5
20
330
1F
100
AcDbEntity
  8
0
100
AcDbBlockBegin
  2
*MODEL_SPACE
 70
     0
 10
0.0
 20
0.0
 30
0.0
  3
*MODEL_SPACE
  1

  0
ENDBLK
  5
21
330
1F
100
AcDbEntity
  8
0
100
AcDbBlockEnd
  0
BLOCK
  5
1C
330
1B
100
AcDbEntity
 67
     1
  8
0
100
AcDbBlockBegin
  2
*PAPER_SPACE
 70
     0
 10
0.0
 20
0.0
 30
0.0
  3
*PAPER_SPACE
  1

  0
ENDBLK
  5
1D
330
1B
100
AcDbEntity
 67
     1
  8
0
100
AcDbBlockEnd
  0
BLOCK
  5
195
330
192
100
AcDbEntity
  8
0
100
AcDbBlockBegin
  2
_DOT
 70
     0
 10
0.0
 20
0.0
 30
0.0
  3
_DOT
  1

  0
POLYLINE
  5
193
330
192
100
AcDbEntity
  8
0
 62
     0
100
AcDb2dPolyline
 66
     1
 10
0.0
 20
0.0
 30
0.0
 70
     1
 40
0.5
 41
0.5
  0
VERTEX
  5
1F40
330
193
100
AcDbEntity
  8
0
 62
     0
100
AcDbVertex
100
AcDb2dVertex
 10
-0.25
 20
0.0
 30
0.0
 42
1.0
  0
VERTEX
  5
1F41
330
193
100
AcDbEntity
  8
0
 62
     0
100
AcDbVertex
100
AcDb2dVertex
 10
0.25
 20
0.0
 30
0.0
 42
1.0
  0
SEQEND
  5
1F42
330
193
100
AcDbEntity
  8
0
 62
     0
  0
LINE
  5
194
330
192
100
AcDbEntity
  8
0
 62
     0
100
AcDbLine
 10
-0.5
 20
0.0
 30
0.0
 11
-1.0
 21
0.0
 31
0.0
  0
ENDBLK
  5
196
330
192
100
AcDbEntity
  8
0
100
AcDbBlockEnd
  0
BLOCK
  5
5D1
330
5CE
100
AcDbEntity
  8
0
100
AcDbBlockBegin
  2
A4
 70
     0
 10
0.0
 20
0.0
 30
0.0
  3
A4
  1

  0
POLYLINE
  5
5CF
330
5CE
100
AcDbEntity
  8
HOJO
100
AcDb2dPolyline
 66
     1
 10
0.0
 20
0.0
 30
0.0
 70
     1
  0
VERTEX
  5
1F43
330
5CF
100
AcDbEntity
  8
HOJO
100
AcDbVertex
100
AcDb2dVertex
 10
0.0
 20
0.0
 30
0.0
  0
VERTEX
  5
1F44
330
5CF
100
AcDbEntity
  8
HOJO
100
AcDbVertex
100
AcDb2dVertex
 10
297.0
 20
0.0
 30
0.0
  0
VERTEX
  5
1F45
330
5CF
100
AcDbEntity
  8
HOJO
100
AcDbVertex
100
AcDb2dVertex
 10
297.0
 20
210.0
 30
0.0
  0
VERTEX
  5
1F46
330
5CF
100
AcDbEntity
  8
HOJO
100
AcDbVertex
100
AcDb2dVertex
 10
0.0
 20
210.0
 30
0.0
  0
SEQEND
  5
1F47
330
5CF
100
AcDbEntity
  8
HOJO
  0
POLYLINE
  5
5D0
330
5CE
100
AcDbEntity
  8
HOJO
100
AcDb2dPolyline
 66
     1
 10
0.0
 20
0.0
 30
0.0
 70
     1
  0
VERTEX
  5
1F48
330
5D0
100
AcDbEntity
  8
HOJO
100
AcDbVertex
100
AcDb2dVertex
 10
18.0
 20
13.0
 30
0.0
  0
VERTEX
  5
1F49
330
5D0
100
AcDbEntity
  8
HOJO
100
AcDbVertex
100
AcDb2dVertex
 10
279.0
 20
13.0
 30
0.0
  0
VERTEX
  5
1F4A
330
5D0
100
AcDbEntity
  8
HOJO
100
AcDbVertex
100
AcDb2dVertex
 10
279.0
 20
197.0
 30
0.0
  0
VERTEX
  5
1F4B
330
5D0
100
AcDbEntity
  8
HOJO
100
AcDbVertex
100
AcDb2dVertex
 10
18.0
 20
197.0
 30
0.0
  0
SEQEND
  5
1F4C
330
5D0
100
AcDbEntity
  8
HOJO
  0
ENDBLK
  5
5D2
330
5CE
100
AcDbEntity
  8
0
100
AcDbBlockEnd
  0
BLOCK
  5
63A
330
636
100
AcDbEntity
  8
0
100
AcDbBlockBegin
  2
_OPEN90
 70
     0
 10
0.0
 20
0.0
 30
0.0
  3
_OPEN90
  1

  0
LINE
  5
637
330
636
100
AcDbEntity
  8
SUNPO
 62
     0
100
AcDbLine
 10
-0.5
 20
0.5
 30
0.0
 11
0.0
 21
0.0
 31
0.0
  0
LINE
  5
638
330
636
100
AcDbEntity
  8
SUNPO
 62
     0
100
AcDbLine
 10
0.0
 20
0.0
 30
0.0
 11
-0.5
 21
-0.5
 31
0.0
  0
LINE
  5
639
330
636
100
AcDbEntity
  8
SUNPO
 62
     0
100
AcDbLine
 10
0.0
 20
0.0
 30
0.0
 11
-1.0
 21
0.0
 31
0.0
  0
ENDBLK
  5
63B
330
636
100
AcDbEntity
  8
0
100
AcDbBlockEnd
  0
BLOCK
  5
640
330
63C
100
AcDbEntity
  8
0
100
AcDbBlockBegin
  2
_OPEN30
 70
     0
 10
0.0
 20
0.0
 30
0.0
  3
_OPEN30
  1

  0
LINE
  5
63D
330
63C
100
AcDbEntity
  8
SUNPO
 62
     0
100
AcDbLine
 10
-1.0
 20
0.26794919
 30
0.0
 11
0.0
 21
0.0
 31
0.0
  0
LINE
  5
63E
330
63C
100
AcDbEntity
  8
SUNPO
 62
     0
100
AcDbLine
 10
0.0
 20
0.0
 30
0.0
 11
-1.0
 21
-0.26794919
 31
0.0
  0
LINE
  5
63F
330
63C
100
AcDbEntity
  8
SUNPO
 62
     0
100
AcDbLine
 10
0.0
 20
0.0
 30
0.0
 11
-1.0
 21
0.0
 31
0.0
  0
ENDBLK
  5
641
330
63C
100
AcDbEntity
  8
0
100
AcDbBlockEnd
  0
BLOCK
  5
FDE
330
FDC
100
AcDbEntity
  8
0
100
AcDbBlockBegin
  2
_DATUMFILLED
 70
     0
 10
0.0
 20
0.0
 30
0.0
  3
_DATUMFILLED
  1

  0
SOLID
  5
FDD
330
FDC
100
AcDbEntity
  8
MOJI
 62
     0
100
AcDbTrace
 10
0.0
 20
0.5773502700000001
 30
0.0
 11
-1.0
 21
0.0
 31
0.0
 12
0.0
 22
-0.5773502700000001
 32
0.0
 13
0.0
 23
-0.5773502700000001
 33
0.0
  0
ENDBLK
  5
FDF
330
FDC
100
AcDbEntity
  8
0
100
AcDbBlockEnd
  0
BLOCK
  5
1287
330
127D
100
AcDbEntity
  8
0
100
AcDbBlockBegin
  2
*D5
 70
     1
 10
0.0
 20
0.0
 30
0.0
  3
*D5
  1

  0
LINE
  5
14C8
330
127D
100
AcDbEntity
  8
SUNPO
 62
   144
100
AcDbLine
 10
1422.5
 20
3052.321101437184
 30
0.0
 11
1422.5
 21
3160.0
 31
0.0
  0
LINE
  5
14C9
330
127D
100
AcDbEntity
  8
SUNPO
 62
   144
100
AcDbLine
 10
1577.499999999999
 20
3052.321101437183
 30
0.0
 11
1577.499999999999
 21
3160.0
 31
0.0
  0
LINE
  5
14CA
330
127D
100
AcDbEntity
  8
SUNPO
 62
   144
100
AcDbLine
 10
1450.5
 20
3150.0
 30
0.0
 11
1549.499999999999
 21
3150.0
 31
0.0
  0
SOLID
  5
14CB
330
127D
100
AcDbEntity
  8
SUNPO
 62
   144
100
AcDbTrace
 10
1450.5
 20
3154.666666666666
 30
0.0
 11
1450.5
 21
3145.333333333333
 31
0.0
 12
1422.5
 22
3150.0
 32
0.0
 13
1422.5
 23
3150.0
 33
0.0
  0
SOLID
  5
14CC
330
127D
100
AcDbEntity
  8
SUNPO
 62
   144
100
AcDbTrace
 10
1549.499999999999
 20
3154.666666666666
 30
0.0
 11
1549.499999999999
 21
3145.333333333333
 31
0.0
 12
1577.499999999999
 22
3150.0
 32
0.0
 13
1577.499999999999
 23
3150.0
 33
0.0
  0
MTEXT
  5
14CD
330
127D
100
AcDbEntity
  8
SUNPO
 62
     7
100
AcDbMText
 10
1500.0
 20
3181.5
 30
0.0
 40
38.0
 41
0.0
 71
     5
 72
     1
  1
\A2;155
  7
ADD
1001
ACAD
1000
MTEXTBEGIN
1070
    73
1070
     1
1070
    44
1040
1.0
1070
    74
1070
     0
1000
MTEXTEND
1000
MTEXTBEGIN
1070
    73
1070
     1
1070
    44
1040
1.0
1070
    74
1070
     0
1000
MTEXTEND
1000
MTEXTBEGIN
1070
    73
1070
     1
1070
    44
1040
1.0
1070
    74
1070
     0
1000
MTEXTEND
1000
MTEXTBEGIN
1070
    73
1070
     1
1070
    44
1040
1.0
1070
    74
1070
     0
1000
MTEXTEND
1000
MTEXTBEGIN
1070
    73
1070
     1
1070
    44
1040
1.0
1070
    74
1070
     0
1000
MTEXTEND
1000
MTEXTBEGIN
1070
    73
1070
     1
1070
    44
1040
1.0
1070
    74
1070
     0
1000
MTEXTEND
1000
MTEXTBEGIN
1070
    73
1070
     1
1070
    44
1040
1.0
1070
    74
1070
     0
1000
MTEXTEND
1000
MTEXTBEGIN
1070
    73
1070
     1
1070
    44
1040
1.0
1070
    74
1070
     0
1000
MTEXTEND
1000
MTEXTBEGIN
1070
    73
1070
     1
1070
    44
1040
1.0
1070
    74
1070
     0
1000
MTEXTEND
1000
MTEXTBEGIN
1070
    73
1070
     1
1070
    44
1040
1.0
1070
    74
1070
     0
1000
MTEXTEND
  0
POINT
  5
14CE
330
127D
100
AcDbEntity
  8
DEFPOINTS
 62
     0
100
AcDbPoint
 10
1422.5
 20
3032.321101437183
 30
0.0
  0
POINT
  5
14CF
330
127D
100
AcDbEntity
  8
DEFPOINTS
 62
     0
100
AcDbPoint
 10
1577.499999999999
 20
3032.321101437183
 30
0.0
  0
POINT
  5
14D0
330
127D
100
AcDbEntity
  8
DEFPOINTS
 62
     0
100
AcDbPoint
 10
1577.499999999999
 20
3150.0
 30
0.0
  0
ENDBLK
  5
1288
330
127D
100
AcDbEntity
  8
0
100
AcDbBlockEnd
  0
BLOCK
  5
1556
330
154A
100
AcDbEntity
  8
0
100
AcDbBlockBegin
  2
*D6
 70
     1
 10
0.0
 20
0.0
 30
0.0
  3
*D6
  1

  0
LINE
  5
154B
330
154A
100
AcDbEntity
  8
SUNPO
 62
   144
100
AcDbLine
 10
2630.0
 20
2900.0
 30
0.0
 11
2540.0
 21
2900.0
 31
0.0
  0
LINE
  5
154C
330
154A
100
AcDbEntity
  8
SUNPO
 62
   144
100
AcDbLine
 10
2630.0
 20
2850.0
 30
0.0
 11
2540.0
 21
2850.0
 31
0.0
  0
LINE
  5
154D
330
154A
100
AcDbEntity
  8
SUNPO
 62
   144
100
AcDbLine
 10
2550.0
 20
2928.0
 30
0.0
 11
2550.0
 21
2956.0
 31
0.0
  0
LINE
  5
154E
330
154A
100
AcDbEntity
  8
SUNPO
 62
   144
100
AcDbLine
 10
2550.0
 20
2822.0
 30
0.0
 11
2550.0
 21
2794.0
 31
0.0
  0
LINE
  5
154F
330
154A
100
AcDbEntity
  8
SUNPO
 62
   144
100
AcDbLine
 10
2550.0
 20
2900.0
 30
0.0
 11
2550.0
 21
2850.0
 31
0.0
  0
SOLID
  5
1550
330
154A
100
AcDbEntity
  8
SUNPO
 62
   144
100
AcDbTrace
 10
2545.333333333333
 20
2928.0
 30
0.0
 11
2554.666666666666
 21
2928.0
 31
0.0
 12
2550.0
 22
2900.0
 32
0.0
 13
2550.0
 23
2900.0
 33
0.0
  0
SOLID
  5
1551
330
154A
100
AcDbEntity
  8
SUNPO
 62
   144
100
AcDbTrace
 10
2545.333333333333
 20
2822.0
 30
0.0
 11
2554.666666666666
 21
2822.0
 31
0.0
 12
2550.0
 22
2850.0
 32
0.0
 13
2550.0
 23
2850.0
 33
0.0
  0
MTEXT
  5
1552
330
154A
100
AcDbEntity
  8
SUNPO
 62
     7
100
AcDbMText
 10
2518.499999999999
 20
2875.0
 30
0.0
 40
38.0
 41
0.0
 71
     5
 72
     1
  1
\A2;50
  7
ADD
 11
0.0000000000000001
 21
1.0
 31
0.0
1001
ACAD
1000
MTEXTBEGIN
1070
    73
1070
     1
1070
    44
1040
1.0
1070
    74
1070
     0
1000
MTEXTEND
1000
MTEXTBEGIN
1070
    73
1070
     1
1070
    44
1040
1.0
1070
    74
1070
     0
1000
MTEXTEND
1000
MTEXTBEGIN
1070
    73
1070
     1
1070
    44
1040
1.0
1070
    74
1070
     0
1000
MTEXTEND
1000
MTEXTBEGIN
1070
    73
1070
     1
1070
    44
1040
1.0
1070
    74
1070
     0
1000
MTEXTEND
1000
MTEXTBEGIN
1070
    73
1070
     1
1070
    44
1040
1.0
1070
    74
1070
     0
1000
MTEXTEND
1000
MTEXTBEGIN
1070
    73
1070
     1
1070
    44
1040
1.0
1070
    74
1070
     0
1000
MTEXTEND
1000
MTEXTBEGIN
1070
    73
1070
     1
1070
    44
1040
1.0
1070
    74
1070
     0
1000
MTEXTEND
1000
MTEXTBEGIN
1070
    73
1070
     1
1070
    44
1040
1.0
1070
    74
1070
     0
1000
MTEXTEND
1000
MTEXTBEGIN
1070
    73
1070
     1
1070
    44
1040
1.0
1070
    74
1070
     0
1000
MTEXTEND
1000
MTEXTBEGIN
1070
    73
1070
     1
1070
    44
1040
1.0
1070
    74
1070
     0
1000
MTEXTEND
  0
POINT
  5
1553
330
154A
100
AcDbEntity
  8
DEFPOINTS
 62
     0
100
AcDbPoint
 10
2650.0
 20
2900.0
 30
0.0
  0
POINT
  5
1554
330
154A
100
AcDbEntity
  8
DEFPOINTS
 62
     0
100
AcDbPoint
 10
2650.0
 20
2850.0
 30
0.0
  0
POINT
  5
1555
330
154A
100
AcDbEntity
  8
DEFPOINTS
 62
     0
100
AcDbPoint
 10
2550.0
 20
2850.0
 30
0.0
  0
ENDBLK
  5
1557
330
154A
100
AcDbEntity
  8
0
100
AcDbBlockEnd
  0
BLOCK
  5
15EE
330
15E2
100
AcDbEntity
  8
0
100
AcDbBlockBegin
  2
*D7
 70
     1
 10
0.0
 20
0.0
 30
0.0
  3
*D7
  1

  0
LINE
  5
15E3
330
15E2
100
AcDbEntity
  8
SUNPO
 62
   144
100
AcDbLine
 10
2769.999999999999
 20
2890.0
 30
0.0
 11
2910.0
 21
2890.0
 31
0.0
  0
LINE
  5
15E4
330
15E2
100
AcDbEntity
  8
SUNPO
 62
   144
100
AcDbLine
 10
2770.0
 20
2850.0
 30
0.0
 11
2910.0
 21
2850.0
 31
0.0
  0
LINE
  5
15E5
330
15E2
100
AcDbEntity
  8
SUNPO
 62
   144
100
AcDbLine
 10
2900.0
 20
2918.0
 30
0.0
 11
2900.0
 21
2946.0
 31
0.0
  0
LINE
  5
15E6
330
15E2
100
AcDbEntity
  8
SUNPO
 62
   144
100
AcDbLine
 10
2900.0
 20
2822.0
 30
0.0
 11
2900.0
 21
2794.0
 31
0.0
  0
LINE
  5
15E7
330
15E2
100
AcDbEntity
  8
SUNPO
 62
   144
100
AcDbLine
 10
2900.0
 20
2890.0
 30
0.0
 11
2900.0
 21
2850.0
 31
0.0
  0
SOLID
  5
15E8
330
15E2
100
AcDbEntity
  8
SUNPO
 62
   144
100
AcDbTrace
 10
2895.333333333333
 20
2918.0
 30
0.0
 11
2904.666666666667
 21
2918.0
 31
0.0
 12
2900.0
 22
2890.0
 32
0.0
 13
2900.0
 23
2890.0
 33
0.0
  0
SOLID
  5
15E9
330
15E2
100
AcDbEntity
  8
SUNPO
 62
   144
100
AcDbTrace
 10
2895.333333333333
 20
2822.0
 30
0.0
 11
2904.666666666667
 21
2822.0
 31
0.0
 12
2900.0
 22
2850.0
 32
0.0
 13
2900.0
 23
2850.0
 33
0.0
  0
MTEXT
  5
15EA
330
15E2
100
AcDbEntity
  8
SUNPO
 62
     7
100
AcDbMText
 10
2868.499999999999
 20
2870.0
 30
0.0
 40
38.0
 41
0.0
 71
     5
 72
     1
  1
\A2;40
  7
ADD
 11
0.0000000000000001
 21
1.0
 31
0.0
1001
ACAD
1000
MTEXTBEGIN
1070
    73
1070
     1
1070
    44
1040
1.0
1070
    74
1070
     0
1000
MTEXTEND
1000
MTEXTBEGIN
1070
    73
1070
     1
1070
    44
1040
1.0
1070
    74
1070
     0
1000
MTEXTEND
1000
MTEXTBEGIN
1070
    73
1070
     1
1070
    44
1040
1.0
1070
    74
1070
     0
1000
MTEXTEND
1000
MTEXTBEGIN
1070
    73
1070
     1
1070
    44
1040
1.0
1070
    74
1070
     0
1000
MTEXTEND
1000
MTEXTBEGIN
1070
    73
1070
     1
1070
    44
1040
1.0
1070
    74
1070
     0
1000
MTEXTEND
1000
MTEXTBEGIN
1070
    73
1070
     1
1070
    44
1040
1.0
1070
    74
1070
     0
1000
MTEXTEND
1000
MTEXTBEGIN
1070
    73
1070
     1
1070
    44
1040
1.0
1070
    74
1070
     0
1000
MTEXTEND
1000
MTEXTBEGIN
1070
    73
1070
     1
1070
    44
1040
1.0
1070
    74
1070
     0
1000
MTEXTEND
1000
MTEXTBEGIN
1070
    73
1070
     1
1070
    44
1040
1.0
1070
    74
1070
     0
1000
MTEXTEND
1000
MTEXTBEGIN
1070
    73
1070
     1
1070
    44
1040
1.0
1070
    74
1070
     0
1000
MTEXTEND
  0
POINT
  5
15EB
330
15E2
100
AcDbEntity
  8
DEFPOINTS
 62
     0
100
AcDbPoint
 10
2750.0
 20
2890.0
 30
0.0
  0
POINT
  5
15EC
330
15E2
100
AcDbEntity
  8
DEFPOINTS
 62
     0
100
AcDbPoint
 10
2750.0
 20
2850.0
 30
0.0
  0
POINT
  5
15ED
330
15E2
100
AcDbEntity
  8
DEFPOINTS
 62
     0
100
AcDbPoint
 10
2900.0
 20
2850.0
 30
0.0
  0
ENDBLK
  5
15EF
330
15E2
100
AcDbEntity
  8
0
100
AcDbBlockEnd
  0
BLOCK
  5
16CB
330
16C4
100
AcDbEntity
  8
0
100
AcDbBlockBegin
  2
*D8
 70
     1
 10
0.0
 20
0.0
 30
0.0
  3
*D8
  1

  0
LINE
  5
16C5
330
16C4
100
AcDbEntity
  8
SUNPO
 62
   144
100
AcDbLine
 10
2864.126015137951
 20
3008.981392709498
 30
0.0
 11
2757.918996215326
 21
2902.047464277329
 31
0.0
  0
MTEXT
  5
16C6
330
16C4
100
AcDbEntity
  8
SUNPO
 62
     7
100
AcDbMText
 10
2798.538483529837
 20
2987.64539783824
 30
0.0
 40
38.0
 41
0.0
 71
     5
 72
     1
  1
\A2;R40
  7
ADD
 11
0.7046911208136307
 21
0.7095142170854852
 31
0.0
1001
ACAD
1000
MTEXTBEGIN
1070
    73
1070
     1
1070
    44
1040
1.0
1070
    74
1070
     0
1000
MTEXTEND
1000
MTEXTBEGIN
1070
    73
1070
     1
1070
    44
1040
1.0
1070
    74
1070
     0
1000
MTEXTEND
1000
MTEXTBEGIN
1070
    73
1070
     1
1070
    44
1040
1.0
1070
    74
1070
     0
1000
MTEXTEND
1000
MTEXTBEGIN
1070
    73
1070
     1
1070
    44
1040
1.0
1070
    74
1070
     0
1000
MTEXTEND
1000
MTEXTBEGIN
1070
    73
1070
     1
1070
    44
1040
1.0
1070
    74
1070
     0
1000
MTEXTEND
1000
MTEXTBEGIN
1070
    73
1070
     1
1070
    44
1040
1.0
1070
    74
1070
     0
1000
MTEXTEND
1000
MTEXTBEGIN
1070
    73
1070
     1
1070
    44
1040
1.0
1070
    74
1070
     0
1000
MTEXTEND
1000
MTEXTBEGIN
1070
    73
1070
     1
1070
    44
1040
1.0
1070
    74
1070
     0
1000
MTEXTEND
1000
MTEXTBEGIN
1070
    73
1070
     1
1070
    44
1040
1.0
1070
    74
1070
     0
1000
MTEXTEND
1000
MTEXTBEGIN
1070
    73
1070
     1
1070
    44
1040
1.0
1070
    74
1070
     0
1000
MTEXTEND
  0
LINE
  5
16C7
330
16C4
100
AcDbEntity
  8
SUNPO
 62
   144
100
AcDbLine
 10
2709.999999999999
 20
2853.800497515516
 30
0.0
 11
2738.187644832545
 21
2882.181066198935
 31
0.0
  0
SOLID
  5
16C8
330
16C4
100
AcDbEntity
  8
SUNPO
 62
   144
100
AcDbTrace
 10
2754.607929868927
 20
2905.336022841126
 30
0.0
 11
2761.230062561725
 21
2898.758905713532
 31
0.0
 12
2738.187644832545
 22
2882.181066198935
 32
0.0
 13
2738.187644832545
 23
2882.181066198935
 33
0.0
  0
POINT
  5
16C9
330
16C4
100
AcDbEntity
  8
DEFPOINTS
 62
     0
100
AcDbPoint
 10
2738.187644832545
 20
2882.181066198935
 30
0.0
  0
POINT
  5
16CA
330
16C4
100
AcDbEntity
  8
DEFPOINTS
 62
     0
100
AcDbPoint
 10
2709.999999999999
 20
2853.800497515516
 30
0.0
  0
ENDBLK
  5
16CC
330
16C4
100
AcDbEntity
  8
0
100
AcDbBlockEnd
  0
BLOCK
  5
16D5
330
16CE
100
AcDbEntity
  8
0
100
AcDbBlockBegin
  2
*D9
 70
     1
 10
0.0
 20
0.0
 30
0.0
  3
*D9
  1

  0
LINE
  5
16CF
330
16CE
100
AcDbEntity
  8
SUNPO
 62
   144
100
AcDbLine
 10
1710.397641659334
 20
3153.721211298599
 30
0.0
 11
1594.67929723455
 21
3057.160035446427
 31
0.0
  0
MTEXT
  5
16D0
330
16CE
100
AcDbEntity
  8
SUNPO
 62
     7
100
AcDbMText
 10
1643.105918241468
 20
3138.595969513914
 30
0.0
 40
38.0
 41
0.0
 71
     5
 72
     1
  1
\A2;R30
  7
ADD
 11
0.7677994416810385
 21
0.6406902663177316
 31
0.0
1001
ACAD
1000
MTEXTBEGIN
1070
    73
1070
     1
1070
    44
1040
1.0
1070
    74
1070
     0
1000
MTEXTEND
1000
MTEXTBEGIN
1070
    73
1070
     1
1070
    44
1040
1.0
1070
    74
1070
     0
1000
MTEXTEND
1000
MTEXTBEGIN
1070
    73
1070
     1
1070
    44
1040
1.0
1070
    74
1070
     0
1000
MTEXTEND
1000
MTEXTBEGIN
1070
    73
1070
     1
1070
    44
1040
1.0
1070
    74
1070
     0
1000
MTEXTEND
1000
MTEXTBEGIN
1070
    73
1070
     1
1070
    44
1040
1.0
1070
    74
1070
     0
1000
MTEXTEND
1000
MTEXTBEGIN
1070
    73
1070
     1
1070
    44
1040
1.0
1070
    74
1070
     0
1000
MTEXTEND
1000
MTEXTBEGIN
1070
    73
1070
     1
1070
    44
1040
1.0
1070
    74
1070
     0
1000
MTEXTEND
1000
MTEXTBEGIN
1070
    73
1070
     1
1070
    44
1040
1.0
1070
    74
1070
     0
1000
MTEXTEND
1000
MTEXTBEGIN
1070
    73
1070
     1
1070
    44
1040
1.0
1070
    74
1070
     0
1000
MTEXTEND
1000
MTEXTBEGIN
1070
    73
1070
     1
1070
    44
1040
1.0
1070
    74
1070
     0
1000
MTEXTEND
  0
LINE
  5
16D1
330
16CE
100
AcDbEntity
  8
SUNPO
 62
   144
100
AcDbLine
 10
1550.14692961705
 20
3019.999999999999
 30
0.0
 11
1573.180912867481
 21
3039.22070798953
 31
0.0
  0
SOLID
  5
16D2
330
16CE
100
AcDbEntity
  8
SUNPO
 62
   144
100
AcDbTrace
 10
1591.689409325067
 20
3060.743099507606
 30
0.0
 11
1597.669185144033
 21
3053.576971385249
 31
0.0
 12
1573.180912867481
 22
3039.22070798953
 32
0.0
 13
1573.180912867481
 23
3039.22070798953
 33
0.0
  0
POINT
  5
16D3
330
16CE
100
AcDbEntity
  8
DEFPOINTS
 62
     0
100
AcDbPoint
 10
1573.180912867481
 20
3039.22070798953
 30
0.0
  0
POINT
  5
16D4
330
16CE
100
AcDbEntity
  8
DEFPOINTS
 62
     0
100
AcDbPoint
 10
1550.14692961705
 20
3019.999999999999
 30
0.0
  0
ENDBLK
  5
16D6
330
16CE
100
AcDbEntity
  8
0
100
AcDbBlockEnd
  0
BLOCK
  5
177C
330
1772
100
AcDbEntity
  8
0
100
AcDbBlockBegin
  2
*D10
 70
     1
 10
0.0
 20
0.0
 30
0.0
  3
*D10
  1

  0
LINE
  5
1773
330
1772
100
AcDbEntity
  8
SUNPO
 62
   144
100
AcDbLine
 10
1480.0
 20
3050.0
 30
0.0
 11
1470.0
 21
3050.0
 31
0.0
  0
LINE
  5
1774
330
1772
100
AcDbEntity
  8
SUNPO
 62
   144
100
AcDbLine
 10
1480.0
 20
2850.0
 30
0.0
 11
1470.0
 21
2850.0
 31
0.0
  0
LINE
  5
1775
330
1772
100
AcDbEntity
  8
SUNPO
 62
   144
100
AcDbLine
 10
1480.0
 20
3022.0
 30
0.0
 11
1480.0
 21
2878.0
 31
0.0
  0
SOLID
  5
1776
330
1772
100
AcDbEntity
  8
SUNPO
 62
   144
100
AcDbTrace
 10
1475.333333333333
 20
3022.0
 30
0.0
 11
1484.666666666666
 21
3022.0
 31
0.0
 12
1480.0
 22
3050.0
 32
0.0
 13
1480.0
 23
3050.0
 33
0.0
  0
SOLID
  5
1777
330
1772
100
AcDbEntity
  8
SUNPO
 62
   144
100
AcDbTrace
 10
1475.333333333333
 20
2878.0
 30
0.0
 11
1484.666666666666
 21
2878.0
 31
0.0
 12
1480.0
 22
2850.0
 32
0.0
 13
1480.0
 23
2850.0
 33
0.0
  0
MTEXT
  5
1778
330
1772
100
AcDbEntity
  8
SUNPO
 62
     7
100
AcDbMText
 10
1449.499999999999
 20
2950.0
 30
0.0
 40
36.0
 41
0.0
 71
     5
 72
     1
  1
\A2;200
  7
ADD
 11
0.0000000000000001
 21
1.0
 31
0.0
1001
ACAD
1000
MTEXTBEGIN
1070
    73
1070
     1
1070
    44
1040
1.0
1070
    74
1070
     0
1000
MTEXTEND
1000
MTEXTBEGIN
1070
    73
1070
     1
1070
    44
1040
1.0
1070
    74
1070
     0
1000
MTEXTEND
1000
MTEXTBEGIN
1070
    73
1070
     1
1070
    44
1040
1.0
1070
    74
1070
     0
1000
MTEXTEND
1000
MTEXTBEGIN
1070
    73
1070
     1
1070
    44
1040
1.0
1070
    74
1070
     0
1000
MTEXTEND
1000
MTEXTBEGIN
1070
    73
1070
     1
1070
    44
1040
1.0
1070
    74
1070
     0
1000
MTEXTEND
1000
MTEXTBEGIN
1070
    73
1070
     1
1070
    44
1040
1.0
1070
    74
1070
     0
1000
MTEXTEND
1000
MTEXTBEGIN
1070
    73
1070
     1
1070
    44
1040
1.0
1070
    74
1070
     0
1000
MTEXTEND
1000
MTEXTBEGIN
1070
    73
1070
     1
1070
    44
1040
1.0
1070
    74
1070
     0
1000
MTEXTEND
1000
MTEXTBEGIN
1070
    73
1070
     1
1070
    44
1040
1.0
1070
    74
1070
     0
1000
MTEXTEND
1000
MTEXTBEGIN
1070
    73
1070
     1
1070
    44
1040
1.0
1070
    74
1070
     0
1000
MTEXTEND
  0
POINT
  5
1779
330
1772
100
AcDbEntity
  8
DEFPOINTS
 62
     0
100
AcDbPoint
 10
1500.0
 20
3050.0
 30
0.0
  0
POINT
  5
177A
330
1772
100
AcDbEntity
  8
DEFPOINTS
 62
     0
100
AcDbPoint
 10
1500.0
 20
2850.0
 30
0.0
  0
POINT
  5
177B
330
1772
100
AcDbEntity
  8
DEFPOINTS
 62
     0
100
AcDbPoint
 10
1480.0
 20
2850.0
 30
0.0
  0
ENDBLK
  5
177D
330
1772
100
AcDbEntity
  8
0
100
AcDbBlockEnd
  0
BLOCK
  5
1825
330
181B
100
AcDbEntity
  8
0
100
AcDbBlockBegin
  2
*D11
 70
     1
 10
0.0
 20
0.0
 30
0.0
  3
*D11
  1

  0
LINE
  5
181C
330
181B
100
AcDbEntity
  8
SUNPO
 62
   144
100
AcDbLine
 10
1254.999999999999
 20
2739.0
 30
0.0
 11
1254.999999999999
 21
2540.0
 31
0.0
  0
LINE
  5
181D
330
181B
100
AcDbEntity
  8
SUNPO
 62
   144
100
AcDbLine
 10
1744.999999999999
 20
2739.0
 30
0.0
 11
1744.999999999999
 21
2540.0
 31
0.0
  0
LINE
  5
181E
330
181B
100
AcDbEntity
  8
SUNPO
 62
   144
100
AcDbLine
 10
1282.999999999999
 20
2550.0
 30
0.0
 11
1716.999999999999
 21
2550.0
 31
0.0
  0
SOLID
  5
181F
330
181B
100
AcDbEntity
  8
SUNPO
 62
   144
100
AcDbTrace
 10
1282.999999999999
 20
2554.666666666666
 30
0.0
 11
1282.999999999999
 21
2545.333333333333
 31
0.0
 12
1254.999999999999
 22
2550.0
 32
0.0
 13
1254.999999999999
 23
2550.0
 33
0.0
  0
SOLID
  5
1820
330
181B
100
AcDbEntity
  8
SUNPO
 62
   144
100
AcDbTrace
 10
1716.999999999999
 20
2554.666666666666
 30
0.0
 11
1716.999999999999
 21
2545.333333333333
 31
0.0
 12
1744.999999999999
 22
2550.0
 32
0.0
 13
1744.999999999999
 23
2550.0
 33
0.0
  0
MTEXT
  5
1821
330
181B
100
AcDbEntity
  8
SUNPO
 62
     7
100
AcDbMText
 10
1499.999999999999
 20
2580.5
 30
0.0
 40
36.0
 41
0.0
 71
     5
 72
     1
  1
\A2;490
  7
ADD
1001
ACAD
1000
MTEXTBEGIN
1070
    73
1070
     1
1070
    44
1040
1.0
1070
    74
1070
     0
1000
MTEXTEND
1000
MTEXTBEGIN
1070
    73
1070
     1
1070
    44
1040
1.0
1070
    74
1070
     0
1000
MTEXTEND
1000
MTEXTBEGIN
1070
    73
1070
     1
1070
    44
1040
1.0
1070
    74
1070
     0
1000
MTEXTEND
1000
MTEXTBEGIN
1070
    73
1070
     1
1070
    44
1040
1.0
1070
    74
1070
     0
1000
MTEXTEND
1000
MTEXTBEGIN
1070
    73
1070
     1
1070
    44
1040
1.0
1070
    74
1070
     0
1000
MTEXTEND
1000
MTEXTBEGIN
1070
    73
1070
     1
1070
    44
1040
1.0
1070
    74
1070
     0
1000
MTEXTEND
1000
MTEXTBEGIN
1070
    73
1070
     1
1070
    44
1040
1.0
1070
    74
1070
     0
1000
MTEXTEND
1000
MTEXTBEGIN
1070
    73
1070
     1
1070
    44
1040
1.0
1070
    74
1070
     0
1000
MTEXTEND
1000
MTEXTBEGIN
1070
    73
1070
     1
1070
    44
1040
1.0
1070
    74
1070
     0
1000
MTEXTEND
1000
MTEXTBEGIN
1070
    73
1070
     1
1070
    44
1040
1.0
1070
    74
1070
     0
1000
MTEXTEND
  0
POINT
  5
1822
330
181B
100
AcDbEntity
  8
DEFPOINTS
 62
     0
100
AcDbPoint
 10
1254.999999999999
 20
2759.0
 30
0.0
  0
POINT
  5
1823
330
181B
100
AcDbEntity
  8
DEFPOINTS
 62
     0
100
AcDbPoint
 10
1744.999999999999
 20
2759.0
 30
0.0
  0
POINT
  5
1824
330
181B
100
AcDbEntity
  8
DEFPOINTS
 62
     0
100
AcDbPoint
 10
1744.999999999999
 20
2550.0
 30
0.0
  0
ENDBLK
  5
1826
330
181B
100
AcDbEntity
  8
0
100
AcDbBlockEnd
  0
BLOCK
  5
184E
330
1844
100
AcDbEntity
  8
0
100
AcDbBlockBegin
  2
*D12
 70
     1
 10
0.0
 20
0.0
 30
0.0
  3
*D12
  1

  0
LINE
  5
1845
330
1844
100
AcDbEntity
  8
SUNPO
 62
   144
100
AcDbLine
 10
1404.0
 20
2830.0
 30
0.0
 11
1404.0
 21
2640.0
 31
0.0
  0
LINE
  5
1846
330
1844
100
AcDbEntity
  8
SUNPO
 62
   144
100
AcDbLine
 10
1596.0
 20
2829.999999999999
 30
0.0
 11
1596.0
 21
2640.0
 31
0.0
  0
LINE
  5
1847
330
1844
100
AcDbEntity
  8
SUNPO
 62
   144
100
AcDbLine
 10
1432.0
 20
2650.0
 30
0.0
 11
1568.0
 21
2650.0
 31
0.0
  0
SOLID
  5
1848
330
1844
100
AcDbEntity
  8
SUNPO
 62
   144
100
AcDbTrace
 10
1432.0
 20
2654.666666666666
 30
0.0
 11
1432.0
 21
2645.333333333333
 31
0.0
 12
1404.0
 22
2650.0
 32
0.0
 13
1404.0
 23
2650.0
 33
0.0
  0
SOLID
  5
1849
330
1844
100
AcDbEntity
  8
SUNPO
 62
   144
100
AcDbTrace
 10
1568.0
 20
2654.666666666666
 30
0.0
 11
1568.0
 21
2645.333333333333
 31
0.0
 12
1596.0
 22
2650.0
 32
0.0
 13
1596.0
 23
2650.0
 33
0.0
  0
MTEXT
  5
184A
330
1844
100
AcDbEntity
  8
SUNPO
 62
     7
100
AcDbMText
 10
1500.0
 20
2680.5
 30
0.0
 40
36.0
 41
0.0
 71
     5
 72
     1
  1
\A2;192
  7
ADD
1001
ACAD
1000
MTEXTBEGIN
1070
    73
1070
     1
1070
    44
1040
1.0
1070
    74
1070
     0
1000
MTEXTEND
1000
MTEXTBEGIN
1070
    73
1070
     1
1070
    44
1040
1.0
1070
    74
1070
     0
1000
MTEXTEND
1000
MTEXTBEGIN
1070
    73
1070
     1
1070
    44
1040
1.0
1070
    74
1070
     0
1000
MTEXTEND
1000
MTEXTBEGIN
1070
    73
1070
     1
1070
    44
1040
1.0
1070
    74
1070
     0
1000
MTEXTEND
1000
MTEXTBEGIN
1070
    73
1070
     1
1070
    44
1040
1.0
1070
    74
1070
     0
1000
MTEXTEND
1000
MTEXTBEGIN
1070
    73
1070
     1
1070
    44
1040
1.0
1070
    74
1070
     0
1000
MTEXTEND
1000
MTEXTBEGIN
1070
    73
1070
     1
1070
    44
1040
1.0
1070
    74
1070
     0
1000
MTEXTEND
1000
MTEXTBEGIN
1070
    73
1070
     1
1070
    44
1040
1.0
1070
    74
1070
     0
1000
MTEXTEND
1000
MTEXTBEGIN
1070
    73
1070
     1
1070
    44
1040
1.0
1070
    74
1070
     0
1000
MTEXTEND
1000
MTEXTBEGIN
1070
    73
1070
     1
1070
    44
1040
1.0
1070
    74
1070
     0
1000
MTEXTEND
  0
POINT
  5
184B
330
1844
100
AcDbEntity
  8
DEFPOINTS
 62
     0
100
AcDbPoint
 10
1404.0
 20
2850.0
 30
0.0
  0
POINT
  5
184C
330
1844
100
AcDbEntity
  8
DEFPOINTS
 62
     0
100
AcDbPoint
 10
1596.0
 20
2849.999999999999
 30
0.0
  0
POINT
  5
184D
330
1844
100
AcDbEntity
  8
DEFPOINTS
 62
     0
100
AcDbPoint
 10
1596.0
 20
2650.0
 30
0.0
  0
ENDBLK
  5
184F
330
1844
100
AcDbEntity
  8
0
100
AcDbBlockEnd
  0
BLOCK
  5
1930
330
1924
100
AcDbEntity
  8
0
100
AcDbBlockBegin
  2
*D13
 70
     1
 10
0.0
 20
0.0
 30
0.0
  3
*D13
  1

  0
LINE
  5
1925
330
1924
100
AcDbEntity
  8
3C1
 62
   144
100
AcDbLine
 10
2650.0
 20
2739.0
 30
0.0
 11
2650.0
 21
2590.0
 31
0.0
  0
LINE
  5
1926
330
1924
100
AcDbEntity
  8
3C1
 62
   144
100
AcDbLine
 10
2750.0
 20
2739.0
 30
0.0
 11
2750.0
 21
2590.0
 31
0.0
  0
LINE
  5
1927
330
1924
100
AcDbEntity
  8
3C1
 62
   144
100
AcDbLine
 10
2622.0
 20
2600.0
 30
0.0
 11
2594.0
 21
2600.0
 31
0.0
  0
LINE
  5
1928
330
1924
100
AcDbEntity
  8
3C1
 62
   144
100
AcDbLine
 10
2778.0
 20
2600.0
 30
0.0
 11
2805.999999999999
 21
2600.0
 31
0.0
  0
LINE
  5
1929
330
1924
100
AcDbEntity
  8
3C1
 62
   144
100
AcDbLine
 10
2650.0
 20
2600.0
 30
0.0
 11
2750.0
 21
2600.0
 31
0.0
  0
SOLID
  5
192A
330
1924
100
AcDbEntity
  8
3C1
 62
   144
100
AcDbTrace
 10
2622.0
 20
2604.666666666666
 30
0.0
 11
2622.0
 21
2595.333333333333
 31
0.0
 12
2650.0
 22
2600.0
 32
0.0
 13
2650.0
 23
2600.0
 33
0.0
  0
SOLID
  5
192B
330
1924
100
AcDbEntity
  8
3C1
 62
   144
100
AcDbTrace
 10
2778.0
 20
2604.666666666666
 30
0.0
 11
2778.0
 21
2595.333333333333
 31
0.0
 12
2750.0
 22
2600.0
 32
0.0
 13
2750.0
 23
2600.0
 33
0.0
  0
MTEXT
  5
192C
330
1924
100
AcDbEntity
  8
3C1
 62
     7
100
AcDbMText
 10
2700.0
 20
2630.5
 30
0.0
 40
36.0
 41
0.0
 71
     5
 72
     1
  1
\A2;100
  7
ADD
1001
ACAD
1000
MTEXTBEGIN
1070
    73
1070
     1
1070
    44
1040
1.0
1070
    74
1070
     0
1000
MTEXTEND
1000
MTEXTBEGIN
1070
    73
1070
     1
1070
    44
1040
1.0
1070
    74
1070
     0
1000
MTEXTEND
1000
MTEXTBEGIN
1070
    73
1070
     1
1070
    44
1040
1.0
1070
    74
1070
     0
1000
MTEXTEND
1000
MTEXTBEGIN
1070
    73
1070
     1
1070
    44
1040
1.0
1070
    74
1070
     0
1000
MTEXTEND
1000
MTEXTBEGIN
1070
    73
1070
     1
1070
    44
1040
1.0
1070
    74
1070
     0
1000
MTEXTEND
1000
MTEXTBEGIN
1070
    73
1070
     1
1070
    44
1040
1.0
1070
    74
1070
     0
1000
MTEXTEND
1000
MTEXTBEGIN
1070
    73
1070
     1
1070
    44
1040
1.0
1070
    74
1070
     0
1000
MTEXTEND
1000
MTEXTBEGIN
1070
    73
1070
     1
1070
    44
1040
1.0
1070
    74
1070
     0
1000
MTEXTEND
1000
MTEXTBEGIN
1070
    73
1070
     1
1070
    44
1040
1.0
1070
    74
1070
     0
1000
MTEXTEND
1000
MTEXTBEGIN
1070
    73
1070
     1
1070
    44
1040
1.0
1070
    74
1070
     0
1000
MTEXTEND
  0
POINT
  5
192D
330
1924
100
AcDbEntity
  8
DEFPOINTS
 62
     0
100
AcDbPoint
 10
2650.0
 20
2759.0
 30
0.0
  0
POINT
  5
192E
330
1924
100
AcDbEntity
  8
DEFPOINTS
 62
     0
100
AcDbPoint
 10
2750.0
 20
2759.0
 30
0.0
  0
POINT
  5
192F
330
1924
100
AcDbEntity
  8
DEFPOINTS
 62
     0
100
AcDbPoint
 10
2750.0
 20
2600.0
 30
0.0
  0
ENDBLK
  5
1931
330
1924
100
AcDbEntity
  8
0
100
AcDbBlockEnd
  0
BLOCK
  5
1974
330
196A
100
AcDbEntity
  8
0
100
AcDbBlockBegin
  2
*D14
 70
     1
 10
0.0
 20
0.0
 30
0.0
  3
*D14
  1

  0
LINE
  5
196B
330
196A
100
AcDbEntity
  8
SUNPO
 62
   144
100
AcDbLine
 10
4670.0
 20
2880.0
 30
0.0
 11
4810.0
 21
2880.0
 31
0.0
  0
LINE
  5
196C
330
196A
100
AcDbEntity
  8
SUNPO
 62
   144
100
AcDbLine
 10
4670.0
 20
2759.0
 30
0.0
 11
4810.0
 21
2759.0
 31
0.0
  0
LINE
  5
196D
330
196A
100
AcDbEntity
  8
SUNPO
 62
   144
100
AcDbLine
 10
4800.0
 20
2852.0
 30
0.0
 11
4800.0
 21
2787.0
 31
0.0
  0
SOLID
  5
196E
330
196A
100
AcDbEntity
  8
SUNPO
 62
   144
100
AcDbTrace
 10
4795.333333333333
 20
2852.0
 30
0.0
 11
4804.666666666667
 21
2852.0
 31
0.0
 12
4800.0
 22
2880.0
 32
0.0
 13
4800.0
 23
2880.0
 33
0.0
  0
SOLID
  5
196F
330
196A
100
AcDbEntity
  8
SUNPO
 62
   144
100
AcDbTrace
 10
4795.333333333333
 20
2787.0
 30
0.0
 11
4804.666666666667
 21
2787.0
 31
0.0
 12
4800.0
 22
2759.0
 32
0.0
 13
4800.0
 23
2759.0
 33
0.0
  0
MTEXT
  5
1970
330
196A
100
AcDbEntity
  8
SUNPO
 62
     7
100
AcDbMText
 10
4769.499999999999
 20
2819.5
 30
0.0
 40
36.0
 41
0.0
 71
     5
 72
     1
  1
\A2;121
  7
ADD
 11
0.0000000000000001
 21
1.0
 31
0.0
1001
ACAD
1000
MTEXTBEGIN
1070
    73
1070
     1
1070
    44
1040
1.0
1070
    74
1070
     0
1000
MTEXTEND
1000
MTEXTBEGIN
1070
    73
1070
     1
1070
    44
1040
1.0
1070
    74
1070
     0
1000
MTEXTEND
1000
MTEXTBEGIN
1070
    73
1070
     1
1070
    44
1040
1.0
1070
    74
1070
     0
1000
MTEXTEND
1000
MTEXTBEGIN
1070
    73
1070
     1
1070
    44
1040
1.0
1070
    74
1070
     0
1000
MTEXTEND
1000
MTEXTBEGIN
1070
    73
1070
     1
1070
    44
1040
1.0
1070
    74
1070
     0
1000
MTEXTEND
1000
MTEXTBEGIN
1070
    73
1070
     1
1070
    44
1040
1.0
1070
    74
1070
     0
1000
MTEXTEND
1000
MTEXTBEGIN
1070
    73
1070
     1
1070
    44
1040
1.0
1070
    74
1070
     0
1000
MTEXTEND
1000
MTEXTBEGIN
1070
    73
1070
     1
1070
    44
1040
1.0
1070
    74
1070
     0
1000
MTEXTEND
1000
MTEXTBEGIN
1070
    73
1070
     1
1070
    44
1040
1.0
1070
    74
1070
     0
1000
MTEXTEND
1000
MTEXTBEGIN
1070
    73
1070
     1
1070
    44
1040
1.0
1070
    74
1070
     0
1000
MTEXTEND
  0
POINT
  5
1971
330
196A
100
AcDbEntity
  8
DEFPOINTS
 62
     0
100
AcDbPoint
 10
4650.0
 20
2880.0
 30
0.0
  0
POINT
  5
1972
330
196A
100
AcDbEntity
  8
DEFPOINTS
 62
     0
100
AcDbPoint
 10
4650.0
 20
2759.0
 30
0.0
  0
POINT
  5
1973
330
196A
100
AcDbEntity
  8
DEFPOINTS
 62
     0
100
AcDbPoint
 10
4800.0
 20
2759.0
 30
0.0
  0
ENDBLK
  5
1975
330
196A
100
AcDbEntity
  8
0
100
AcDbBlockEnd
  0
BLOCK
  5
1981
330
1977
100
AcDbEntity
  8
0
100
AcDbBlockBegin
  2
*D15
 70
     1
 10
0.0
 20
0.0
 30
0.0
  3
*D15
  1

  0
LINE
  5
1978
330
1977
100
AcDbEntity
  8
SUNPO
 62
   144
100
AcDbLine
 10
4050.0
 20
3070.0
 30
0.0
 11
4050.0
 21
3160.0
 31
0.0
  0
LINE
  5
1979
330
1977
100
AcDbEntity
  8
SUNPO
 62
   144
100
AcDbLine
 10
4650.0
 20
2900.0
 30
0.0
 11
4650.0
 21
3160.0
 31
0.0
  0
LINE
  5
197A
330
1977
100
AcDbEntity
  8
SUNPO
 62
   144
100
AcDbLine
 10
4078.0
 20
3150.0
 30
0.0
 11
4622.0
 21
3150.0
 31
0.0
  0
SOLID
  5
197B
330
1977
100
AcDbEntity
  8
SUNPO
 62
   144
100
AcDbTrace
 10
4078.0
 20
3154.666666666666
 30
0.0
 11
4078.0
 21
3145.333333333333
 31
0.0
 12
4050.0
 22
3150.0
 32
0.0
 13
4050.0
 23
3150.0
 33
0.0
  0
SOLID
  5
197C
330
1977
100
AcDbEntity
  8
SUNPO
 62
   144
100
AcDbTrace
 10
4622.0
 20
3154.666666666666
 30
0.0
 11
4622.0
 21
3145.333333333333
 31
0.0
 12
4650.0
 22
3150.0
 32
0.0
 13
4650.0
 23
3150.0
 33
0.0
  0
MTEXT
  5
197D
330
1977
100
AcDbEntity
  8
SUNPO
 62
     7
100
AcDbMText
 10
4350.0
 20
3180.5
 30
0.0
 40
36.0
 41
0.0
 71
     5
 72
     1
  1
\A2;600
  7
ADD
1001
ACAD
1000
MTEXTBEGIN
1070
    73
1070
     1
1070
    44
1040
1.0
1070
    74
1070
     0
1000
MTEXTEND
1000
MTEXTBEGIN
1070
    73
1070
     1
1070
    44
1040
1.0
1070
    74
1070
     0
1000
MTEXTEND
1000
MTEXTBEGIN
1070
    73
1070
     1
1070
    44
1040
1.0
1070
    74
1070
     0
1000
MTEXTEND
1000
MTEXTBEGIN
1070
    73
1070
     1
1070
    44
1040
1.0
1070
    74
1070
     0
1000
MTEXTEND
1000
MTEXTBEGIN
1070
    73
1070
     1
1070
    44
1040
1.0
1070
    74
1070
     0
1000
MTEXTEND
1000
MTEXTBEGIN
1070
    73
1070
     1
1070
    44
1040
1.0
1070
    74
1070
     0
1000
MTEXTEND
1000
MTEXTBEGIN
1070
    73
1070
     1
1070
    44
1040
1.0
1070
    74
1070
     0
1000
MTEXTEND
1000
MTEXTBEGIN
1070
    73
1070
     1
1070
    44
1040
1.0
1070
    74
1070
     0
1000
MTEXTEND
1000
MTEXTBEGIN
1070
    73
1070
     1
1070
    44
1040
1.0
1070
    74
1070
     0
1000
MTEXTEND
1000
MTEXTBEGIN
1070
    73
1070
     1
1070
    44
1040
1.0
1070
    74
1070
     0
1000
MTEXTEND
  0
POINT
  5
197E
330
1977
100
AcDbEntity
  8
DEFPOINTS
 62
     0
100
AcDbPoint
 10
4050.0
 20
3050.0
 30
0.0
  0
POINT
  5
197F
330
1977
100
AcDbEntity
  8
DEFPOINTS
 62
     0
100
AcDbPoint
 10
4650.0
 20
2880.0
 30
0.0
  0
POINT
  5
1980
330
1977
100
AcDbEntity
  8
DEFPOINTS
 62
     0
100
AcDbPoint
 10
4650.0
 20
3150.0
 30
0.0
  0
ENDBLK
  5
1982
330
1977
100
AcDbEntity
  8
0
100
AcDbBlockEnd
  0
BLOCK
  5
198E
330
1984
100
AcDbEntity
  8
0
100
AcDbBlockBegin
  2
*D16
 70
     1
 10
0.0
 20
0.0
 30
0.0
  3
*D16
  1

  0
LINE
  5
1985
330
1984
100
AcDbEntity
  8
SUNPO
 62
   144
100
AcDbLine
 10
2650.0
 20
3070.0
 30
0.0
 11
2650.0
 21
3260.0
 31
0.0
  0
LINE
  5
1986
330
1984
100
AcDbEntity
  8
SUNPO
 62
   144
100
AcDbLine
 10
4650.0
 20
2900.0
 30
0.0
 11
4650.0
 21
3260.0
 31
0.0
  0
LINE
  5
1987
330
1984
100
AcDbEntity
  8
SUNPO
 62
   144
100
AcDbLine
 10
2678.0
 20
3250.0
 30
0.0
 11
4622.0
 21
3250.0
 31
0.0
  0
SOLID
  5
1988
330
1984
100
AcDbEntity
  8
SUNPO
 62
   144
100
AcDbTrace
 10
2678.0
 20
3254.666666666667
 30
0.0
 11
2678.0
 21
3245.333333333333
 31
0.0
 12
2650.0
 22
3250.0
 32
0.0
 13
2650.0
 23
3250.0
 33
0.0
  0
SOLID
  5
1989
330
1984
100
AcDbEntity
  8
SUNPO
 62
   144
100
AcDbTrace
 10
4622.0
 20
3254.666666666667
 30
0.0
 11
4622.0
 21
3245.333333333333
 31
0.0
 12
4650.0
 22
3250.0
 32
0.0
 13
4650.0
 23
3250.0
 33
0.0
  0
MTEXT
  5
198A
330
1984
100
AcDbEntity
  8
SUNPO
 62
     7
100
AcDbMText
 10
3650.0
 20
3280.499999999999
 30
0.0
 40
36.0
 41
0.0
 71
     5
 72
     1
  1
\A2;2000
  7
ADD
1001
ACAD
1000
MTEXTBEGIN
1070
    73
1070
     1
1070
    44
1040
1.0
1070
    74
1070
     0
1000
MTEXTEND
1000
MTEXTBEGIN
1070
    73
1070
     1
1070
    44
1040
1.0
1070
    74
1070
     0
1000
MTEXTEND
1000
MTEXTBEGIN
1070
    73
1070
     1
1070
    44
1040
1.0
1070
    74
1070
     0
1000
MTEXTEND
1000
MTEXTBEGIN
1070
    73
1070
     1
1070
    44
1040
1.0
1070
    74
1070
     0
1000
MTEXTEND
1000
MTEXTBEGIN
1070
    73
1070
     1
1070
    44
1040
1.0
1070
    74
1070
     0
1000
MTEXTEND
1000
MTEXTBEGIN
1070
    73
1070
     1
1070
    44
1040
1.0
1070
    74
1070
     0
1000
MTEXTEND
1000
MTEXTBEGIN
1070
    73
1070
     1
1070
    44
1040
1.0
1070
    74
1070
     0
1000
MTEXTEND
1000
MTEXTBEGIN
1070
    73
1070
     1
1070
    44
1040
1.0
1070
    74
1070
     0
1000
MTEXTEND
1000
MTEXTBEGIN
1070
    73
1070
     1
1070
    44
1040
1.0
1070
    74
1070
     0
1000
MTEXTEND
1000
MTEXTBEGIN
1070
    73
1070
     1
1070
    44
1040
1.0
1070
    74
1070
     0
1000
MTEXTEND
  0
POINT
  5
198B
330
1984
100
AcDbEntity
  8
DEFPOINTS
 62
     0
100
AcDbPoint
 10
2650.0
 20
3050.0
 30
0.0
  0
POINT
  5
198C
330
1984
100
AcDbEntity
  8
DEFPOINTS
 62
     0
100
AcDbPoint
 10
4650.0
 20
2880.0
 30
0.0
  0
POINT
  5
198D
330
1984
100
AcDbEntity
  8
DEFPOINTS
 62
     0
100
AcDbPoint
 10
4650.0
 20
3250.0
 30
0.0
  0
ENDBLK
  5
198F
330
1984
100
AcDbEntity
  8
0
100
AcDbBlockEnd
  0
BLOCK
  5
1999
330
1992
100
AcDbEntity
  8
0
100
AcDbBlockBegin
  2
*D17
 70
     1
 10
0.0
 20
0.0
 30
0.0
  3
*D17
  1

  0
LINE
  5
1993
330
1992
100
AcDbEntity
  8
3C1
 62
   144
100
AcDbLine
 10
4781.545595168991
 20
2981.191378382323
 30
0.0
 11
4666.02632395692
 21
2892.611816433989
 31
0.0
  0
MTEXT
  5
1994
330
1992
100
AcDbEntity
  8
3C1
 62
     7
100
AcDbMText
 10
4716.336648574549
 20
2969.624032613959
 30
0.0
 40
36.0
 41
0.0
 71
     5
 72
     1
  1
\A2;R30
  7
ADD
 11
0.793557309602055
 21
0.6084955187814848
 31
0.0
1001
ACAD
1000
MTEXTBEGIN
1070
    73
1070
     1
1070
    44
1040
1.0
1070
    74
1070
     0
1000
MTEXTEND
1000
MTEXTBEGIN
1070
    73
1070
     1
1070
    44
1040
1.0
1070
    74
1070
     0
1000
MTEXTEND
1000
MTEXTBEGIN
1070
    73
1070
     1
1070
    44
1040
1.0
1070
    74
1070
     0
1000
MTEXTEND
1000
MTEXTBEGIN
1070
    73
1070
     1
1070
    44
1040
1.0
1070
    74
1070
     0
1000
MTEXTEND
1000
MTEXTBEGIN
1070
    73
1070
     1
1070
    44
1040
1.0
1070
    74
1070
     0
1000
MTEXTEND
1000
MTEXTBEGIN
1070
    73
1070
     1
1070
    44
1040
1.0
1070
    74
1070
     0
1000
MTEXTEND
1000
MTEXTBEGIN
1070
    73
1070
     1
1070
    44
1040
1.0
1070
    74
1070
     0
1000
MTEXTEND
1000
MTEXTBEGIN
1070
    73
1070
     1
1070
    44
1040
1.0
1070
    74
1070
     0
1000
MTEXTEND
1000
MTEXTBEGIN
1070
    73
1070
     1
1070
    44
1040
1.0
1070
    74
1070
     0
1000
MTEXTEND
1000
MTEXTBEGIN
1070
    73
1070
     1
1070
    44
1040
1.0
1070
    74
1070
     0
1000
MTEXTEND
  0
LINE
  5
1995
330
1992
100
AcDbEntity
  8
3C1
 62
   144
100
AcDbLine
 10
4620.0
 20
2857.319076344662
 30
0.0
 11
4643.806719288062
 21
2875.573941908108
 31
0.0
  0
SOLID
  5
1996
330
1992
100
AcDbEntity
  8
3C1
 62
   144
100
AcDbTrace
 10
4663.186678202607
 20
2896.315083878798
 30
0.0
 11
4668.865969711234
 21
2888.908548989179
 31
0.0
 12
4643.806719288062
 22
2875.573941908108
 32
0.0
 13
4643.806719288062
 23
2875.573941908108
 33
0.0
  0
POINT
  5
1997
330
1992
100
AcDbEntity
  8
DEFPOINTS
 62
     0
100
AcDbPoint
 10
4643.806719288062
 20
2875.573941908108
 30
0.0
  0
POINT
  5
1998
330
1992
100
AcDbEntity
  8
DEFPOINTS
 62
     0
100
AcDbPoint
 10
4620.0
 20
2857.319076344662
 30
0.0
  0
ENDBLK
  5
199A
330
1992
100
AcDbEntity
  8
0
100
AcDbBlockEnd
  0
BLOCK
  5
19C9
330
19BF
100
AcDbEntity
  8
0
100
AcDbBlockBegin
  2
*D18
 70
     1
 10
0.0
 20
0.0
 30
0.0
  3
*D18
  1

  0
LINE
  5
19C0
330
19BF
100
AcDbEntity
  8
SUNPO
 62
   144
100
AcDbLine
 10
1576.000000000015
 20
2850.0
 30
0.0
 11
1470.0
 21
2850.0
 31
0.0
  0
LINE
  5
19C1
330
19BF
100
AcDbEntity
  8
SUNPO
 62
   144
100
AcDbLine
 10
1480.0
 20
2759.0
 30
0.0
 11
1470.0
 21
2759.0
 31
0.0
  0
LINE
  5
19C2
330
19BF
100
AcDbEntity
  8
SUNPO
 62
   144
100
AcDbLine
 10
1480.0
 20
2822.0
 30
0.0
 11
1480.0
 21
2787.0
 31
0.0
  0
SOLID
  5
19C3
330
19BF
100
AcDbEntity
  8
SUNPO
 62
   144
100
AcDbTrace
 10
1475.333333333333
 20
2822.0
 30
0.0
 11
1484.666666666666
 21
2822.0
 31
0.0
 12
1480.0
 22
2850.0
 32
0.0
 13
1480.0
 23
2850.0
 33
0.0
  0
SOLID
  5
19C4
330
19BF
100
AcDbEntity
  8
SUNPO
 62
   144
100
AcDbTrace
 10
1475.333333333333
 20
2787.0
 30
0.0
 11
1484.666666666666
 21
2787.0
 31
0.0
 12
1480.0
 22
2759.0
 32
0.0
 13
1480.0
 23
2759.0
 33
0.0
  0
MTEXT
  5
19C5
330
19BF
100
AcDbEntity
  8
SUNPO
 62
     7
100
AcDbMText
 10
1449.499999999999
 20
2804.5
 30
0.0
 40
36.0
 41
0.0
 71
     5
 72
     1
  1
\A2;91
  7
ADD
 11
0.0000000000000001
 21
1.0
 31
0.0
1001
ACAD
1000
MTEXTBEGIN
1070
    73
1070
     1
1070
    44
1040
1.0
1070
    74
1070
     0
1000
MTEXTEND
1000
MTEXTBEGIN
1070
    73
1070
     1
1070
    44
1040
1.0
1070
    74
1070
     0
1000
MTEXTEND
1000
MTEXTBEGIN
1070
    73
1070
     1
1070
    44
1040
1.0
1070
    74
1070
     0
1000
MTEXTEND
1000
MTEXTBEGIN
1070
    73
1070
     1
1070
    44
1040
1.0
1070
    74
1070
     0
1000
MTEXTEND
1000
MTEXTBEGIN
1070
    73
1070
     1
1070
    44
1040
1.0
1070
    74
1070
     0
1000
MTEXTEND
1000
MTEXTBEGIN
1070
    73
1070
     1
1070
    44
1040
1.0
1070
    74
1070
     0
1000
MTEXTEND
1000
MTEXTBEGIN
1070
    73
1070
     1
1070
    44
1040
1.0
1070
    74
1070
     0
1000
MTEXTEND
1000
MTEXTBEGIN
1070
    73
1070
     1
1070
    44
1040
1.0
1070
    74
1070
     0
1000
MTEXTEND
1000
MTEXTBEGIN
1070
    73
1070
     1
1070
    44
1040
1.0
1070
    74
1070
     0
1000
MTEXTEND
1000
MTEXTBEGIN
1070
    73
1070
     1
1070
    44
1040
1.0
1070
    74
1070
     0
1000
MTEXTEND
  0
POINT
  5
19C6
330
19BF
100
AcDbEntity
  8
DEFPOINTS
 62
     0
100
AcDbPoint
 10
1596.000000000015
 20
2850.0
 30
0.0
  0
POINT
  5
19C7
330
19BF
100
AcDbEntity
  8
DEFPOINTS
 62
     0
100
AcDbPoint
 10
1500.0
 20
2759.0
 30
0.0
  0
POINT
  5
19C8
330
19BF
100
AcDbEntity
  8
DEFPOINTS
 62
     0
100
AcDbPoint
 10
1480.0
 20
2759.0
 30
0.0
  0
ENDBLK
  5
19CA
330
19BF
100
AcDbEntity
  8
0
100
AcDbBlockEnd
  0
BLOCK
  5
1C80
330
1C76
100
AcDbEntity
  8
0
100
AcDbBlockBegin
  2
*D19
 70
     1
 10
0.0
 20
0.0
 30
0.0
  3
*D19
  1

  0
LINE
  5
1C77
330
1C76
100
AcDbEntity
  8
SUNPO
 62
   144
100
AcDbLine
 10
1597.5
 20
3050.0
 30
0.0
 11
2010.0
 21
3050.0
 31
0.0
  0
LINE
  5
1C78
330
1C76
100
AcDbEntity
  8
SUNPO
 62
   144
100
AcDbLine
 10
1764.999999999999
 20
2759.0
 30
0.0
 11
2010.0
 21
2759.0
 31
0.0
  0
LINE
  5
1C79
330
1C76
100
AcDbEntity
  8
SUNPO
 62
   144
100
AcDbLine
 10
2000.0
 20
3022.0
 30
0.0
 11
2000.0
 21
2787.0
 31
0.0
  0
SOLID
  5
1C7A
330
1C76
100
AcDbEntity
  8
SUNPO
 62
   144
100
AcDbTrace
 10
1995.333333333333
 20
3022.0
 30
0.0
 11
2004.666666666666
 21
3022.0
 31
0.0
 12
2000.0
 22
3050.0
 32
0.0
 13
2000.0
 23
3050.0
 33
0.0
  0
SOLID
  5
1C7B
330
1C76
100
AcDbEntity
  8
SUNPO
 62
   144
100
AcDbTrace
 10
1995.333333333333
 20
2787.0
 30
0.0
 11
2004.666666666666
 21
2787.0
 31
0.0
 12
2000.0
 22
2759.0
 32
0.0
 13
2000.0
 23
2759.0
 33
0.0
  0
MTEXT
  5
1C7C
330
1C76
100
AcDbEntity
  8
SUNPO
 62
     7
100
AcDbMText
 10
1969.499999999999
 20
2904.5
 30
0.0
 40
36.0
 41
0.0
 71
     5
 72
     1
  1
\A2;291
  7
ADD
 11
0.0000000000000001
 21
1.0
 31
0.0
1001
ACAD
1000
MTEXTBEGIN
1070
    73
1070
     1
1070
    44
1040
1.0
1070
    74
1070
     0
1000
MTEXTEND
1000
MTEXTBEGIN
1070
    73
1070
     1
1070
    44
1040
1.0
1070
    74
1070
     0
1000
MTEXTEND
1000
MTEXTBEGIN
1070
    73
1070
     1
1070
    44
1040
1.0
1070
    74
1070
     0
1000
MTEXTEND
1000
MTEXTBEGIN
1070
    73
1070
     1
1070
    44
1040
1.0
1070
    74
1070
     0
1000
MTEXTEND
1000
MTEXTBEGIN
1070
    73
1070
     1
1070
    44
1040
1.0
1070
    74
1070
     0
1000
MTEXTEND
  0
POINT
  5
1C7D
330
1C76
100
AcDbEntity
  8
DEFPOINTS
 62
     0
100
AcDbPoint
 10
1577.5
 20
3050.0
 30
0.0
  0
POINT
  5
1C7E
330
1C76
100
AcDbEntity
  8
DEFPOINTS
 62
     0
100
AcDbPoint
 10
1744.999999999999
 20
2759.0
 30
0.0
  0
POINT
  5
1C7F
330
1C76
100
AcDbEntity
  8
DEFPOINTS
 62
     0
100
AcDbPoint
 10
2000.0
 20
2759.0
 30
0.0
  0
ENDBLK
  5
1C81
330
1C76
100
AcDbEntity
  8
0
100
AcDbBlockEnd
  0
BLOCK
  5
1C8F
330
1C83
100
AcDbEntity
  8
0
100
AcDbBlockBegin
  2
*D20
 70
     1
 10
0.0
 20
0.0
 30
0.0
  3
*D20
  1

  0
LINE
  5
1C84
330
1C83
100
AcDbEntity
  8
SUNPO
 62
   144
100
AcDbLine
 10
1764.999999999999
 20
2859.0
 30
0.0
 11
1910.0
 21
2859.0
 31
0.0
  0
LINE
  5
1C85
330
1C83
100
AcDbEntity
  8
SUNPO
 62
   144
100
AcDbLine
 10
1764.999999999999
 20
2759.0
 30
0.0
 11
1910.0
 21
2759.0
 31
0.0
  0
LINE
  5
1C86
330
1C83
100
AcDbEntity
  8
SUNPO
 62
   144
100
AcDbLine
 10
1900.0
 20
2887.0
 30
0.0
 11
1900.0
 21
2915.0
 31
0.0
  0
LINE
  5
1C87
330
1C83
100
AcDbEntity
  8
SUNPO
 62
   144
100
AcDbLine
 10
1900.0
 20
2731.0
 30
0.0
 11
1900.0
 21
2703.0
 31
0.0
  0
LINE
  5
1C88
330
1C83
100
AcDbEntity
  8
SUNPO
 62
   144
100
AcDbLine
 10
1900.0
 20
2859.0
 30
0.0
 11
1900.0
 21
2759.0
 31
0.0
  0
SOLID
  5
1C89
330
1C83
100
AcDbEntity
  8
SUNPO
 62
   144
100
AcDbTrace
 10
1895.333333333333
 20
2887.0
 30
0.0
 11
1904.666666666666
 21
2887.0
 31
0.0
 12
1900.0
 22
2859.0
 32
0.0
 13
1900.0
 23
2859.0
 33
0.0
  0
SOLID
  5
1C8A
330
1C83
100
AcDbEntity
  8
SUNPO
 62
   144
100
AcDbTrace
 10
1895.333333333333
 20
2731.0
 30
0.0
 11
1904.666666666666
 21
2731.0
 31
0.0
 12
1900.0
 22
2759.0
 32
0.0
 13
1900.0
 23
2759.0
 33
0.0
  0
MTEXT
  5
1C8B
330
1C83
100
AcDbEntity
  8
SUNPO
 62
     7
100
AcDbMText
 10
1869.499999999999
 20
2809.0
 30
0.0
 40
36.0
 41
0.0
 71
     5
 72
     1
  1
\A2;100
  7
ADD
 11
0.0000000000000001
 21
1.0
 31
0.0
1001
ACAD
1000
MTEXTBEGIN
1070
    73
1070
     1
1070
    44
1040
1.0
1070
    74
1070
     0
1000
MTEXTEND
1000
MTEXTBEGIN
1070
    73
1070
     1
1070
    44
1040
1.0
1070
    74
1070
     0
1000
MTEXTEND
1000
MTEXTBEGIN
1070
    73
1070
     1
1070
    44
1040
1.0
1070
    74
1070
     0
1000
MTEXTEND
1000
MTEXTBEGIN
1070
    73
1070
     1
1070
    44
1040
1.0
1070
    74
1070
     0
1000
MTEXTEND
1000
MTEXTBEGIN
1070
    73
1070
     1
1070
    44
1040
1.0
1070
    74
1070
     0
1000
MTEXTEND
  0
POINT
  5
1C8C
330
1C83
100
AcDbEntity
  8
DEFPOINTS
 62
     0
100
AcDbPoint
 10
1745.0
 20
2859.0
 30
0.0
  0
POINT
  5
1C8D
330
1C83
100
AcDbEntity
  8
DEFPOINTS
 62
     0
100
AcDbPoint
 10
1744.999999999999
 20
2759.0
 30
0.0
  0
POINT
  5
1C8E
330
1C83
100
AcDbEntity
  8
DEFPOINTS
 62
     0
100
AcDbPoint
 10
1900.0
 20
2759.0
 30
0.0
  0
ENDBLK
  5
1C90
330
1C83
100
AcDbEntity
  8
0
100
AcDbBlockEnd
  0
BLOCK
  5
1E22
330
1E18
100
AcDbEntity
  8
0
100
AcDbBlockBegin
  2
*D21
 70
     1
 10
0.0
 20
0.0
 30
0.0
  3
*D21
  1

  0
LINE
  5
1E19
330
1E18
100
AcDbEntity
  8
SUNPO
 62
   144
100
AcDbLine
 10
2649.999999999999
 20
1845.0
 30
0.0
 11
2649.999999999999
 21
2010.0
 31
0.0
  0
LINE
  5
1E1A
330
1E18
100
AcDbEntity
  8
SUNPO
 62
   144
100
AcDbLine
 10
4650.0
 20
1845.0
 30
0.0
 11
4650.0
 21
2010.0
 31
0.0
  0
LINE
  5
1E1B
330
1E18
100
AcDbEntity
  8
SUNPO
 62
   144
100
AcDbLine
 10
2677.999999999999
 20
2000.0
 30
0.0
 11
4622.0
 21
2000.0
 31
0.0
  0
SOLID
  5
1E1C
330
1E18
100
AcDbEntity
  8
SUNPO
 62
   144
100
AcDbTrace
 10
2677.999999999999
 20
2004.666666666666
 30
0.0
 11
2677.999999999999
 21
1995.333333333333
 31
0.0
 12
2649.999999999999
 22
2000.0
 32
0.0
 13
2649.999999999999
 23
2000.0
 33
0.0
  0
SOLID
  5
1E1D
330
1E18
100
AcDbEntity
  8
SUNPO
 62
   144
100
AcDbTrace
 10
4622.0
 20
2004.666666666666
 30
0.0
 11
4622.0
 21
1995.333333333333
 31
0.0
 12
4650.0
 22
2000.0
 32
0.0
 13
4650.0
 23
2000.0
 33
0.0
  0
MTEXT
  5
1E1E
330
1E18
100
AcDbEntity
  8
SUNPO
 62
     7
100
AcDbMText
 10
3650.0
 20
2030.499999999999
 30
0.0
 40
36.0
 41
0.0
 71
     5
 72
     1
  1
\A2;2000
  7
ADD
1001
ACAD
1000
MTEXTBEGIN
1070
    73
1070
     1
1070
    44
1040
1.0
1070
    74
1070
     0
1000
MTEXTEND
1000
MTEXTBEGIN
1070
    73
1070
     1
1070
    44
1040
1.0
1070
    74
1070
     0
1000
MTEXTEND
  0
POINT
  5
1E1F
330
1E18
100
AcDbEntity
  8
DEFPOINTS
 62
     0
100
AcDbPoint
 10
2649.999999999999
 20
1825.0
 30
0.0
  0
POINT
  5
1E20
330
1E18
100
AcDbEntity
  8
DEFPOINTS
 62
     0
100
AcDbPoint
 10
4650.0
 20
1825.0
 30
0.0
  0
POINT
  5
1E21
330
1E18
100
AcDbEntity
  8
DEFPOINTS
 62
     0
100
AcDbPoint
 10
4650.0
 20
2000.0
 30
0.0
  0
ENDBLK
  5
1E23
330
1E18
100
AcDbEntity
  8
0
100
AcDbBlockEnd
  0
ENDSEC
  0
SECTION
  2
ENTITIES
  0
LINE
  5
60B
330
1F
100
AcDbEntity
  8
3C1
100
AcDbLine
 10
360.0
 20
560.0
 30
0.0
 11
5580.0
 21
560.0
 31
0.0
  0
LINE
  5
60C
330
1F
100
AcDbEntity
  8
3C1
100
AcDbLine
 10
360.0
 20
260.0
 30
0.0
 11
360.0
 21
560.0
 31
0.0
  0
LINE
  5
60D
330
1F
100
AcDbEntity
  8
3C1
100
AcDbLine
 10
2360.0
 20
260.0
 30
0.0
 11
2360.0
 21
560.0
 31
0.0
  0
LINE
  5
60F
330
1F
100
AcDbEntity
  8
3C1
100
AcDbLine
 10
3160.0
 20
260.0
 30
0.0
 11
3160.0
 21
560.0
 31
0.0
  0
LINE
  5
610
330
1F
100
AcDbEntity
  8
3C1
100
AcDbLine
 10
3660.0
 20
260.0
 30
0.0
 11
3660.0
 21
560.0
 31
0.0
  0
LINE
  5
11A6
330
1F
100
AcDbEntity
  8
3C1
100
AcDbLine
 10
1408.624999999999
 20
2900.0
 30
0.0
 11
1591.375
 21
2900.0
 31
0.0
  0
LINE
  5
11A9
330
1F
100
AcDbEntity
  8
3C1
100
AcDbLine
 10
1449.85307038295
 20
3050.000000000001
 30
0.0
 11
1550.14692961705
 21
3049.999999999999
 31
0.0
  0
LINE
  5
1531
330
1F
100
AcDbEntity
  8
3C1
100
AcDbLine
 10
2650.0
 20
2900.0
 30
0.0
 11
2713.98014876084
 21
2893.601985123916
 31
0.0
  0
LINE
  5
1534
330
1F
100
AcDbEntity
  8
3C1
100
AcDbLine
 10
2750.0
 20
2853.800497515516
 30
0.0
 11
2750.0
 21
2850.0
 31
0.0
  0
ARC
  5
1535
330
1F
100
AcDbEntity
  8
3C1
100
AcDbCircle
 10
2710.0
 20
2853.800497515516
 30
0.0
 40
40.0
100
AcDbArc
 50
0.0
 51
84.28940686250037
  0
LINE
  5
1642
330
1F
100
AcDbEntity
  8
3C1
100
AcDbLine
 10
2649.999999999999
 20
1657.499999999999
 30
0.0
 11
4650.0
 21
1657.499999999999
 31
0.0
  0
LINE
  5
1643
330
1F
100
AcDbEntity
  8
3C1
100
AcDbLine
 10
2649.999999999999
 20
1502.5
 30
0.0
 11
4650.0
 21
1502.5
 31
0.0
  0
LINE
  5
1646
330
1F
100
AcDbEntity
  8
3C1
  6
HIDDEN2
100
AcDbLine
 10
2649.999999999999
 20
1680.0
 30
0.0
 11
2750.0
 21
1679.999999999999
 31
0.0
  0
LINE
  5
1647
330
1F
100
AcDbEntity
  8
3C1
  6
HIDDEN2
100
AcDbLine
 10
2649.999999999999
 20
1480.0
 30
0.0
 11
2750.0
 21
1480.0
 31
0.0
  0
LINE
  5
1648
330
1F
100
AcDbEntity
  8
3C1
  6
HIDDEN2
100
AcDbLine
 10
2750.0
 20
1680.0
 30
0.0
 11
2750.0
 21
1480.0
 31
0.0
  0
LINE
  5
164C
330
1F
100
AcDbEntity
  8
3C1
100
AcDbLine
 10
2649.999999999999
 20
1676.0
 30
0.0
 11
4650.0
 21
1676.0
 31
0.0
  0
LINE
  5
164D
330
1F
100
AcDbEntity
  8
3C1
100
AcDbLine
 10
2649.999999999999
 20
1484.0
 30
0.0
 11
4650.0
 21
1484.0
 31
0.0
  0
LINE
  5
1782
330
1F
100
AcDbEntity
  8
3C1
  6
HIDDEN2
100
AcDbLine
 10
2650.0
 20
2850.0
 30
0.0
 11
4650.0
 21
2850.0
 31
0.0
  0
LINE
  5
1787
330
1F
100
AcDbEntity
  8
2C1
100
AcDbLine
 10
2649.999999999999
 20
1664.5
 30
0.0
 11
4650.0
 21
1664.5
 31
0.0
  0
LINE
  5
1788
330
1F
100
AcDbEntity
  8
2C1
100
AcDbLine
 10
2649.999999999999
 20
1650.5
 30
0.0
 11
4650.0
 21
1650.5
 31
0.0
  0
LINE
  5
1789
330
1F
100
AcDbEntity
  8
3C1
100
AcDbLine
 10
2649.999999999999
 20
1509.5
 30
0.0
 11
4650.0
 21
1509.5
 31
0.0
  0
LINE
  5
178A
330
1F
100
AcDbEntity
  8
2C1
100
AcDbLine
 10
2649.999999999999
 20
1509.5
 30
0.0
 11
4650.0
 21
1509.5
 31
0.0
  0
LINE
  5
178B
330
1F
100
AcDbEntity
  8
2C1
100
AcDbLine
 10
2649.999999999999
 20
1495.5
 30
0.0
 11
4650.0
 21
1495.5
 31
0.0
  0
LINE
  5
1816
330
1F
100
AcDbEntity
  8
3C1
100
AcDbLine
 10
1404.0
 20
2850.0
 30
0.0
 11
1257.994542203527
 21
2858.819121611868
 31
0.0
  0
LINE
  5
1817
330
1F
100
AcDbEntity
  8
3C1
100
AcDbLine
 10
1254.999999999999
 20
2759.0
 30
0.0
 11
1744.999999999999
 21
2759.0
 31
0.0
  0
LINE
  5
1818
330
1F
100
AcDbEntity
  8
3C1
100
AcDbLine
 10
1744.999999999999
 20
2759.0
 30
0.0
 11
1744.999999999999
 21
2855.999999999999
 31
0.0
  0
LINE
  5
1819
330
1F
100
AcDbEntity
  8
3C1
100
AcDbLine
 10
1742.005457796472
 20
2858.819121611867
 30
0.0
 11
1596.0
 21
2849.999999999999
 31
0.0
  0
LINE
  5
18E1
330
1F
100
AcDbEntity
  8
3C1
100
AcDbLine
 10
2650.0
 20
2859.0
 30
0.0
 11
4650.0
 21
2859.0
 31
0.0
  0
LINE
  5
18E2
330
1F
100
AcDbEntity
  8
3C1
100
AcDbLine
 10
2650.0
 20
3050.0
 30
0.0
 11
2650.0
 21
2900.0
 31
0.0
  0
LINE
  5
18E4
330
1F
100
AcDbEntity
  8
3C1
100
AcDbLine
 10
4650.0
 20
2759.0
 30
0.0
 11
2650.0
 21
2759.0
 31
0.0
  0
LINE
  5
18E5
330
1F
100
AcDbEntity
  8
3C1
100
AcDbLine
 10
2650.0
 20
2859.0
 30
0.0
 11
2649.999999999999
 21
2759.0
 31
0.0
  0
LINE
  5
18E9
330
1F
100
AcDbEntity
  8
3C1
100
AcDbLine
 10
2650.0
 20
2859.0
 30
0.0
 11
2649.999999999999
 21
2759.0
 31
0.0
  0
LINE
  5
1941
330
1F
100
AcDbEntity
  8
3C1
100
AcDbLine
 10
4650.0
 20
1825.0
 30
0.0
 11
2649.999999999999
 21
1825.0
 31
0.0
  0
LINE
  5
1942
330
1F
100
AcDbEntity
  8
3C1
100
AcDbLine
 10
2649.999999999999
 20
1335.0
 30
0.0
 11
4650.0
 21
1335.0
 31
0.0
  0
LINE
  5
1943
330
1F
100
AcDbEntity
  8
3C1
100
AcDbLine
 10
4650.0
 20
1825.0
 30
0.0
 11
4650.0
 21
1335.0
 31
0.0
  0
LINE
  5
1944
330
1F
100
AcDbEntity
  8
3C1
100
AcDbLine
 10
2650.0
 20
1825.0
 30
0.0
 11
2650.0
 21
1335.0
 31
0.0
  0
LINE
  5
194F
330
1F
100
AcDbEntity
  8
3C1
100
AcDbLine
 10
1395.5825
 20
2759.0
 30
0.0
 11
1419.980596355894
 21
3022.763203847503
 31
0.0
  0
LINE
  5
1950
330
1F
100
AcDbEntity
  8
3C1
100
AcDbLine
 10
1580.019403644106
 20
3022.763203847501
 30
0.0
 11
1604.4175
 21
2759.0
 31
0.0
  0
ARC
  5
1951
330
1F
100
AcDbEntity
  8
3C1
100
AcDbCircle
 10
1449.85307038295
 20
3020.000000000001
 30
0.0
 40
30.0
100
AcDbArc
 50
89.99999999999975
 51
174.7151789074909
  0
ARC
  5
1952
330
1F
100
AcDbEntity
  8
3C1
100
AcDbCircle
 10
1550.14692961705
 20
3019.999999999999
 30
0.0
 40
30.0
100
AcDbArc
 50
5.284821092509035
 51
89.9999999999992
  0
LINE
  5
1965
330
1F
100
AcDbEntity
  8
3C1
100
AcDbLine
 10
4050.0
 20
3050.0
 30
0.0
 11
2650.0
 21
3050.0
 31
0.0
  0
LINE
  5
1967
330
1F
100
AcDbEntity
  8
3C1
100
AcDbLine
 10
4050.0
 20
3050.0
 30
0.0
 11
4628.17807717368
 21
2886.182878134123
 31
0.0
  0
LINE
  5
1968
330
1F
100
AcDbEntity
  8
3C1
100
AcDbLine
 10
4650.0
 20
2857.319076344662
 30
0.0
 11
4650.0
 21
2759.0
 31
0.0
  0
ARC
  5
1990
330
1F
100
AcDbEntity
  8
3C1
100
AcDbCircle
 10
4620.0
 20
2857.319076344662
 30
0.0
 40
30.0
100
AcDbArc
 50
0.0
 51
74.18080605249986
  0
LINE
  5
199B
330
1F
100
AcDbEntity
  8
3C1
100
AcDbLine
 10
4050.0
 20
1676.0
 30
0.0
 11
4050.0
 21
1484.0
 31
0.0
  0
LINE
  5
19AD
330
1F
100
AcDbEntity
  8
3C1
100
AcDbLine
 10
1254.999999999999
 20
2856.0
 30
0.0
 11
1254.999999999999
 21
2759.0
 31
0.0
  0
LINE
  5
1A5C
330
1F
100
AcDbEntity
  8
3C1
  6
HIDDEN2
100
AcDbLine
 10
1425.0103802553
 20
2880.0
 30
0.0
 11
1574.9896197447
 21
2879.999999999999
 31
0.0
  0
ARC
  5
1A5F
330
1F
100
AcDbEntity
  8
3C1
100
AcDbCircle
 10
1425.0103802553
 20
2860.0
 30
0.0
 40
20.0
100
AcDbArc
 50
90.0
 51
174.7151789074909
  0
ARC
  5
1A60
330
1F
100
AcDbEntity
  8
3C1
100
AcDbCircle
 10
1574.9896197447
 20
2859.999999999999
 30
0.0
 40
20.0
100
AcDbArc
 50
5.284821092509035
 51
90.0
  0
LINE
  5
1AE4
330
1F
100
AcDbEntity
  8
3C1
100
AcDbLine
 10
1396.737798811969
 20
2847.433188703849
 30
0.0
 11
1254.999999999999
 21
2855.99453225625
 31
0.0
  0
LINE
  5
1AE5
330
1F
100
AcDbEntity
  8
3C1
100
AcDbLine
 10
1744.999999999999
 20
2856.0
 30
0.0
 11
1603.26714887366
 21
2847.438955301093
 31
0.0
  0
LINE
  5
1AE6
330
1F
100
AcDbEntity
  8
3C1
100
AcDbLine
 10
1254.999999999999
 20
2856.0
 30
0.0
 11
1257.994542203527
 21
2858.819121611868
 31
0.0
  0
LINE
  5
1AE7
330
1F
100
AcDbEntity
  8
3C1
100
AcDbLine
 10
1742.005457796472
 20
2858.819121611867
 30
0.0
 11
1744.999999999999
 21
2855.999999999999
 31
0.0
  0
LINE
  5
1B6C
330
1F
100
AcDbEntity
  8
3C1
100
AcDbLine
 10
1394.018192654908
 20
2850.602927960442
 30
0.0
 11
1403.078932050832
 21
2840.042508657647
 31
0.0
  0
LINE
  5
1B6D
330
1F
100
AcDbEntity
  8
3C1
100
AcDbLine
 10
1605.981807345091
 20
2850.602927960442
 30
0.0
 11
1596.921067949167
 21
2840.042508657647
 31
0.0
  0
LINE
  5
1BF0
330
1F
100
AcDbEntity
  8
3C1
100
AcDbLine
 10
2650.0
 20
2856.0
 30
0.0
 11
4650.0
 21
2856.0
 31
0.0
  0
LINE
  5
1EA6
330
1F
100
AcDbEntity
  8
SUNPO
 62
   144
100
AcDbLine
 10
2649.999999999999
 20
1845.0
 30
0.0
 11
2649.999999999999
 21
2010.0
 31
0.0
  0
LINE
  5
1EA7
330
1F
100
AcDbEntity
  8
SUNPO
 62
   144
100
AcDbLine
 10
4650.0
 20
1845.0
 30
0.0
 11
4650.0
 21
2010.0
 31
0.0
  0
LINE
  5
1EA8
330
1F
100
AcDbEntity
  8
SUNPO
 62
   144
100
AcDbLine
 10
2677.999999999999
 20
2000.0
 30
0.0
 11
4622.0
 21
2000.0
 31
0.0
  0
SOLID
  5
1EA9
330
1F
100
AcDbEntity
  8
SUNPO
 62
   144
100
AcDbTrace
 10
2677.999999999999
 20
2004.666666666666
 30
0.0
 11
2677.999999999999
 21
1995.333333333333
 31
0.0
 12
2649.999999999999
 22
2000.0
 32
0.0
 13
2649.999999999999
 23
2000.0
 33
0.0
  0
SOLID
  5
1EAA
330
1F
100
AcDbEntity
  8
SUNPO
 62
   144
100
AcDbTrace
 10
4622.0
 20
2004.666666666666
 30
0.0
 11
4622.0
 21
1995.333333333333
 31
0.0
 12
4650.0
 22
2000.0
 32
0.0
 13
4650.0
 23
2000.0
 33
0.0
  0
LINE
  5
1EAC
330
1F
100
AcDbEntity
  8
SUNPO
 62
   144
100
AcDbLine
 10
1764.999999999999
 20
2859.0
 30
0.0
 11
1910.0
 21
2859.0
 31
0.0
  0
LINE
  5
1EAD
330
1F
100
AcDbEntity
  8
SUNPO
 62
   144
100
AcDbLine
 10
1764.999999999999
 20
2759.0
 30
0.0
 11
1910.0
 21
2759.0
 31
0.0
  0
LINE
  5
1EAE
330
1F
100
AcDbEntity
  8
SUNPO
 62
   144
100
AcDbLine
 10
1900.0
 20
2887.0
 30
0.0
 11
1900.0
 21
2915.0
 31
0.0
  0
LINE
  5
1EAF
330
1F
100
AcDbEntity
  8
SUNPO
 62
   144
100
AcDbLine
 10
1900.0
 20
2731.0
 30
0.0
 11
1900.0
 21
2703.0
 31
0.0
  0
LINE
  5
1EB0
330
1F
100
AcDbEntity
  8
SUNPO
 62
   144
100
AcDbLine
 10
1900.0
 20
2859.0
 30
0.0
 11
1900.0
 21
2759.0
 31
0.0
  0
SOLID
  5
1EB1
330
1F
100
AcDbEntity
  8
SUNPO
 62
   144
100
AcDbTrace
 10
1895.333333333333
 20
2887.0
 30
0.0
 11
1904.666666666666
 21
2887.0
 31
0.0
 12
1900.0
 22
2859.0
 32
0.0
 13
1900.0
 23
2859.0
 33
0.0
  0
SOLID
  5
1EB2
330
1F
100
AcDbEntity
  8
SUNPO
 62
   144
100
AcDbTrace
 10
1895.333333333333
 20
2731.0
 30
0.0
 11
1904.666666666666
 21
2731.0
 31
0.0
 12
1900.0
 22
2759.0
 32
0.0
 13
1900.0
 23
2759.0
 33
0.0
  0
LINE
  5
1EB4
330
1F
100
AcDbEntity
  8
SUNPO
 62
   144
100
AcDbLine
 10
1597.5
 20
3050.0
 30
0.0
 11
2010.0
 21
3050.0
 31
0.0
  0
LINE
  5
1EB5
330
1F
100
AcDbEntity
  8
SUNPO
 62
   144
100
AcDbLine
 10
1764.999999999999
 20
2759.0
 30
0.0
 11
2010.0
 21
2759.0
 31
0.0
  0
LINE
  5
1EB6
330
1F
100
AcDbEntity
  8
SUNPO
 62
   144
100
AcDbLine
 10
2000.0
 20
3022.0
 30
0.0
 11
2000.0
 21
2787.0
 31
0.0
  0
SOLID
  5
1EB7
330
1F
100
AcDbEntity
  8
SUNPO
 62
   144
100
AcDbTrace
 10
1995.333333333333
 20
3022.0
 30
0.0
 11
2004.666666666666
 21
3022.0
 31
0.0
 12
2000.0
 22
3050.0
 32
0.0
 13
2000.0
 23
3050.0
 33
0.0
  0
SOLID
  5
1EB8
330
1F
100
AcDbEntity
  8
SUNPO
 62
   144
100
AcDbTrace
 10
1995.333333333333
 20
2787.0
 30
0.0
 11
2004.666666666666
 21
2787.0
 31
0.0
 12
2000.0
 22
2759.0
 32
0.0
 13
2000.0
 23
2759.0
 33
0.0
  0
TEXT
  5
1EBA
330
1F
100
AcDbEntity
  8
SUNPO
100
AcDbText
 10
1824.571428571428
 20
2952.0
 30
0.0
 40
38.0
  1
3C
  7
ADD
100
AcDbText
1001
ACAD
1000
MTEXTBEGIN
1070
    73
1070
     1
1070
    44
1040
1.0
1070
    74
1070
     0
1000
MTEXTEND
1000
MTEXTBEGIN
1070
    73
1070
     1
1070
    44
1040
1.0
1070
    74
1070
     0
1000
MTEXTEND
1000
MTEXTBEGIN
1070
    73
1070
     1
1070
    44
1040
1.0
1070
    74
1070
     0
1000
MTEXTEND
1000
MTEXTBEGIN
1070
    73
1070
     1
1070
    44
1040
1.0
1070
    74
1070
     0
1000
MTEXTEND
  0
SOLID
  5
1EBB
330
1F
100
AcDbEntity
  8
SUNPO
100
AcDbTrace
 10
1765.953160663955
 20
2874.780683144761
 30
0.0
 11
1743.502728898235
 21
2857.409560805933
 31
0.0
 12
1759.105746296458
 22
2881.122924672085
 32
0.0
 13
1759.105746296458
 23
2881.122924672085
 33
0.0
1001
ACAD
1000
DSTYLE
1002
{
1070
     5
1000

1070
    40
1040
20.0
1070
    41
1040
1.399999999999999
1070
    77
1070
     0
1070
   140
1040
1.8
1070
   141
1040
1.399999999999999
1070
   147
1040
0.625
1070
   342
1005
0
1002
}
  0
SOLID
  5
1EBD
330
1F
100
AcDbEntity
  8
SUNPO
100
AcDbTrace
 10
-1632.436562880066
 20
2872.280988607732
 30
0.0
 11
-1605.0
 21
2865.0
 31
0.0
 12
-1633.314907137706
 22
2862.989076938104
 32
0.0
 13
-1633.314907137706
 23
2862.989076938104
 33
0.0
210
0.0
220
0.0
230
-1.0
1001
ACAD
1000
DSTYLE
1002
{
1070
     5
1000

1070
    40
1040
20.0
1070
    41
1040
1.399999999999999
1070
    77
1070
     0
1070
   140
1040
1.8
1070
   141
1040
1.399999999999999
1070
   147
1040
0.625
1070
   342
1005
0
1002
}
  0
TEXT
  5
1EBF
330
1F
100
AcDbEntity
  8
SUNPO
100
AcDbText
 10
1626.644713652995
 20
2877.427715230487
 30
0.0
 40
38.0
  1
6
 50
5.4
  7
ADD
100
AcDbText
1001
ACAD
1000
MTEXTBEGIN
1070
    73
1070
     1
1070
    44
1040
1.0
1070
    74
1070
     0
1000
MTEXTEND
1000
MTEXTBEGIN
1070
    73
1070
     1
1070
    44
1040
1.0
1070
    74
1070
     0
1000
MTEXTEND
1000
MTEXTBEGIN
1070
    73
1070
     1
1070
    44
1040
1.0
1070
    74
1070
     0
1000
MTEXTEND
1000
MTEXTBEGIN
1070
    73
1070
     1
1070
    44
1040
1.0
1070
    74
1070
     0
1000
MTEXTEND
1000
MTEXTBEGIN
1070
    73
1070
     1
1070
    44
1040
1.0
1070
    74
1070
     0
1000
MTEXTEND
1000
MTEXTBEGIN
1070
    73
1070
     1
1070
    44
1040
1.0
1070
    74
1070
     0
1000
MTEXTEND
1000
MTEXTBEGIN
1070
    73
1070
     1
1070
    44
1040
1.0
1070
    74
1070
     0
1000
MTEXTEND
1000
MTEXTBEGIN
1070
    73
1070
     1
1070
    44
1040
1.0
1070
    74
1070
     0
1000
MTEXTEND
1000
MTEXTBEGIN
1070
    73
1070
     1
1070
    44
1040
1.0
1070
    74
1070
     0
1000
MTEXTEND
  0
TEXT
  5
1EC0
330
1F
100
AcDbEntity
  8
SUNPO
100
AcDbText
 10
1662.674575229106
 20
2880.833539902966
 30
0.0
 40
38.0
  1
%
 50
5.4
  7
ADD
100
AcDbText
1001
ACAD
1000
MTEXTBEGIN
1070
    73
1070
     1
1070
    44
1040
1.0
1070
    74
1070
     0
1000
MTEXTEND
1000
MTEXTBEGIN
1070
    73
1070
     1
1070
    44
1040
1.0
1070
    74
1070
     0
1000
MTEXTEND
1000
MTEXTBEGIN
1070
    73
1070
     1
1070
    44
1040
1.0
1070
    74
1070
     0
1000
MTEXTEND
1000
MTEXTBEGIN
1070
    73
1070
     1
1070
    44
1040
1.0
1070
    74
1070
     0
1000
MTEXTEND
1000
MTEXTBEGIN
1070
    73
1070
     1
1070
    44
1040
1.0
1070
    74
1070
     0
1000
MTEXTEND
1000
MTEXTBEGIN
1070
    73
1070
     1
1070
    44
1040
1.0
1070
    74
1070
     0
1000
MTEXTEND
1000
MTEXTBEGIN
1070
    73
1070
     1
1070
    44
1040
1.0
1070
    74
1070
     0
1000
MTEXTEND
1000
MTEXTBEGIN
1070
    73
1070
     1
1070
    44
1040
1.0
1070
    74
1070
     0
1000
MTEXTEND
1000
MTEXTBEGIN
1070
    73
1070
     1
1070
    44
1040
1.0
1070
    74
1070
     0
1000
MTEXTEND
  0
SOLID
  5
1EC1
330
1F
100
AcDbEntity
  8
SUNPO
100
AcDbTrace
 10
1367.563437119933
 20
2872.280988607732
 30
0.0
 11
1395.0
 21
2865.0
 31
0.0
 12
1366.685092862294
 22
2862.989076938104
 32
0.0
 13
1366.685092862294
 23
2862.989076938104
 33
0.0
1001
ACAD
1000
DSTYLE
1002
{
1070
     5
1000

1070
    40
1040
20.0
1070
    41
1040
1.399999999999999
1070
    77
1070
     0
1070
   140
1040
1.8
1070
   141
1040
1.399999999999999
1070
   147
1040
0.625
1070
   342
1005
0
1002
}
  0
LINE
  5
1EC3
330
1F
100
AcDbEntity
  8
SUNPO
 62
   144
100
AcDbLine
 10
1576.000000000015
 20
2850.0
 30
0.0
 11
1470.0
 21
2850.0
 31
0.0
  0
LINE
  5
1EC4
330
1F
100
AcDbEntity
  8
SUNPO
 62
   144
100
AcDbLine
 10
1480.0
 20
2759.0
 30
0.0
 11
1470.0
 21
2759.0
 31
0.0
  0
LINE
  5
1EC5
330
1F
100
AcDbEntity
  8
SUNPO
 62
   144
100
AcDbLine
 10
1480.0
 20
2822.0
 30
0.0
 11
1480.0
 21
2787.0
 31
0.0
  0
SOLID
  5
1EC6
330
1F
100
AcDbEntity
  8
SUNPO
 62
   144
100
AcDbTrace
 10
1475.333333333333
 20
2822.0
 30
0.0
 11
1484.666666666666
 21
2822.0
 31
0.0
 12
1480.0
 22
2850.0
 32
0.0
 13
1480.0
 23
2850.0
 33
0.0
  0
SOLID
  5
1EC7
330
1F
100
AcDbEntity
  8
SUNPO
 62
   144
100
AcDbTrace
 10
1475.333333333333
 20
2787.0
 30
0.0
 11
1484.666666666666
 21
2787.0
 31
0.0
 12
1480.0
 22
2759.0
 32
0.0
 13
1480.0
 23
2759.0
 33
0.0
  0
LINE
  5
1EC9
330
1F
100
AcDbEntity
  8
3C1
 62
   144
100
AcDbLine
 10
4781.545595168991
 20
2981.191378382323
 30
0.0
 11
4666.02632395692
 21
2892.611816433989
 31
0.0
  0
LINE
  5
1ECB
330
1F
100
AcDbEntity
  8
3C1
 62
   144
100
AcDbLine
 10
4620.0
 20
2857.319076344662
 30
0.0
 11
4643.806719288062
 21
2875.573941908108
 31
0.0
  0
SOLID
  5
1ECC
330
1F
100
AcDbEntity
  8
3C1
 62
   144
100
AcDbTrace
 10
4663.186678202607
 20
2896.315083878798
 30
0.0
 11
4668.865969711234
 21
2888.908548989179
 31
0.0
 12
4643.806719288062
 22
2875.573941908108
 32
0.0
 13
4643.806719288062
 23
2875.573941908108
 33
0.0
  0
LINE
  5
1ECD
330
1F
100
AcDbEntity
  8
SUNPO
 62
   144
100
AcDbLine
 10
2650.0
 20
3070.0
 30
0.0
 11
2650.0
 21
3260.0
 31
0.0
  0
LINE
  5
1ECE
330
1F
100
AcDbEntity
  8
SUNPO
 62
   144
100
AcDbLine
 10
4650.0
 20
2900.0
 30
0.0
 11
4650.0
 21
3260.0
 31
0.0
  0
LINE
  5
1ECF
330
1F
100
AcDbEntity
  8
SUNPO
 62
   144
100
AcDbLine
 10
2678.0
 20
3250.0
 30
0.0
 11
4622.0
 21
3250.0
 31
0.0
  0
SOLID
  5
1ED0
330
1F
100
AcDbEntity
  8
SUNPO
 62
   144
100
AcDbTrace
 10
2678.0
 20
3254.666666666667
 30
0.0
 11
2678.0
 21
3245.333333333333
 31
0.0
 12
2650.0
 22
3250.0
 32
0.0
 13
2650.0
 23
3250.0
 33
0.0
  0
SOLID
  5
1ED1
330
1F
100
AcDbEntity
  8
SUNPO
 62
   144
100
AcDbTrace
 10
4622.0
 20
3254.666666666667
 30
0.0
 11
4622.0
 21
3245.333333333333
 31
0.0
 12
4650.0
 22
3250.0
 32
0.0
 13
4650.0
 23
3250.0
 33
0.0
  0
LINE
  5
1ED3
330
1F
100
AcDbEntity
  8
SUNPO
 62
   144
100
AcDbLine
 10
4050.0
 20
3070.0
 30
0.0
 11
4050.0
 21
3160.0
 31
0.0
  0
LINE
  5
1ED4
330
1F
100
AcDbEntity
  8
SUNPO
 62
   144
100
AcDbLine
 10
4650.0
 20
2900.0
 30
0.0
 11
4650.0
 21
3160.0
 31
0.0
  0
LINE
  5
1ED5
330
1F
100
AcDbEntity
  8
SUNPO
 62
   144
100
AcDbLine
 10
4078.0
 20
3150.0
 30
0.0
 11
4622.0
 21
3150.0
 31
0.0
  0
SOLID
  5
1ED6
330
1F
100
AcDbEntity
  8
SUNPO
 62
   144
100
AcDbTrace
 10
4078.0
 20
3154.666666666666
 30
0.0
 11
4078.0
 21
3145.333333333333
 31
0.0
 12
4050.0
 22
3150.0
 32
0.0
 13
4050.0
 23
3150.0
 33
0.0
  0
SOLID
  5
1ED7
330
1F
100
AcDbEntity
  8
SUNPO
 62
   144
100
AcDbTrace
 10
4622.0
 20
3154.666666666666
 30
0.0
 11
4622.0
 21
3145.333333333333
 31
0.0
 12
4650.0
 22
3150.0
 32
0.0
 13
4650.0
 23
3150.0
 33
0.0
  0
LINE
  5
1ED9
330
1F
100
AcDbEntity
  8
SUNPO
 62
   144
100
AcDbLine
 10
4670.0
 20
2880.0
 30
0.0
 11
4810.0
 21
2880.0
 31
0.0
  0
LINE
  5
1EDA
330
1F
100
AcDbEntity
  8
SUNPO
 62
   144
100
AcDbLine
 10
4670.0
 20
2759.0
 30
0.0
 11
4810.0
 21
2759.0
 31
0.0
  0
LINE
  5
1EDB
330
1F
100
AcDbEntity
  8
SUNPO
 62
   144
100
AcDbLine
 10
4800.0
 20
2852.0
 30
0.0
 11
4800.0
 21
2787.0
 31
0.0
  0
SOLID
  5
1EDC
330
1F
100
AcDbEntity
  8
SUNPO
 62
   144
100
AcDbTrace
 10
4795.333333333333
 20
2852.0
 30
0.0
 11
4804.666666666667
 21
2852.0
 31
0.0
 12
4800.0
 22
2880.0
 32
0.0
 13
4800.0
 23
2880.0
 33
0.0
  0
SOLID
  5
1EDD
330
1F
100
AcDbEntity
  8
SUNPO
 62
   144
100
AcDbTrace
 10
4795.333333333333
 20
2787.0
 30
0.0
 11
4804.666666666667
 21
2787.0
 31
0.0
 12
4800.0
 22
2759.0
 32
0.0
 13
4800.0
 23
2759.0
 33
0.0
  0
LINE
  5
1EDF
330
1F
100
AcDbEntity
  8
3C1
 62
   144
100
AcDbLine
 10
2650.0
 20
2739.0
 30
0.0
 11
2650.0
 21
2590.0
 31
0.0
  0
LINE
  5
1EE0
330
1F
100
AcDbEntity
  8
3C1
 62
   144
100
AcDbLine
 10
2750.0
 20
2739.0
 30
0.0
 11
2750.0
 21
2590.0
 31
0.0
  0
LINE
  5
1EE1
330
1F
100
AcDbEntity
  8
3C1
 62
   144
100
AcDbLine
 10
2622.0
 20
2600.0
 30
0.0
 11
2594.0
 21
2600.0
 31
0.0
  0
LINE
  5
1EE2
330
1F
100
AcDbEntity
  8
3C1
 62
   144
100
AcDbLine
 10
2778.0
 20
2600.0
 30
0.0
 11
2805.999999999999
 21
2600.0
 31
0.0
  0
LINE
  5
1EE3
330
1F
100
AcDbEntity
  8
3C1
 62
   144
100
AcDbLine
 10
2650.0
 20
2600.0
 30
0.0
 11
2750.0
 21
2600.0
 31
0.0
  0
SOLID
  5
1EE4
330
1F
100
AcDbEntity
  8
3C1
 62
   144
100
AcDbTrace
 10
2622.0
 20
2604.666666666666
 30
0.0
 11
2622.0
 21
2595.333333333333
 31
0.0
 12
2650.0
 22
2600.0
 32
0.0
 13
2650.0
 23
2600.0
 33
0.0
  0
SOLID
  5
1EE5
330
1F
100
AcDbEntity
  8
3C1
 62
   144
100
AcDbTrace
 10
2778.0
 20
2604.666666666666
 30
0.0
 11
2778.0
 21
2595.333333333333
 31
0.0
 12
2750.0
 22
2600.0
 32
0.0
 13
2750.0
 23
2600.0
 33
0.0
  0
LINE
  5
1EE7
330
1F
100
AcDbEntity
  8
SUNPO
 62
   144
100
AcDbLine
 10
1404.0
 20
2830.0
 30
0.0
 11
1404.0
 21
2640.0
 31
0.0
  0
LINE
  5
1EE8
330
1F
100
AcDbEntity
  8
SUNPO
 62
   144
100
AcDbLine
 10
1596.0
 20
2829.999999999999
 30
0.0
 11
1596.0
 21
2640.0
 31
0.0
  0
LINE
  5
1EE9
330
1F
100
AcDbEntity
  8
SUNPO
 62
   144
100
AcDbLine
 10
1432.0
 20
2650.0
 30
0.0
 11
1568.0
 21
2650.0
 31
0.0
  0
SOLID
  5
1EEA
330
1F
100
AcDbEntity
  8
SUNPO
 62
   144
100
AcDbTrace
 10
1432.0
 20
2654.666666666666
 30
0.0
 11
1432.0
 21
2645.333333333333
 31
0.0
 12
1404.0
 22
2650.0
 32
0.0
 13
1404.0
 23
2650.0
 33
0.0
  0
SOLID
  5
1EEB
330
1F
100
AcDbEntity
  8
SUNPO
 62
   144
100
AcDbTrace
 10
1568.0
 20
2654.666666666666
 30
0.0
 11
1568.0
 21
2645.333333333333
 31
0.0
 12
1596.0
 22
2650.0
 32
0.0
 13
1596.0
 23
2650.0
 33
0.0
  0
LINE
  5
1EED
330
1F
100
AcDbEntity
  8
SUNPO
 62
   144
100
AcDbLine
 10
1254.999999999999
 20
2739.0
 30
0.0
 11
1254.999999999999
 21
2540.0
 31
0.0
  0
LINE
  5
1EEE
330
1F
100
AcDbEntity
  8
SUNPO
 62
   144
100
AcDbLine
 10
1744.999999999999
 20
2739.0
 30
0.0
 11
1744.999999999999
 21
2540.0
 31
0.0
  0
LINE
  5
1EEF
330
1F
100
AcDbEntity
  8
SUNPO
 62
   144
100
AcDbLine
 10
1282.999999999999
 20
2550.0
 30
0.0
 11
1716.999999999999
 21
2550.0
 31
0.0
  0
SOLID
  5
1EF0
330
1F
100
AcDbEntity
  8
SUNPO
 62
   144
100
AcDbTrace
 10
1282.999999999999
 20
2554.666666666666
 30
0.0
 11
1282.999999999999
 21
2545.333333333333
 31
0.0
 12
1254.999999999999
 22
2550.0
 32
0.0
 13
1254.999999999999
 23
2550.0
 33
0.0
  0
SOLID
  5
1EF1
330
1F
100
AcDbEntity
  8
SUNPO
 62
   144
100
AcDbTrace
 10
1716.999999999999
 20
2554.666666666666
 30
0.0
 11
1716.999999999999
 21
2545.333333333333
 31
0.0
 12
1744.999999999999
 22
2550.0
 32
0.0
 13
1744.999999999999
 23
2550.0
 33
0.0
  0
LINE
  5
1EF3
330
1F
100
AcDbEntity
  8
SUNPO
 62
   144
100
AcDbLine
 10
1480.0
 20
3050.0
 30
0.0
 11
1470.0
 21
3050.0
 31
0.0
  0
LINE
  5
1EF4
330
1F
100
AcDbEntity
  8
SUNPO
 62
   144
100
AcDbLine
 10
1480.0
 20
2850.0
 30
0.0
 11
1470.0
 21
2850.0
 31
0.0
  0
LINE
  5
1EF5
330
1F
100
AcDbEntity
  8
SUNPO
 62
   144
100
AcDbLine
 10
1480.0
 20
3022.0
 30
0.0
 11
1480.0
 21
2878.0
 31
0.0
  0
SOLID
  5
1EF6
330
1F
100
AcDbEntity
  8
SUNPO
 62
   144
100
AcDbTrace
 10
1475.333333333333
 20
3022.0
 30
0.0
 11
1484.666666666666
 21
3022.0
 31
0.0
 12
1480.0
 22
3050.0
 32
0.0
 13
1480.0
 23
3050.0
 33
0.0
  0
SOLID
  5
1EF7
330
1F
100
AcDbEntity
  8
SUNPO
 62
   144
100
AcDbTrace
 10
1475.333333333333
 20
2878.0
 30
0.0
 11
1484.666666666666
 21
2878.0
 31
0.0
 12
1480.0
 22
2850.0
 32
0.0
 13
1480.0
 23
2850.0
 33
0.0
  0
LINE
  5
1EF9
330
1F
100
AcDbEntity
  8
SUNPO
 62
   144
100
AcDbLine
 10
1710.397641659334
 20
3153.721211298599
 30
0.0
 11
1594.67929723455
 21
3057.160035446427
 31
0.0
  0
LINE
  5
1EFB
330
1F
100
AcDbEntity
  8
SUNPO
 62
   144
100
AcDbLine
 10
1550.14692961705
 20
3019.999999999999
 30
0.0
 11
1573.180912867481
 21
3039.22070798953
 31
0.0
  0
SOLID
  5
1EFC
330
1F
100
AcDbEntity
  8
SUNPO
 62
   144
100
AcDbTrace
 10
1591.689409325067
 20
3060.743099507606
 30
0.0
 11
1597.669185144033
 21
3053.576971385249
 31
0.0
 12
1573.180912867481
 22
3039.22070798953
 32
0.0
 13
1573.180912867481
 23
3039.22070798953
 33
0.0
  0
LINE
  5
1EFD
330
1F
100
AcDbEntity
  8
SUNPO
 62
   144
100
AcDbLine
 10
2864.126015137951
 20
3008.981392709498
 30
0.0
 11
2757.918996215326
 21
2902.047464277329
 31
0.0
  0
LINE
  5
1EFF
330
1F
100
AcDbEntity
  8
SUNPO
 62
   144
100
AcDbLine
 10
2709.999999999999
 20
2853.800497515516
 30
0.0
 11
2738.187644832545
 21
2882.181066198935
 31
0.0
  0
SOLID
  5
1F00
330
1F
100
AcDbEntity
  8
SUNPO
 62
   144
100
AcDbTrace
 10
2754.607929868927
 20
2905.336022841126
 30
0.0
 11
2761.230062561725
 21
2898.758905713532
 31
0.0
 12
2738.187644832545
 22
2882.181066198935
 32
0.0
 13
2738.187644832545
 23
2882.181066198935
 33
0.0
  0
TEXT
  5
1F01
330
1F
100
AcDbEntity
  8
SUNPO
100
AcDbText
 10
2484.761904761905
 20
370.0
 30
0.0
 40
80.0
  1
BFLT40
  7
ADD
100
AcDbText
1001
ACAD
1000
MTEXTBEGIN
1070
    73
1070
     1
1070
    44
1040
1.0
1070
    74
1070
     0
1000
MTEXTEND
1000
MTEXTBEGIN
1070
    73
1070
     1
1070
    44
1040
1.0
1070
    74
1070
     0
1000
MTEXTEND
1000
MTEXTBEGIN
1070
    73
1070
     1
1070
    44
1040
1.0
1070
    74
1070
     0
1000
MTEXTEND
1000
MTEXTBEGIN
1070
    73
1070
     1
1070
    44
1040
1.0
1070
    74
1070
     0
1000
MTEXTEND
1000
MTEXTBEGIN
1070
    73
1070
     1
1070
    44
1040
1.0
1070
    74
1070
     0
1000
MTEXTEND
1000
MTEXTBEGIN
1070
    73
1070
     1
1070
    44
1040
1.0
1070
    74
1070
     0
1000
MTEXTEND
1000
MTEXTBEGIN
1070
    73
1070
     1
1070
    44
1040
1.0
1070
    74
1070
     0
1000
MTEXTEND
1000
MTEXTBEGIN
1070
    73
1070
     1
1070
    44
1040
1.0
1070
    74
1070
     0
1000
MTEXTEND
1000
MTEXTBEGIN
1070
    73
1070
     1
1070
    44
1040
1.0
1070
    74
1070
     0
1000
MTEXTEND
  0
TEXT
  5
1F02
330
1F
100
AcDbEntity
  8
SUNPO
100
AcDbText
 10
734.7619047619048
 20
370.0
 30
0.0
 40
80.0
  1
BFLTブロック
  7
ADD
100
AcDbText
1001
ACAD
1000
MTEXTBEGIN
1070
    73
1070
     1
1070
    44
1040
1.0
1070
    74
1070
     0
1000
MTEXTEND
1000
MTEXTBEGIN
1070
    73
1070
     1
1070
    44
1040
1.0
1070
    74
1070
     0
1000
MTEXTEND
1000
MTEXTBEGIN
1070
    73
1070
     1
1070
    44
1040
1.0
1070
    74
1070
     0
1000
MTEXTEND
1000
MTEXTBEGIN
1070
    73
1070
     1
1070
    44
1040
1.0
1070
    74
1070
     0
1000
MTEXTEND
1000
MTEXTBEGIN
1070
    73
1070
     1
1070
    44
1040
1.0
1070
    74
1070
     0
1000
MTEXTEND
1000
MTEXTBEGIN
1070
    73
1070
     1
1070
    44
1040
1.0
1070
    74
1070
     0
1000
MTEXTEND
1000
MTEXTBEGIN
1070
    73
1070
     1
1070
    44
1040
1.0
1070
    74
1070
     0
1000
MTEXTEND
1000
MTEXTBEGIN
1070
    73
1070
     1
1070
    44
1040
1.0
1070
    74
1070
     0
1000
MTEXTEND
1000
MTEXTBEGIN
1070
    73
1070
     1
1070
    44
1040
1.0
1070
    74
1070
     0
1000
MTEXTEND
  0
LINE
  5
1F03
330
1F
100
AcDbEntity
  8
SUNPO
 62
   144
100
AcDbLine
 10
2769.999999999999
 20
2890.0
 30
0.0
 11
2910.0
 21
2890.0
 31
0.0
  0
LINE
  5
1F04
330
1F
100
AcDbEntity
  8
SUNPO
 62
   144
100
AcDbLine
 10
2770.0
 20
2850.0
 30
0.0
 11
2910.0
 21
2850.0
 31
0.0
  0
LINE
  5
1F05
330
1F
100
AcDbEntity
  8
SUNPO
 62
   144
100
AcDbLine
 10
2900.0
 20
2918.0
 30
0.0
 11
2900.0
 21
2946.0
 31
0.0
  0
LINE
  5
1F06
330
1F
100
AcDbEntity
  8
SUNPO
 62
   144
100
AcDbLine
 10
2900.0
 20
2822.0
 30
0.0
 11
2900.0
 21
2794.0
 31
0.0
  0
LINE
  5
1F07
330
1F
100
AcDbEntity
  8
SUNPO
 62
   144
100
AcDbLine
 10
2900.0
 20
2890.0
 30
0.0
 11
2900.0
 21
2850.0
 31
0.0
  0
SOLID
  5
1F08
330
1F
100
AcDbEntity
  8
SUNPO
 62
   144
100
AcDbTrace
 10
2895.333333333333
 20
2918.0
 30
0.0
 11
2904.666666666667
 21
2918.0
 31
0.0
 12
2900.0
 22
2890.0
 32
0.0
 13
2900.0
 23
2890.0
 33
0.0
  0
SOLID
  5
1F09
330
1F
100
AcDbEntity
  8
SUNPO
 62
   144
100
AcDbTrace
 10
2895.333333333333
 20
2822.0
 30
0.0
 11
2904.666666666667
 21
2822.0
 31
0.0
 12
2900.0
 22
2850.0
 32
0.0
 13
2900.0
 23
2850.0
 33
0.0
  0
LINE
  5
1F0B
330
1F
100
AcDbEntity
  8
SUNPO
 62
   144
100
AcDbLine
 10
2630.0
 20
2900.0
 30
0.0
 11
2540.0
 21
2900.0
 31
0.0
  0
LINE
  5
1F0C
330
1F
100
AcDbEntity
  8
SUNPO
 62
   144
100
AcDbLine
 10
2630.0
 20
2850.0
 30
0.0
 11
2540.0
 21
2850.0
 31
0.0
  0
LINE
  5
1F0D
330
1F
100
AcDbEntity
  8
SUNPO
 62
   144
100
AcDbLine
 10
2550.0
 20
2928.0
 30
0.0
 11
2550.0
 21
2956.0
 31
0.0
  0
LINE
  5
1F0E
330
1F
100
AcDbEntity
  8
SUNPO
 62
   144
100
AcDbLine
 10
2550.0
 20
2822.0
 30
0.0
 11
2550.0
 21
2794.0
 31
0.0
  0
LINE
  5
1F0F
330
1F
100
AcDbEntity
  8
SUNPO
 62
   144
100
AcDbLine
 10
2550.0
 20
2900.0
 30
0.0
 11
2550.0
 21
2850.0
 31
0.0
  0
SOLID
  5
1F10
330
1F
100
AcDbEntity
  8
SUNPO
 62
   144
100
AcDbTrace
 10
2545.333333333333
 20
2928.0
 30
0.0
 11
2554.666666666666
 21
2928.0
 31
0.0
 12
2550.0
 22
2900.0
 32
0.0
 13
2550.0
 23
2900.0
 33
0.0
  0
SOLID
  5
1F11
330
1F
100
AcDbEntity
  8
SUNPO
 62
   144
100
AcDbTrace
 10
2545.333333333333
 20
2822.0
 30
0.0
 11
2554.666666666666
 21
2822.0
 31
0.0
 12
2550.0
 22
2850.0
 32
0.0
 13
2550.0
 23
2850.0
 33
0.0
  0
TEXT
  5
1F13
330
1F
100
AcDbEntity
  8
SUNPO
100
AcDbText
 10
1292.288097800754
 20
2885.090820743565
 30
0.0
 40
38.0
  1
6
 50
354.5999999999999
  7
ADD
100
AcDbText
1001
ACAD
1000
MTEXTBEGIN
1070
    73
1070
     1
1070
    44
1040
1.0
1070
    74
1070
     0
1000
MTEXTEND
1000
MTEXTBEGIN
1070
    73
1070
     1
1070
    44
1040
1.0
1070
    74
1070
     0
1000
MTEXTEND
1000
MTEXTBEGIN
1070
    73
1070
     1
1070
    44
1040
1.0
1070
    74
1070
     0
1000
MTEXTEND
1000
MTEXTBEGIN
1070
    73
1070
     1
1070
    44
1040
1.0
1070
    74
1070
     0
1000
MTEXTEND
1000
MTEXTBEGIN
1070
    73
1070
     1
1070
    44
1040
1.0
1070
    74
1070
     0
1000
MTEXTEND
1000
MTEXTBEGIN
1070
    73
1070
     1
1070
    44
1040
1.0
1070
    74
1070
     0
1000
MTEXTEND
1000
MTEXTBEGIN
1070
    73
1070
     1
1070
    44
1040
1.0
1070
    74
1070
     0
1000
MTEXTEND
1000
MTEXTBEGIN
1070
    73
1070
     1
1070
    44
1040
1.0
1070
    74
1070
     0
1000
MTEXTEND
1000
MTEXTBEGIN
1070
    73
1070
     1
1070
    44
1040
1.0
1070
    74
1070
     0
1000
MTEXTEND
  0
TEXT
  5
1F14
330
1F
100
AcDbEntity
  8
SUNPO
100
AcDbText
 10
1328.317959376866
 20
2881.684996071086
 30
0.0
 40
38.0
  1
%
 50
354.5999999999999
  7
ADD
100
AcDbText
1001
ACAD
1000
MTEXTBEGIN
1070
    73
1070
     1
1070
    44
1040
1.0
1070
    74
1070
     0
1000
MTEXTEND
1000
MTEXTBEGIN
1070
    73
1070
     1
1070
    44
1040
1.0
1070
    74
1070
     0
1000
MTEXTEND
1000
MTEXTBEGIN
1070
    73
1070
     1
1070
    44
1040
1.0
1070
    74
1070
     0
1000
MTEXTEND
1000
MTEXTBEGIN
1070
    73
1070
     1
1070
    44
1040
1.0
1070
    74
1070
     0
1000
MTEXTEND
1000
MTEXTBEGIN
1070
    73
1070
     1
1070
    44
1040
1.0
1070
    74
1070
     0
1000
MTEXTEND
1000
MTEXTBEGIN
1070
    73
1070
     1
1070
    44
1040
1.0
1070
    74
1070
     0
1000
MTEXTEND
1000
MTEXTBEGIN
1070
    73
1070
     1
1070
    44
1040
1.0
1070
    74
1070
     0
1000
MTEXTEND
1000
MTEXTBEGIN
1070
    73
1070
     1
1070
    44
1040
1.0
1070
    74
1070
     0
1000
MTEXTEND
1000
MTEXTBEGIN
1070
    73
1070
     1
1070
    44
1040
1.0
1070
    74
1070
     0
1000
MTEXTEND
  0
LINE
  5
1F15
330
1F
100
AcDbEntity
  8
SUNPO
 62
   144
100
AcDbLine
 10
1422.5
 20
3052.321101437184
 30
0.0
 11
1422.5
 21
3160.0
 31
0.0
  0
LINE
  5
1F16
330
1F
100
AcDbEntity
  8
SUNPO
 62
   144
100
AcDbLine
 10
1577.499999999999
 20
3052.321101437183
 30
0.0
 11
1577.499999999999
 21
3160.0
 31
0.0
  0
LINE
  5
1F17
330
1F
100
AcDbEntity
  8
SUNPO
 62
   144
100
AcDbLine
 10
1450.5
 20
3150.0
 30
0.0
 11
1549.499999999999
 21
3150.0
 31
0.0
  0
SOLID
  5
1F18
330
1F
100
AcDbEntity
  8
SUNPO
 62
   144
100
AcDbTrace
 10
1450.5
 20
3154.666666666666
 30
0.0
 11
1450.5
 21
3145.333333333333
 31
0.0
 12
1422.5
 22
3150.0
 32
0.0
 13
1422.5
 23
3150.0
 33
0.0
  0
SOLID
  5
1F19
330
1F
100
AcDbEntity
  8
SUNPO
 62
   144
100
AcDbTrace
 10
1549.499999999999
 20
3154.666666666666
 30
0.0
 11
1549.499999999999
 21
3145.333333333333
 31
0.0
 12
1577.499999999999
 22
3150.0
 32
0.0
 13
1577.499999999999
 23
3150.0
 33
0.0
  0
TEXT
  5
1F1B
330
1F
100
AcDbEntity
  8
SUNPO
100
AcDbText
 10
3246.680311730542
 20
359.2274732162223
 30
0.0
 40
70.0
  1
１／２０
  7
ADD
100
AcDbText
1001
ACAD
1000
MTEXTBEGIN
1070
    73
1070
     1
1070
    44
1040
1.0
1070
    74
1070
     0
1000
MTEXTEND
1000
MTEXTBEGIN
1070
    73
1070
     1
1070
    44
1040
1.0
1070
    74
1070
     0
1000
MTEXTEND
1000
MTEXTBEGIN
1070
    73
1070
     1
1070
    44
1040
1.0
1070
    74
1070
     0
1000
MTEXTEND
1000
MTEXTBEGIN
1070
    73
1070
     1
1070
    44
1040
1.0
1070
    74
1070
     0
1000
MTEXTEND
1000
MTEXTBEGIN
1070
    73
1070
     1
1070
    44
1040
1.0
1070
    74
1070
     0
1000
MTEXTEND
1000
MTEXTBEGIN
1070
    73
1070
     1
1070
    44
1040
1.0
1070
    74
1070
     0
1000
MTEXTEND
1000
MTEXTBEGIN
1070
    73
1070
     1
1070
    44
1040
1.0
1070
    74
1070
     0
1000
MTEXTEND
1000
MTEXTBEGIN
1070
    73
1070
     1
1070
    44
1040
1.0
1070
    74
1070
     0
1000
MTEXTEND
1000
MTEXTBEGIN
1070
    73
1070
     1
1070
    44
1040
1.0
1070
    74
1070
     0
1000
MTEXTEND
  0
TEXT
  5
1F1C
330
1F
100
AcDbEntity
  8
SUNPO
100
AcDbText
 10
381.8862574011546
 20
488.6918916770627
 30
0.0
 40
50.0
  1
製品名
  7
ADD
100
AcDbText
1001
ACAD
1000
MTEXTBEGIN
1070
    73
1070
     1
1070
    44
1040
1.0
1070
    74
1070
     0
1000
MTEXTEND
1000
MTEXTBEGIN
1070
    73
1070
     1
1070
    44
1040
1.0
1070
    74
1070
     0
1000
MTEXTEND
1000
MTEXTBEGIN
1070
    73
1070
     1
1070
    44
1040
1.0
1070
    74
1070
     0
1000
MTEXTEND
1000
MTEXTBEGIN
1070
    73
1070
     1
1070
    44
1040
1.0
1070
    74
1070
     0
1000
MTEXTEND
1000
MTEXTBEGIN
1070
    73
1070
     1
1070
    44
1040
1.0
1070
    74
1070
     0
1000
MTEXTEND
1000
MTEXTBEGIN
1070
    73
1070
     1
1070
    44
1040
1.0
1070
    74
1070
     0
1000
MTEXTEND
1000
MTEXTBEGIN
1070
    73
1070
     1
1070
    44
1040
1.0
1070
    74
1070
     0
1000
MTEXTEND
1000
MTEXTBEGIN
1070
    73
1070
     1
1070
    44
1040
1.0
1070
    74
1070
     0
1000
MTEXTEND
1000
MTEXTBEGIN
1070
    73
1070
     1
1070
    44
1040
1.0
1070
    74
1070
     0
1000
MTEXTEND
  0
TEXT
  5
1F1D
330
1F
100
AcDbEntity
  8
SUNPO
100
AcDbText
 10
2376.290169028722
 20
494.4531736811823
 30
0.0
 40
50.0
  1
型式
  7
ADD
100
AcDbText
1001
ACAD
1000
MTEXTBEGIN
1070
    73
1070
     1
1070
    44
1040
1.0
1070
    74
1070
     0
1000
MTEXTEND
1000
MTEXTBEGIN
1070
    73
1070
     1
1070
    44
1040
1.0
1070
    74
1070
     0
1000
MTEXTEND
1000
MTEXTBEGIN
1070
    73
1070
     1
1070
    44
1040
1.0
1070
    74
1070
     0
1000
MTEXTEND
1000
MTEXTBEGIN
1070
    73
1070
     1
1070
    44
1040
1.0
1070
    74
1070
     0
1000
MTEXTEND
1000
MTEXTBEGIN
1070
    73
1070
     1
1070
    44
1040
1.0
1070
    74
1070
     0
1000
MTEXTEND
1000
MTEXTBEGIN
1070
    73
1070
     1
1070
    44
1040
1.0
1070
    74
1070
     0
1000
MTEXTEND
1000
MTEXTBEGIN
1070
    73
1070
     1
1070
    44
1040
1.0
1070
    74
1070
     0
1000
MTEXTEND
1000
MTEXTBEGIN
1070
    73
1070
     1
1070
    44
1040
1.0
1070
    74
1070
     0
1000
MTEXTEND
1000
MTEXTBEGIN
1070
    73
1070
     1
1070
    44
1040
1.0
1070
    74
1070
     0
1000
MTEXTEND
  0
TEXT
  5
1F1E
330
1F
100
AcDbEntity
  8
SUNPO
100
AcDbText
 10
3177.510249231658
 20
488.6918916770627
 30
0.0
 40
50.0
  1
縮尺
  7
ADD
100
AcDbText
1001
ACAD
1000
MTEXTBEGIN
1070
    73
1070
     1
1070
    44
1040
1.0
1070
    74
1070
     0
1000
MTEXTEND
1000
MTEXTBEGIN
1070
    73
1070
     1
1070
    44
1040
1.0
1070
    74
1070
     0
1000
MTEXTEND
1000
MTEXTBEGIN
1070
    73
1070
     1
1070
    44
1040
1.0
1070
    74
1070
     0
1000
MTEXTEND
1000
MTEXTBEGIN
1070
    73
1070
     1
1070
    44
1040
1.0
1070
    74
1070
     0
1000
MTEXTEND
1000
MTEXTBEGIN
1070
    73
1070
     1
1070
    44
1040
1.0
1070
    74
1070
     0
1000
MTEXTEND
1000
MTEXTBEGIN
1070
    73
1070
     1
1070
    44
1040
1.0
1070
    74
1070
     0
1000
MTEXTEND
1000
MTEXTBEGIN
1070
    73
1070
     1
1070
    44
1040
1.0
1070
    74
1070
     0
1000
MTEXTEND
1000
MTEXTBEGIN
1070
    73
1070
     1
1070
    44
1040
1.0
1070
    74
1070
     0
1000
MTEXTEND
1000
MTEXTBEGIN
1070
    73
1070
     1
1070
    44
1040
1.0
1070
    74
1070
     0
1000
MTEXTEND
  0
TEXT
  5
1F1F
330
1F
100
AcDbEntity
  8
SUNPO
100
AcDbText
 10
3730.870883051572
 20
352.2726133092145
 30
0.0
 40
100.0
  1
千葉県コンクリート製品協同組合
  7
ADD
100
AcDbText
1001
ACAD
1000
MTEXTBEGIN
1070
    73
1070
     1
1070
    44
1040
1.0
1070
    74
1070
     0
1000
MTEXTEND
1000
MTEXTBEGIN
1070
    73
1070
     1
1070
    44
1040
1.0
1070
    74
1070
     0
1000
MTEXTEND
1000
MTEXTBEGIN
1070
    73
1070
     1
1070
    44
1040
1.0
1070
    74
1070
     0
1000
MTEXTEND
1000
MTEXTBEGIN
1070
    73
1070
     1
1070
    44
1040
1.0
1070
    74
1070
     0
1000
MTEXTEND
1000
MTEXTBEGIN
1070
    73
1070
     1
1070
    44
1040
1.0
1070
    74
1070
     0
1000
MTEXTEND
1000
MTEXTBEGIN
1070
    73
1070
     1
1070
    44
1040
1.0
1070
    74
1070
     0
1000
MTEXTEND
1000
MTEXTBEGIN
1070
    73
1070
     1
1070
    44
1040
1.0
1070
    74
1070
     0
1000
MTEXTEND
1000
MTEXTBEGIN
1070
    73
1070
     1
1070
    44
1040
1.0
1070
    74
1070
     0
1000
MTEXTEND
1000
MTEXTBEGIN
1070
    73
1070
     1
1070
    44
1040
1.0
1070
    74
1070
     0
1000
MTEXTEND
  0
LINE
  5
1F20
330
1F
100
AcDbEntity
  8
3C1
100
AcDbLine
 10
360.0
 20
260.0
 30
0.0
 11
5580.0
 21
260.0
 31
0.0
  0
LINE
  5
1F21
330
1F
100
AcDbEntity
  8
3C1
100
AcDbLine
 10
5580.0
 20
260.0
 30
0.0
 11
5580.0
 21
3940.0
 31
0.0
  0
LINE
  5
1F22
330
1F
100
AcDbEntity
  8
3C1
100
AcDbLine
 10
5580.0
 20
3940.0
 30
0.0
 11
360.0
 21
3940.0
 31
0.0
  0
LINE
  5
1F23
330
1F
100
AcDbEntity
  8
3C1
100
AcDbLine
 10
360.0
 20
3940.0
 30
0.0
 11
360.0
 21
260.0
 31
0.0
  0
LINE
  5
1F24
330
1F
100
AcDbEntity
  8
HOJO
100
AcDbLine
 10
0.0
 20
0.0
 30
0.0
 11
5940.0
 21
0.0
 31
0.0
  0
LINE
  5
1F25
330
1F
100
AcDbEntity
  8
HOJO
100
AcDbLine
 10
5940.0
 20
0.0
 30
0.0
 11
5940.0
 21
4200.0
 31
0.0
  0
LINE
  5
1F26
330
1F
100
AcDbEntity
  8
HOJO
100
AcDbLine
 10
5940.0
 20
4200.0
 30
0.0
 11
0.0
 21
4200.0
 31
0.0
  0
LINE
  5
1F27
330
1F
100
AcDbEntity
  8
HOJO
100
AcDbLine
 10
0.0
 20
4200.0
 30
0.0
 11
0.0
 21
0.0
 31
0.0
  0
TEXT
  5
1F28
330
1F
100
AcDbEntity
  8
SUNPO
 62
     7
100
AcDbText
 10
1443.0
 20
3162.5
 30
0.0
 40
38.0
  1
155
  7
ADD
100
AcDbText
1001
ACAD
1000
MTEXTBEGIN
1070
    73
1070
     1
1070
    44
1040
1.0
1070
    74
1070
     0
1000
MTEXTEND
1000
MTEXTBEGIN
1070
    73
1070
     1
1070
    44
1040
1.0
1070
    74
1070
     0
1000
MTEXTEND
1000
MTEXTBEGIN
1070
    73
1070
     1
1070
    44
1040
1.0
1070
    74
1070
     0
1000
MTEXTEND
1000
MTEXTBEGIN
1070
    73
1070
     1
1070
    44
1040
1.0
1070
    74
1070
     0
1000
MTEXTEND
1000
MTEXTBEGIN
1070
    73
1070
     1
1070
    44
1040
1.0
1070
    74
1070
     0
1000
MTEXTEND
1000
MTEXTBEGIN
1070
    73
1070
     1
1070
    44
1040
1.0
1070
    74
1070
     0
1000
MTEXTEND
1000
MTEXTBEGIN
1070
    73
1070
     1
1070
    44
1040
1.0
1070
    74
1070
     0
1000
MTEXTEND
1000
MTEXTBEGIN
1070
    73
1070
     1
1070
    44
1040
1.0
1070
    74
1070
     0
1000
MTEXTEND
1000
MTEXTBEGIN
1070
    73
1070
     1
1070
    44
1040
1.0
1070
    74
1070
     0
1000
MTEXTEND
  0
TEXT
  5
1F29
330
1F
100
AcDbEntity
  8
SUNPO
 62
     7
100
AcDbText
 10
2537.499999999999
 20
2838.809523809524
 30
0.0
 40
38.0
  1
50
 50
90.0
  7
ADD
100
AcDbText
1001
ACAD
1000
MTEXTBEGIN
1070
    73
1070
     1
1070
    44
1040
1.0
1070
    74
1070
     0
1000
MTEXTEND
1000
MTEXTBEGIN
1070
    73
1070
     1
1070
    44
1040
1.0
1070
    74
1070
     0
1000
MTEXTEND
1000
MTEXTBEGIN
1070
    73
1070
     1
1070
    44
1040
1.0
1070
    74
1070
     0
1000
MTEXTEND
1000
MTEXTBEGIN
1070
    73
1070
     1
1070
    44
1040
1.0
1070
    74
1070
     0
1000
MTEXTEND
1000
MTEXTBEGIN
1070
    73
1070
     1
1070
    44
1040
1.0
1070
    74
1070
     0
1000
MTEXTEND
1000
MTEXTBEGIN
1070
    73
1070
     1
1070
    44
1040
1.0
1070
    74
1070
     0
1000
MTEXTEND
1000
MTEXTBEGIN
1070
    73
1070
     1
1070
    44
1040
1.0
1070
    74
1070
     0
1000
MTEXTEND
1000
MTEXTBEGIN
1070
    73
1070
     1
1070
    44
1040
1.0
1070
    74
1070
     0
1000
MTEXTEND
1000
MTEXTBEGIN
1070
    73
1070
     1
1070
    44
1040
1.0
1070
    74
1070
     0
1000
MTEXTEND
  0
TEXT
  5
1F2A
330
1F
100
AcDbEntity
  8
SUNPO
 62
     7
100
AcDbText
 10
2887.499999999999
 20
2833.809523809524
 30
0.0
 40
38.0
  1
40
 50
90.0
  7
ADD
100
AcDbText
1001
ACAD
1000
MTEXTBEGIN
1070
    73
1070
     1
1070
    44
1040
1.0
1070
    74
1070
     0
1000
MTEXTEND
1000
MTEXTBEGIN
1070
    73
1070
     1
1070
    44
1040
1.0
1070
    74
1070
     0
1000
MTEXTEND
1000
MTEXTBEGIN
1070
    73
1070
     1
1070
    44
1040
1.0
1070
    74
1070
     0
1000
MTEXTEND
1000
MTEXTBEGIN
1070
    73
1070
     1
1070
    44
1040
1.0
1070
    74
1070
     0
1000
MTEXTEND
1000
MTEXTBEGIN
1070
    73
1070
     1
1070
    44
1040
1.0
1070
    74
1070
     0
1000
MTEXTEND
1000
MTEXTBEGIN
1070
    73
1070
     1
1070
    44
1040
1.0
1070
    74
1070
     0
1000
MTEXTEND
1000
MTEXTBEGIN
1070
    73
1070
     1
1070
    44
1040
1.0
1070
    74
1070
     0
1000
MTEXTEND
1000
MTEXTBEGIN
1070
    73
1070
     1
1070
    44
1040
1.0
1070
    74
1070
     0
1000
MTEXTEND
1000
MTEXTBEGIN
1070
    73
1070
     1
1070
    44
1040
1.0
1070
    74
1070
     0
1000
MTEXTEND
  0
TEXT
  5
1F2B
330
1F
100
AcDbEntity
  8
SUNPO
 62
     7
100
AcDbText
 10
2772.48943744882
 20
2934.455897603415
 30
0.0
 40
38.0
  1
R40
 50
45.19540443085456
  7
ADD
100
AcDbText
1001
ACAD
1000
MTEXTBEGIN
1070
    73
1070
     1
1070
    44
1040
1.0
1070
    74
1070
     0
1000
MTEXTEND
1000
MTEXTBEGIN
1070
    73
1070
     1
1070
    44
1040
1.0
1070
    74
1070
     0
1000
MTEXTEND
1000
MTEXTBEGIN
1070
    73
1070
     1
1070
    44
1040
1.0
1070
    74
1070
     0
1000
MTEXTEND
1000
MTEXTBEGIN
1070
    73
1070
     1
1070
    44
1040
1.0
1070
    74
1070
     0
1000
MTEXTEND
1000
MTEXTBEGIN
1070
    73
1070
     1
1070
    44
1040
1.0
1070
    74
1070
     0
1000
MTEXTEND
1000
MTEXTBEGIN
1070
    73
1070
     1
1070
    44
1040
1.0
1070
    74
1070
     0
1000
MTEXTEND
1000
MTEXTBEGIN
1070
    73
1070
     1
1070
    44
1040
1.0
1070
    74
1070
     0
1000
MTEXTEND
1000
MTEXTBEGIN
1070
    73
1070
     1
1070
    44
1040
1.0
1070
    74
1070
     0
1000
MTEXTEND
1000
MTEXTBEGIN
1070
    73
1070
     1
1070
    44
1040
1.0
1070
    74
1070
     0
1000
MTEXTEND
  0
TEXT
  5
1F2C
330
1F
100
AcDbEntity
  8
SUNPO
 62
     7
100
AcDbText
 10
1612.209140811017
 20
3088.06810708758
 30
0.0
 40
38.0
  1
R30
 50
39.8433101966644
  7
ADD
100
AcDbText
1001
ACAD
1000
MTEXTBEGIN
1070
    73
1070
     1
1070
    44
1040
1.0
1070
    74
1070
     0
1000
MTEXTEND
1000
MTEXTBEGIN
1070
    73
1070
     1
1070
    44
1040
1.0
1070
    74
1070
     0
1000
MTEXTEND
1000
MTEXTBEGIN
1070
    73
1070
     1
1070
    44
1040
1.0
1070
    74
1070
     0
1000
MTEXTEND
1000
MTEXTBEGIN
1070
    73
1070
     1
1070
    44
1040
1.0
1070
    74
1070
     0
1000
MTEXTEND
1000
MTEXTBEGIN
1070
    73
1070
     1
1070
    44
1040
1.0
1070
    74
1070
     0
1000
MTEXTEND
1000
MTEXTBEGIN
1070
    73
1070
     1
1070
    44
1040
1.0
1070
    74
1070
     0
1000
MTEXTEND
1000
MTEXTBEGIN
1070
    73
1070
     1
1070
    44
1040
1.0
1070
    74
1070
     0
1000
MTEXTEND
1000
MTEXTBEGIN
1070
    73
1070
     1
1070
    44
1040
1.0
1070
    74
1070
     0
1000
MTEXTEND
1000
MTEXTBEGIN
1070
    73
1070
     1
1070
    44
1040
1.0
1070
    74
1070
     0
1000
MTEXTEND
  0
TEXT
  5
1F2D
330
1F
100
AcDbEntity
  8
SUNPO
 62
     7
100
AcDbText
 10
1467.499999999999
 20
2898.571428571429
 30
0.0
 40
36.0
  1
200
 50
90.0
  7
ADD
100
AcDbText
1001
ACAD
1000
MTEXTBEGIN
1070
    73
1070
     1
1070
    44
1040
1.0
1070
    74
1070
     0
1000
MTEXTEND
1000
MTEXTBEGIN
1070
    73
1070
     1
1070
    44
1040
1.0
1070
    74
1070
     0
1000
MTEXTEND
1000
MTEXTBEGIN
1070
    73
1070
     1
1070
    44
1040
1.0
1070
    74
1070
     0
1000
MTEXTEND
1000
MTEXTBEGIN
1070
    73
1070
     1
1070
    44
1040
1.0
1070
    74
1070
     0
1000
MTEXTEND
1000
MTEXTBEGIN
1070
    73
1070
     1
1070
    44
1040
1.0
1070
    74
1070
     0
1000
MTEXTEND
1000
MTEXTBEGIN
1070
    73
1070
     1
1070
    44
1040
1.0
1070
    74
1070
     0
1000
MTEXTEND
1000
MTEXTBEGIN
1070
    73
1070
     1
1070
    44
1040
1.0
1070
    74
1070
     0
1000
MTEXTEND
1000
MTEXTBEGIN
1070
    73
1070
     1
1070
    44
1040
1.0
1070
    74
1070
     0
1000
MTEXTEND
1000
MTEXTBEGIN
1070
    73
1070
     1
1070
    44
1040
1.0
1070
    74
1070
     0
1000
MTEXTEND
  0
TEXT
  5
1F2E
330
1F
100
AcDbEntity
  8
SUNPO
 62
     7
100
AcDbText
 10
1448.571428571428
 20
2562.5
 30
0.0
 40
36.0
  1
490
  7
ADD
100
AcDbText
1001
ACAD
1000
MTEXTBEGIN
1070
    73
1070
     1
1070
    44
1040
1.0
1070
    74
1070
     0
1000
MTEXTEND
1000
MTEXTBEGIN
1070
    73
1070
     1
1070
    44
1040
1.0
1070
    74
1070
     0
1000
MTEXTEND
1000
MTEXTBEGIN
1070
    73
1070
     1
1070
    44
1040
1.0
1070
    74
1070
     0
1000
MTEXTEND
1000
MTEXTBEGIN
1070
    73
1070
     1
1070
    44
1040
1.0
1070
    74
1070
     0
1000
MTEXTEND
1000
MTEXTBEGIN
1070
    73
1070
     1
1070
    44
1040
1.0
1070
    74
1070
     0
1000
MTEXTEND
1000
MTEXTBEGIN
1070
    73
1070
     1
1070
    44
1040
1.0
1070
    74
1070
     0
1000
MTEXTEND
1000
MTEXTBEGIN
1070
    73
1070
     1
1070
    44
1040
1.0
1070
    74
1070
     0
1000
MTEXTEND
1000
MTEXTBEGIN
1070
    73
1070
     1
1070
    44
1040
1.0
1070
    74
1070
     0
1000
MTEXTEND
1000
MTEXTBEGIN
1070
    73
1070
     1
1070
    44
1040
1.0
1070
    74
1070
     0
1000
MTEXTEND
  0
TEXT
  5
1F2F
330
1F
100
AcDbEntity
  8
SUNPO
 62
     7
100
AcDbText
 10
1446.0
 20
2662.5
 30
0.0
 40
36.0
  1
192
  7
ADD
100
AcDbText
1001
ACAD
1000
MTEXTBEGIN
1070
    73
1070
     1
1070
    44
1040
1.0
1070
    74
1070
     0
1000
MTEXTEND
1000
MTEXTBEGIN
1070
    73
1070
     1
1070
    44
1040
1.0
1070
    74
1070
     0
1000
MTEXTEND
1000
MTEXTBEGIN
1070
    73
1070
     1
1070
    44
1040
1.0
1070
    74
1070
     0
1000
MTEXTEND
1000
MTEXTBEGIN
1070
    73
1070
     1
1070
    44
1040
1.0
1070
    74
1070
     0
1000
MTEXTEND
1000
MTEXTBEGIN
1070
    73
1070
     1
1070
    44
1040
1.0
1070
    74
1070
     0
1000
MTEXTEND
1000
MTEXTBEGIN
1070
    73
1070
     1
1070
    44
1040
1.0
1070
    74
1070
     0
1000
MTEXTEND
1000
MTEXTBEGIN
1070
    73
1070
     1
1070
    44
1040
1.0
1070
    74
1070
     0
1000
MTEXTEND
1000
MTEXTBEGIN
1070
    73
1070
     1
1070
    44
1040
1.0
1070
    74
1070
     0
1000
MTEXTEND
1000
MTEXTBEGIN
1070
    73
1070
     1
1070
    44
1040
1.0
1070
    74
1070
     0
1000
MTEXTEND
  0
TEXT
  5
1F30
330
1F
100
AcDbEntity
  8
SUNPO
 62
     7
100
AcDbText
 10
2646.0
 20
2612.5
 30
0.0
 40
36.0
  1
100
  7
ADD
100
AcDbText
1001
ACAD
1000
MTEXTBEGIN
1070
    73
1070
     1
1070
    44
1040
1.0
1070
    74
1070
     0
1000
MTEXTEND
1000
MTEXTBEGIN
1070
    73
1070
     1
1070
    44
1040
1.0
1070
    74
1070
     0
1000
MTEXTEND
1000
MTEXTBEGIN
1070
    73
1070
     1
1070
    44
1040
1.0
1070
    74
1070
     0
1000
MTEXTEND
1000
MTEXTBEGIN
1070
    73
1070
     1
1070
    44
1040
1.0
1070
    74
1070
     0
1000
MTEXTEND
1000
MTEXTBEGIN
1070
    73
1070
     1
1070
    44
1040
1.0
1070
    74
1070
     0
1000
MTEXTEND
1000
MTEXTBEGIN
1070
    73
1070
     1
1070
    44
1040
1.0
1070
    74
1070
     0
1000
MTEXTEND
1000
MTEXTBEGIN
1070
    73
1070
     1
1070
    44
1040
1.0
1070
    74
1070
     0
1000
MTEXTEND
1000
MTEXTBEGIN
1070
    73
1070
     1
1070
    44
1040
1.0
1070
    74
1070
     0
1000
MTEXTEND
1000
MTEXTBEGIN
1070
    73
1070
     1
1070
    44
1040
1.0
1070
    74
1070
     0
1000
MTEXTEND
  0
TEXT
  5
1F31
330
1F
100
AcDbEntity
  8
SUNPO
 62
     7
100
AcDbText
 10
4787.499999999999
 20
2770.642857142858
 30
0.0
 40
36.0
  1
121
 50
90.0
  7
ADD
100
AcDbText
1001
ACAD
1000
MTEXTBEGIN
1070
    73
1070
     1
1070
    44
1040
1.0
1070
    74
1070
     0
1000
MTEXTEND
1000
MTEXTBEGIN
1070
    73
1070
     1
1070
    44
1040
1.0
1070
    74
1070
     0
1000
MTEXTEND
1000
MTEXTBEGIN
1070
    73
1070
     1
1070
    44
1040
1.0
1070
    74
1070
     0
1000
MTEXTEND
1000
MTEXTBEGIN
1070
    73
1070
     1
1070
    44
1040
1.0
1070
    74
1070
     0
1000
MTEXTEND
1000
MTEXTBEGIN
1070
    73
1070
     1
1070
    44
1040
1.0
1070
    74
1070
     0
1000
MTEXTEND
1000
MTEXTBEGIN
1070
    73
1070
     1
1070
    44
1040
1.0
1070
    74
1070
     0
1000
MTEXTEND
1000
MTEXTBEGIN
1070
    73
1070
     1
1070
    44
1040
1.0
1070
    74
1070
     0
1000
MTEXTEND
1000
MTEXTBEGIN
1070
    73
1070
     1
1070
    44
1040
1.0
1070
    74
1070
     0
1000
MTEXTEND
1000
MTEXTBEGIN
1070
    73
1070
     1
1070
    44
1040
1.0
1070
    74
1070
     0
1000
MTEXTEND
  0
TEXT
  5
1F32
330
1F
100
AcDbEntity
  8
SUNPO
 62
     7
100
AcDbText
 10
4297.714285714285
 20
3162.5
 30
0.0
 40
36.0
  1
600
  7
ADD
100
AcDbText
1001
ACAD
1000
MTEXTBEGIN
1070
    73
1070
     1
1070
    44
1040
1.0
1070
    74
1070
     0
1000
MTEXTEND
1000
MTEXTBEGIN
1070
    73
1070
     1
1070
    44
1040
1.0
1070
    74
1070
     0
1000
MTEXTEND
1000
MTEXTBEGIN
1070
    73
1070
     1
1070
    44
1040
1.0
1070
    74
1070
     0
1000
MTEXTEND
1000
MTEXTBEGIN
1070
    73
1070
     1
1070
    44
1040
1.0
1070
    74
1070
     0
1000
MTEXTEND
1000
MTEXTBEGIN
1070
    73
1070
     1
1070
    44
1040
1.0
1070
    74
1070
     0
1000
MTEXTEND
1000
MTEXTBEGIN
1070
    73
1070
     1
1070
    44
1040
1.0
1070
    74
1070
     0
1000
MTEXTEND
1000
MTEXTBEGIN
1070
    73
1070
     1
1070
    44
1040
1.0
1070
    74
1070
     0
1000
MTEXTEND
1000
MTEXTBEGIN
1070
    73
1070
     1
1070
    44
1040
1.0
1070
    74
1070
     0
1000
MTEXTEND
1000
MTEXTBEGIN
1070
    73
1070
     1
1070
    44
1040
1.0
1070
    74
1070
     0
1000
MTEXTEND
  0
TEXT
  5
1F33
330
1F
100
AcDbEntity
  8
SUNPO
 62
     7
100
AcDbText
 10
3581.42857142857
 20
3262.5
 30
0.0
 40
36.0
  1
2000
  7
ADD
100
AcDbText
1001
ACAD
1000
MTEXTBEGIN
1070
    73
1070
     1
1070
    44
1040
1.0
1070
    74
1070
     0
1000
MTEXTEND
1000
MTEXTBEGIN
1070
    73
1070
     1
1070
    44
1040
1.0
1070
    74
1070
     0
1000
MTEXTEND
1000
MTEXTBEGIN
1070
    73
1070
     1
1070
    44
1040
1.0
1070
    74
1070
     0
1000
MTEXTEND
1000
MTEXTBEGIN
1070
    73
1070
     1
1070
    44
1040
1.0
1070
    74
1070
     0
1000
MTEXTEND
1000
MTEXTBEGIN
1070
    73
1070
     1
1070
    44
1040
1.0
1070
    74
1070
     0
1000
MTEXTEND
1000
MTEXTBEGIN
1070
    73
1070
     1
1070
    44
1040
1.0
1070
    74
1070
     0
1000
MTEXTEND
1000
MTEXTBEGIN
1070
    73
1070
     1
1070
    44
1040
1.0
1070
    74
1070
     0
1000
MTEXTEND
1000
MTEXTBEGIN
1070
    73
1070
     1
1070
    44
1040
1.0
1070
    74
1070
     0
1000
MTEXTEND
1000
MTEXTBEGIN
1070
    73
1070
     1
1070
    44
1040
1.0
1070
    74
1070
     0
1000
MTEXTEND
  0
TEXT
  5
1F34
330
1F
100
AcDbEntity
  8
SUNPO
 62
     7
100
AcDbText
 10
4685.117665173763
 20
2923.002810614449
 30
0.0
 40
36.0
  1
R30
 50
37.480798498506
  7
ADD
100
AcDbText
1001
ACAD
1000
MTEXTBEGIN
1070
    73
1070
     1
1070
    44
1040
1.0
1070
    74
1070
     0
1000
MTEXTEND
1000
MTEXTBEGIN
1070
    73
1070
     1
1070
    44
1040
1.0
1070
    74
1070
     0
1000
MTEXTEND
1000
MTEXTBEGIN
1070
    73
1070
     1
1070
    44
1040
1.0
1070
    74
1070
     0
1000
MTEXTEND
1000
MTEXTBEGIN
1070
    73
1070
     1
1070
    44
1040
1.0
1070
    74
1070
     0
1000
MTEXTEND
1000
MTEXTBEGIN
1070
    73
1070
     1
1070
    44
1040
1.0
1070
    74
1070
     0
1000
MTEXTEND
1000
MTEXTBEGIN
1070
    73
1070
     1
1070
    44
1040
1.0
1070
    74
1070
     0
1000
MTEXTEND
1000
MTEXTBEGIN
1070
    73
1070
     1
1070
    44
1040
1.0
1070
    74
1070
     0
1000
MTEXTEND
1000
MTEXTBEGIN
1070
    73
1070
     1
1070
    44
1040
1.0
1070
    74
1070
     0
1000
MTEXTEND
1000
MTEXTBEGIN
1070
    73
1070
     1
1070
    44
1040
1.0
1070
    74
1070
     0
1000
MTEXTEND
  0
TEXT
  5
1F35
330
1F
100
AcDbEntity
  8
SUNPO
 62
     7
100
AcDbText
 10
1467.499999999999
 20
2775.357142857143
 30
0.0
 40
36.0
  1
91
 50
90.0
  7
ADD
100
AcDbText
1001
ACAD
1000
MTEXTBEGIN
1070
    73
1070
     1
1070
    44
1040
1.0
1070
    74
1070
     0
1000
MTEXTEND
1000
MTEXTBEGIN
1070
    73
1070
     1
1070
    44
1040
1.0
1070
    74
1070
     0
1000
MTEXTEND
1000
MTEXTBEGIN
1070
    73
1070
     1
1070
    44
1040
1.0
1070
    74
1070
     0
1000
MTEXTEND
1000
MTEXTBEGIN
1070
    73
1070
     1
1070
    44
1040
1.0
1070
    74
1070
     0
1000
MTEXTEND
1000
MTEXTBEGIN
1070
    73
1070
     1
1070
    44
1040
1.0
1070
    74
1070
     0
1000
MTEXTEND
1000
MTEXTBEGIN
1070
    73
1070
     1
1070
    44
1040
1.0
1070
    74
1070
     0
1000
MTEXTEND
1000
MTEXTBEGIN
1070
    73
1070
     1
1070
    44
1040
1.0
1070
    74
1070
     0
1000
MTEXTEND
1000
MTEXTBEGIN
1070
    73
1070
     1
1070
    44
1040
1.0
1070
    74
1070
     0
1000
MTEXTEND
1000
MTEXTBEGIN
1070
    73
1070
     1
1070
    44
1040
1.0
1070
    74
1070
     0
1000
MTEXTEND
  0
LINE
  5
1F36
330
1F
100
AcDbEntity
  8
SUNPO
100
AcDbLine
 10
1367.124264991113
 20
2867.635032772918
 30
0.0
 11
1295.443803539692
 21
2874.410831331852
 31
0.0
1001
ACAD
1000
DSTYLE
1002
{
1070
     5
1000

1070
    40
1040
20.0
1070
    41
1040
1.399999999999999
1070
    77
1070
     0
1070
   140
1040
1.8
1070
   141
1040
1.399999999999999
1070
   147
1040
0.625
1070
   342
1005
0
1002
}
  0
LINE
  5
1F37
330
1F
100
AcDbEntity
  8
SUNPO
100
AcDbLine
 10
1632.875735008886
 20
2867.635032772918
 30
0.0
 11
1704.556196460308
 21
2874.410831331852
 31
0.0
210
0.0
220
0.0
230
-1.0
1001
ACAD
1000
DSTYLE
1002
{
1070
     5
1000

1070
    40
1040
20.0
1070
    41
1040
1.399999999999999
1070
    77
1070
     0
1070
   140
1040
1.8
1070
   141
1040
1.399999999999999
1070
   147
1040
0.625
1070
   342
1005
0
1002
}
  0
LINE
  5
1F38
330
1F
100
AcDbEntity
  8
SUNPO
100
AcDbLine
 10
1762.529453480206
 20
2877.951803908423
 30
0.0
 11
1820.0
 21
2940.0
 31
0.0
1001
ACAD
1000
DSTYLE
1002
{
1070
     5
1000

1070
    40
1040
20.0
1070
    41
1040
1.399999999999999
1070
    77
1070
     0
1070
   140
1040
1.8
1070
   141
1040
1.399999999999999
1070
   147
1040
0.625
1070
   342
1005
0
1002
}
  0
LINE
  5
1F39
330
1F
100
AcDbEntity
  8
SUNPO
100
AcDbLine
 10
1820.0
 20
2940.0
 30
0.0
 11
1900.0
 21
2940.0
 31
0.0
1001
ACAD
1000
DSTYLE
1002
{
1070
     5
1000

1070
    40
1040
20.0
1070
    41
1040
1.399999999999999
1070
    77
1070
     0
1070
   140
1040
1.8
1070
   141
1040
1.399999999999999
1070
   147
1040
0.625
1070
   342
1005
0
1002
}
  0
TEXT
  5
1F3A
330
1F
100
AcDbEntity
  8
SUNPO
 62
     7
100
AcDbText
 10
1987.499999999999
 20
2858.214285714286
 30
0.0
 40
36.0
  1
291
 50
90.0
  7
ADD
100
AcDbText
1001
ACAD
1000
MTEXTBEGIN
1070
    73
1070
     1
1070
    44
1040
1.0
1070
    74
1070
     0
1000
MTEXTEND
1000
MTEXTBEGIN
1070
    73
1070
     1
1070
    44
1040
1.0
1070
    74
1070
     0
1000
MTEXTEND
1000
MTEXTBEGIN
1070
    73
1070
     1
1070
    44
1040
1.0
1070
    74
1070
     0
1000
MTEXTEND
1000
MTEXTBEGIN
1070
    73
1070
     1
1070
    44
1040
1.0
1070
    74
1070
     0
1000
MTEXTEND
  0
TEXT
  5
1F3B
330
1F
100
AcDbEntity
  8
SUNPO
 62
     7
100
AcDbText
 10
1887.499999999999
 20
2755.0
 30
0.0
 40
36.0
  1
100
 50
90.0
  7
ADD
100
AcDbText
1001
ACAD
1000
MTEXTBEGIN
1070
    73
1070
     1
1070
    44
1040
1.0
1070
    74
1070
     0
1000
MTEXTEND
1000
MTEXTBEGIN
1070
    73
1070
     1
1070
    44
1040
1.0
1070
    74
1070
     0
1000
MTEXTEND
1000
MTEXTBEGIN
1070
    73
1070
     1
1070
    44
1040
1.0
1070
    74
1070
     0
1000
MTEXTEND
1000
MTEXTBEGIN
1070
    73
1070
     1
1070
    44
1040
1.0
1070
    74
1070
     0
1000
MTEXTEND
  0
TEXT
  5
1F3C
330
1F
100
AcDbEntity
  8
SUNPO
 62
     7
100
AcDbText
 10
3581.42857142857
 20
2012.5
 30
0.0
 40
36.0
  1
2000
  7
ADD
100
AcDbText
1001
ACAD
1000
MTEXTBEGIN
1070
    73
1070
     1
1070
    44
1040
1.0
1070
    74
1070
     0
1000
MTEXTEND
  0
VIEWPORT
  5
72
330
1B
100
AcDbEntity
 67
     1
  8
0
100
AcDbViewport
 10
645.8325449029127
 20
277.0
 30
0.0
 40
1380.967339805825
 41
628.4520000000001
 68
     2
 69
     1
1001
ACAD
1000
MVIEW
1002
{
1070
    16
1010
0.0
1020
0.0
1030
0.0
1010
0.0
1020
0.0
1030
1.0
1040
0.0
1040
628.4520000000001
1040
645.8325449029127
1040
277.0
1040
50.0
1040
0.0
1040
0.0
1070
     0
1070
   100
1070
     1
1070
     1
1070
     0
1070
     0
1070
     0
1070
     0
1040
0.0
1040
0.0
1040
0.0
1040
10.0
1040
10.0
1040
10.0
1040
10.0
1070
     0
1002
{
1002
}
1002
}
  0
VIEWPORT
  5
74
330
1B
100
AcDbEntity
 67
     1
  8
VIEWPORT
100
AcDbViewport
 10
414.3779638919211
 20
277.3177265058034
 30
0.0
 40
840.0353682728887
 41
567.2285469943826
 68
     1
 69
     2
1001
ACAD
1000
MVIEW
1002
{
1070
    16
1010
0.0
1020
0.0
1030
0.0
1010
0.0
1020
0.0
1030
1.0
1040
0.0
1040
579.5583043546323
1040
424.4938908624541
1040
286.1973242720074
1040
50.0
1040
0.0
1040
0.0
1070
     0
1070
   100
1070
     1
1070
     1
1070
     0
1070
     0
1070
     0
1070
     0
1040
0.0
1040
0.0
1040
0.0
1040
10.0
1040
10.0
1040
10.0
1040
10.0
1070
     0
1002
{
1002
}
1002
}
  0
ENDSEC
  0
SECTION
  2
OBJECTS
  0
DICTIONARY
  5
C
330
0
100
AcDbDictionary
  3
ACAD_GROUP
350
D
  3
ACAD_LAYOUT
350
1A
  3
ACAD_MLINESTYLE
350
17
  3
ACAD_PLOTSETTINGS
350
19
  3
ACADDIM
350
1390
  3
DWGPROPS
350
4C7
1001
ACAD
1000
TREAT_AS_HARD
1070
     0
  0
DICTIONARY
  5
19D8
330
1F
100
AcDbDictionary
  3
ACAD_LAYOUTSELFREF
350
1F3F
1001
ACAD
1000
TREAT_AS_HARD
1070
     1
  0
DICTIONARY
  5
19DA
330
1B
100
AcDbDictionary
  3
ACAD_LAYOUTSELFREF
350
1F3E
1001
ACAD
1000
TREAT_AS_HARD
1070
     1
  0
DICTIONARY
  5
D
102
{ACAD_REACTORS
330
C
102
}
330
C
100
AcDbDictionary
1001
ACAD
1000
TREAT_AS_HARD
1070
     0
  0
DICTIONARY
  5
1A
102
{ACAD_REACTORS
330
C
102
}
330
C
100
AcDbDictionary
1001
ACAD
1000
TREAT_AS_HARD
1070
     0
  0
DICTIONARY
  5
17
102
{ACAD_REACTORS
330
C
102
}
330
C
100
AcDbDictionary
  3
STANDARD
350
18
1001
ACAD
1000
TREAT_AS_HARD
1070
     0
  0
DICTIONARY
  5
19
102
{ACAD_REACTORS
330
C
102
}
330
C
100
AcDbDictionary
1001
ACAD
1000
TREAT_AS_HARD
1070
     0
  0
XRECORD
  5
1390
102
{ACAD_REACTORS
330
C
102
}
330
C
100
AcDbXrecord
 90
   990106
  3

 60
     0
 61
     0
 62
     1
 63
     3
 64
     0
 65
     0
 66
     0
 67
     3
 68
     1
 69
     0
 70
     0
 71
     0
 72
     0
 40
0.0
170
     0
340
19D4
  0
XRECORD
  5
4C7
102
{ACAD_REACTORS
330
C
102
}
330
C
100
AcDbXrecord
  1
DWGPROPS COOKIE
  2
印刷用テスト
  3
AutoCAD2000による建築設計
  4
鈴木 裕二
  6

  7

  8
U2
  9

300
=
301
=
302
=
303
=
304
=
305
=
306
=
307
=
308
=
309
=
 40
0.7653446875
 41
2451285.4846114
 42
2451333.689743032
  1

 90
        0
  0
XRECORD
  5
1F3F
102
{ACAD_REACTORS
330
19D8
102
}
330
19D8
100
AcDbXrecord
340
1F
  0
XRECORD
  5
1F3E
102
{ACAD_REACTORS
330
19DA
102
}
330
19DA
100
AcDbXrecord
340
1B
  0
MLINESTYLE
  5
18
102
{ACAD_REACTORS
330
17
102
}
330
17
100
AcDbMlineStyle
  2
STANDARD
 70
     0
  3

 62
   256
 51
90.0
 52
90.0
 71
     2
 49
0.5
 62
   256
  6
BYLAYER
 49
-0.5
 62
   256
  6
BYLAYER
  0
ENDSEC
  0
EOF
