  0
SECTION
  2
HEADER
  9
$ACADVER
  1
AC1012
  9
$DWGCODEPAGE
  3
dos932
  9
$INSBASE
 10
0.0
 20
0.0
 30
0.0
  9
$EXTMIN
 10
0.0
 20
0.0
 30
0.0
  9
$EXTMAX
 10
5940.0
 20
4200.0
 30
0.0
  9
$LIMMIN
 10
0.0
 20
0.0
  9
$LIMMAX
 10
5940.0
 20
4200.0
  9
$ORTHOMODE
 70
     1
  9
$REGENMODE
 70
     1
  9
$FILLMODE
 70
     1
  9
$QTEXTMODE
 70
     0
  9
$MIRRTEXT
 70
     0
  9
$DRAGMODE
 70
     2
  9
$LTSCALE
 40
10.0
  9
$OSMODE
 70
    39
  9
$ATTMODE
 70
     1
  9
$TEXTSIZE
 40
50.0
  9
$TRACEWID
 40
1.0
  9
$TEXTSTYLE
  7
ADD
  9
$CLAYER
  8
SUNPO
  9
$CELTYPE
  6
BYLAYER
  9
$CECOLOR
 62
   256
  9
$CELTSCALE
 40
1.0
  9
$DELOBJ
 70
     1
  9
$DISPSILH
 70
     0
  9
$DIMSCALE
 40
20.0
  9
$DIMASZ
 40
1.399999999999999
  9
$DIMEXO
 40
1.0
  9
$DIMDLI
 40
7.0
  9
$DIMRND
 40
0.0
  9
$DIMDLE
 40
0.0
  9
$DIMEXE
 40
0.5
  9
$DIMTP
 40
0.0
  9
$DIMTM
 40
0.0
  9
$DIMTXT
 40
1.8
  9
$DIMCEN
 40
1.399999999999999
  9
$DIMTSZ
 40
0.0
  9
$DIMTOL
 70
     0
  9
$DIMLIM
 70
     0
  9
$DIMTIH
 70
     0
  9
$DIMTOH
 70
     0
  9
$DIMSE1
 70
     0
  9
$DIMSE2
 70
     0
  9
$DIMTAD
 70
     1
  9
$DIMZIN
 70
     8
  9
$DIMBLK
  1

  9
$DIMASO
 70
     1
  9
$DIMSHO
 70
     1
  9
$DIMPOST
  1

  9
$DIMAPOST
  1

  9
$DIMALT
 70
     0
  9
$DIMALTD
 70
     3
  9
$DIMALTF
 40
0.03937007874016
  9
$DIMLFAC
 40
1.0
  9
$DIMTOFL
 70
     1
  9
$DIMTVP
 40
0.7
  9
$DIMTIX
 70
     1
  9
$DIMSOXD
 70
     0
  9
$DIMSAH
 70
     0
  9
$DIMBLK1
  1

  9
$DIMBLK2
  1

  9
$DIMSTYLE
  2
ADD
  9
$DIMCLRD
 70
   144
  9
$DIMCLRE
 70
   144
  9
$DIMCLRT
 70
     7
  9
$DIMTFAC
 40
1.0
  9
$DIMGAP
 40
0.625
  9
$DIMJUST
 70
     0
  9
$DIMSD1
 70
     0
  9
$DIMSD2
 70
     0
  9
$DIMTOLJ
 70
     2
  9
$DIMTZIN
 70
     8
  9
$DIMALTZ
 70
     0
  9
$DIMALTTZ
 70
     0
  9
$DIMFIT
 70
     5
  9
$DIMUPT
 70
     0
  9
$DIMUNIT
 70
     2
  9
$DIMDEC
 70
     1
  9
$DIMTDEC
 70
     1
  9
$DIMALTU
 70
     2
  9
$DIMALTTD
 70
     3
  9
$DIMTXSTY
  7
ADD
  9
$DIMAUNIT
 70
     0
  9
$LUNITS
 70
     2
  9
$LUPREC
 70
     4
  9
$SKETCHINC
 40
1.0
  9
$FILLETRAD
 40
30.0
  9
$AUNITS
 70
     0
  9
$AUPREC
 70
     1
  9
$MENU
  1
.
  9
$ELEVATION
 40
0.0
  9
$PELEVATION
 40
0.0
  9
$THICKNESS
 40
0.0
  9
$LIMCHECK
 70
     0
  9
$BLIPMODE
 70
     0
  9
$CHAMFERA
 40
30.0
  9
$CHAMFERB
 40
30.0
  9
$CHAMFERC
 40
20.0
  9
$CHAMFERD
 40
0.0
  9
$SKPOLY
 70
     0
  9
$TDCREATE
 40
2451801.142532870
  9
$TDUPDATE
 40
2451857.824684027
  9
$TDINDWG
 40
0.9062822801
  9
$TDUSRTIMER
 40
0.9062822801
  9
$USRTIMER
 70
     1
  9
$ANGBASE
 50
0.0
  9
$ANGDIR
 70
     0
  9
$PDMODE
 70
     0
  9
$PDSIZE
 40
0.0
  9
$PLINEWID
 40
0.0
  9
$COORDS
 70
     2
  9
$SPLFRAME
 70
     0
  9
$SPLINETYPE
 70
     6
  9
$SPLINESEGS
 70
     8
  9
$ATTDIA
 70
     0
  9
$ATTREQ
 70
     1
  9
$HANDLING
 70
 10241
  9
$HANDSEED
  5
2967
  9
$SURFTAB1
 70
     6
  9
$SURFTAB2
 70
     6
  9
$SURFTYPE
 70
     6
  9
$SURFU
 70
     6
  9
$SURFV
 70
     6
  9
$UCSNAME
  2

  9
$UCSORG
 10
0.0
 20
0.0
 30
0.0
  9
$UCSXDIR
 10
1.0
 20
0.0
 30
0.0
  9
$UCSYDIR
 10
0.0
 20
1.0
 30
0.0
  9
$PUCSNAME
  2

  9
$PUCSORG
 10
0.0
 20
0.0
 30
0.0
  9
$PUCSXDIR
 10
1.0
 20
0.0
 30
0.0
  9
$PUCSYDIR
 10
0.0
 20
1.0
 30
0.0
  9
$USERI1
 70
     0
  9
$USERI2
 70
     0
  9
$USERI3
 70
     0
  9
$USERI4
 70
     0
  9
$USERI5
 70
     0
  9
$USERR1
 40
841.0
  9
$USERR2
 40
594.0
  9
$USERR3
 40
1.0
  9
$USERR4
 40
0.0
  9
$USERR5
 40
0.0
  9
$WORLDVIEW
 70
     1
  9
$SHADEDGE
 70
     3
  9
$SHADEDIF
 70
    70
  9
$TILEMODE
 70
     1
  9
$MAXACTVP
 70
    48
  9
$PINSBASE
 10
0.0
 20
0.0
 30
0.0
  9
$PLIMCHECK
 70
     0
  9
$PEXTMIN
 10
-5.639720244523232
 20
-6.296546991387913
 30
0.0
  9
$PEXTMAX
 10
834.3956480283654
 20
560.9320000029947
 30
0.0
  9
$PLIMMIN
 10
-7.500000000000001
 20
-20.0
  9
$PLIMMAX
 10
833.5000000000002
 20
574.0000000000001
  9
$UNITMODE
 70
     0
  9
$VISRETAIN
 70
     1
  9
$PLINEGEN
 70
     0
  9
$PSLTSCALE
 70
     1
  9
$TREEDEPTH
 70
  3020
  9
$PICKSTYLE
 70
     1
  9
$CMLSTYLE
  2
STANDARD
  9
$CMLJUST
 70
     0
  9
$CMLSCALE
 40
20.0
  9
$SAVEIMAGES
 70
     1
  0
ENDSEC
  0
SECTION
  2
CLASSES
  0
CLASS
  1
ACDBDICTIONARYWDFLT
  2
AcDbDictionaryWithDefault
  3
AutoCAD 2000
 90
    32768
280
     0
281
     0
  0
CLASS
  1
ACDBPLACEHOLDER
  2
AcDbPlaceHolder
  3
AutoCAD 2000
 90
    32768
280
     0
281
     0
  0
CLASS
  1
LAYOUT
  2
AcDbLayout
  3
AutoCAD 2000
 90
    32768
280
     0
281
     0
  0
CLASS
  1
RTEXT
  2
RText
  3
RText|AutoCAD Express Tool|expresstools@autodesk.com
 90
    32768
280
     0
281
     1
  0
CLASS
  1
DICTIONARYVAR
  2
AcDbDictionaryVar
  3
AutoCAD 2000
 90
    32768
280
     0
281
     0
  0
CLASS
  1
LONG_TRANSACTION
  2
AcDbLongTransaction
  3
AutoCAD 2000
 90
    32768
280
     0
281
     0
  0
CLASS
  1
LWPOLYLINE
  2
AcDbPolyline
  3
AutoCAD 2000
 90
    32768
280
     0
281
     1
  0
CLASS
  1
HATCH
  2
AcDbHatch
  3
AutoCAD 2000
 90
    32768
280
     0
281
     1
  0
CLASS
  1
XRECORD
  2
AcDbXrecord
  3
AutoCAD 2000
 90
    32768
280
     0
281
     0
  0
CLASS
  1
LONG_TRANSACTION
  2
AcDbLongTransaction
  3
AutoCAD 2000
 90
    32768
280
     0
281
     0
  0
CLASS
  1
LWPOLYLINE
  2
AcDbPolyline
  3
AutoCAD 2000
 90
    32768
280
     0
281
     1
  0
CLASS
  1
HATCH
  2
AcDbHatch
  3
AutoCAD 2000
 90
    32768
280
     0
281
     1
  0
CLASS
  1
XRECORD
  2
AcDbXrecord
  3
AutoCAD 2000
 90
    32768
280
     0
281
     0
  0
CLASS
  1
LONG_TRANSACTION
  2
AcDbLongTransaction
  3
AutoCAD 2000
 90
    32768
280
     0
281
     0
  0
CLASS
  1
LWPOLYLINE
  2
AcDbPolyline
  3
AutoCAD 2000
 90
    32768
280
     0
281
     1
  0
CLASS
  1
HATCH
  2
AcDbHatch
  3
AutoCAD 2000
 90
    32768
280
     0
281
     1
  0
CLASS
  1
XRECORD
  2
AcDbXrecord
  3
AutoCAD 2000
 90
    32768
280
     0
281
     0
  0
CLASS
  1
LONG_TRANSACTION
  2
AcDbLongTransaction
  3
AutoCAD 2000
 90
    32768
280
     0
281
     0
  0
CLASS
  1
LWPOLYLINE
  2
AcDbPolyline
  3
AutoCAD 2000
 90
    32768
280
     0
281
     1
  0
CLASS
  1
HATCH
  2
AcDbHatch
  3
AutoCAD 2000
 90
    32768
280
     0
281
     1
  0
CLASS
  1
XRECORD
  2
AcDbXrecord
  3
AutoCAD 2000
 90
    32768
280
     0
281
     0
  0
ENDSEC
  0
SECTION
  2
TABLES
  0
TABLE
  2
VPORT
  5
8
330
0
100
AcDbSymbolTable
 70
     2
  0
VPORT
  5
2957
330
8
100
AcDbSymbolTableRecord
100
AcDbViewportTableRecord
  2
*ACTIVE
 70
     0
 10
0.0
 20
0.0
 11
1.0
 21
1.0
 12
2987.950737515612
 22
2315.846516533459
 13
0.0
 23
0.0
 14
50.0
 24
50.0
 15
10.0
 25
10.0
 16
0.0
 26
0.0
 36
1.0
 17
0.0
 27
0.0
 37
0.0
 40
4718.851216634448
 41
2.198738170347003
 42
50.0
 43
0.0
 44
0.0
 50
0.0
 51
0.0
 71
     0
 72
   100
 73
     1
 74
     1
 75
     0
 76
     0
 77
     0
 78
     0
  0
ENDTAB
  0
TABLE
  2
LTYPE
  5
5
330
0
100
AcDbSymbolTable
 70
     5
  0
LTYPE
  5
14
330
5
100
AcDbSymbolTableRecord
100
AcDbLinetypeTableRecord
  2
BYBLOCK
 70
     0
  3

 72
    65
 73
     0
 40
0.0
  0
LTYPE
  5
15
330
5
100
AcDbSymbolTableRecord
100
AcDbLinetypeTableRecord
  2
BYLAYER
 70
     0
  3

 72
    65
 73
     0
 40
0.0
  0
LTYPE
  5
16
330
5
100
AcDbSymbolTableRecord
100
AcDbLinetypeTableRecord
  2
CONTINUOUS
 70
     0
  3
Solid line
 72
    65
 73
     0
 40
0.0
  0
LTYPE
  5
555
330
5
100
AcDbSymbolTableRecord
100
AcDbLinetypeTableRecord
  2
CENTER
 70
     0
  3
Center ____ _ ____ _ ____ _ ____ _ ____ _ ____
 72
    65
 73
     4
 40
50.8
 49
31.75
 74
     0
 49
-6.349999999999999
 74
     0
 49
6.349999999999999
 74
     0
 49
-6.349999999999999
 74
     0
  0
LTYPE
  5
556
330
5
100
AcDbSymbolTableRecord
100
AcDbLinetypeTableRecord
  2
HIDDEN
 70
     0
  3
Hidden __ __ __ __ __ __ __ __ __ __ __ __ __ _
 72
    65
 73
     2
 40
9.524999999999998
 49
6.349999999999999
 74
     0
 49
-3.174999999999999
 74
     0
  0
LTYPE
  5
557
330
5
100
AcDbSymbolTableRecord
100
AcDbLinetypeTableRecord
  2
HIDDEN2
 70
     0
  3
Hidden (.5x) _ _ _ _ _ _ _ _ _ _ _ _ _ _ _ _ _
 72
    65
 73
     2
 40
4.762499999999999
 49
3.174999999999999
 74
     0
 49
-1.587499999999999
 74
     0
  0
LTYPE
  5
558
330
5
100
AcDbSymbolTableRecord
100
AcDbLinetypeTableRecord
  2
PHANTOM
 70
     0
  3
Phantom ______  __  __  ______  __  __  ______
 72
    65
 73
     6
 40
63.5
 49
31.75
 74
     0
 49
-6.349999999999999
 74
     0
 49
6.349999999999999
 74
     0
 49
-6.349999999999999
 74
     0
 49
6.349999999999999
 74
     0
 49
-6.349999999999999
 74
     0
  0
ENDTAB
  0
TABLE
  2
LAYER
  5
2
330
0
100
AcDbSymbolTable
 70
    22
  0
LAYER
  5
10
330
2
100
AcDbSymbolTableRecord
100
AcDbLayerTableRecord
  2
0
 70
     0
 62
     7
  6
CONTINUOUS
  0
LAYER
  5
75
330
2
100
AcDbSymbolTableRecord
100
AcDbLayerTableRecord
  2
VIEWPORT
 70
     0
 62
     1
  6
CONTINUOUS
  0
LAYER
  5
504
330
2
100
AcDbSymbolTableRecord
100
AcDbLayerTableRecord
  2
DEFPOINTS
 70
     0
 62
     7
  6
CONTINUOUS
  0
LAYER
  5
505
330
2
100
AcDbSymbolTableRecord
100
AcDbLayerTableRecord
  2
1C1
 70
     0
 62
   254
  6
CONTINUOUS
  0
LAYER
  5
506
330
2
100
AcDbSymbolTableRecord
100
AcDbLayerTableRecord
  2
1C2
 70
     0
 62
   254
  6
CONTINUOUS
  0
LAYER
  5
507
330
2
100
AcDbSymbolTableRecord
100
AcDbLayerTableRecord
  2
2C1
 70
     0
 62
   144
  6
CONTINUOUS
  0
LAYER
  5
508
330
2
100
AcDbSymbolTableRecord
100
AcDbLayerTableRecord
  2
2C2
 70
     0
 62
   144
  6
CONTINUOUS
  0
LAYER
  5
509
330
2
100
AcDbSymbolTableRecord
100
AcDbLayerTableRecord
  2
2H1
 70
     0
 62
   144
  6
HIDDEN
  0
LAYER
  5
50A
330
2
100
AcDbSymbolTableRecord
100
AcDbLayerTableRecord
  2
2H2
 70
     0
 62
   144
  6
HIDDEN2
  0
LAYER
  5
50B
330
2
100
AcDbSymbolTableRecord
100
AcDbLayerTableRecord
  2
2P1
 70
     0
 62
   144
  6
PHANTOM
  0
LAYER
  5
50C
330
2
100
AcDbSymbolTableRecord
100
AcDbLayerTableRecord
  2
3C1
 70
     0
 62
     7
  6
CONTINUOUS
  0
LAYER
  5
50D
330
2
100
AcDbSymbolTableRecord
100
AcDbLayerTableRecord
  2
3C2
 70
     0
 62
     7
  6
CONTINUOUS
  0
LAYER
  5
50E
330
2
100
AcDbSymbolTableRecord
100
AcDbLayerTableRecord
  2
3C3
 70
     0
 62
     7
  6
CONTINUOUS
  0
LAYER
  5
50F
330
2
100
AcDbSymbolTableRecord
100
AcDbLayerTableRecord
  2
4H1
 70
     0
 62
     6
  6
HIDDEN
  0
LAYER
  5
510
330
2
100
AcDbSymbolTableRecord
100
AcDbLayerTableRecord
  2
4H2
 70
     0
 62
     6
  6
HIDDEN2
  0
LAYER
  5
511
330
2
100
AcDbSymbolTableRecord
100
AcDbLayerTableRecord
  2
5C1
 70
     0
 62
    55
  6
CONTINUOUS
  0
LAYER
  5
512
330
2
100
AcDbSymbolTableRecord
100
AcDbLayerTableRecord
  2
5C2
 70
     0
 62
    55
  6
CONTINUOUS
  0
LAYER
  5
513
330
2
100
AcDbSymbolTableRecord
100
AcDbLayerTableRecord
  2
8C1
 70
     0
 62
    92
  6
CONTINUOUS
  0
LAYER
  5
514
330
2
100
AcDbSymbolTableRecord
100
AcDbLayerTableRecord
  2
HOJO
 70
     0
 62
     5
  6
CONTINUOUS
  0
LAYER
  5
515
330
2
100
AcDbSymbolTableRecord
100
AcDbLayerTableRecord
  2
KIJUN
 70
     0
 62
     1
  6
CENTER
  0
LAYER
  5
516
330
2
100
AcDbSymbolTableRecord
100
AcDbLayerTableRecord
  2
MOJI
 70
     0
 62
     7
  6
CONTINUOUS
  0
LAYER
  5
517
330
2
100
AcDbSymbolTableRecord
100
AcDbLayerTableRecord
  2
SUNPO
 70
     0
 62
   144
  6
CONTINUOUS
  0
ENDTAB
  0
TABLE
  2
STYLE
  5
3
330
0
100
AcDbSymbolTable
 70
     6
  0
STYLE
  5
11
330
3
100
AcDbSymbolTableRecord
100
AcDbTextStyleTableRecord
  2
STANDARD
 70
     0
 40
0.0
 41
1.0
 50
0.0
 71
     0
 42
2.5
  3
txt
  4

  0
STYLE
  5
2C
330
3
100
AcDbSymbolTableRecord
100
AcDbTextStyleTableRecord
  2

 70
     1
 40
0.0
 41
1.0
 50
0.0
 71
     0
 42
2.5
  3
ltypeshp.shx
  4

  0
STYLE
  5
18E
330
3
100
AcDbSymbolTableRecord
100
AcDbTextStyleTableRecord
  2
ADD
 70
     0
 40
0.0
 41
1.0
 50
0.0
 71
     0
 42
50.0
  3
romans.shx
  4
bigfont.shx
  0
STYLE
  5
191
330
3
100
AcDbSymbolTableRecord
100
AcDbTextStyleTableRecord
  2
MSG
 70
     0
 40
0.0
 41
1.0
 50
0.0
 71
     0
 42
2.5
  3
MS Gothic.ttf
  4

1001
ACAD
1000
MS Gothic
1071
    32817
  0
STYLE
  5
5C8
330
3
100
AcDbSymbolTableRecord
100
AcDbTextStyleTableRecord
  2
STANDARD15
 70
     0
 40
0.0
 41
1.0
 50
15.0
 71
     0
 42
2.5
  3
ROMANS
  4
bigfont
  0
STYLE
  5
5C9
330
3
100
AcDbSymbolTableRecord
100
AcDbTextStyleTableRecord
  2
ROMANS15
 70
     0
 40
0.0
 41
1.0
 50
15.0
 71
     0
 42
2.5
  3
romans
  4

  0
ENDTAB
  0
TABLE
  2
VIEW
  5
6
330
0
100
AcDbSymbolTable
 70
     1
  0
VIEW
  5
54D
330
6
100
AcDbSymbolTableRecord
100
AcDbViewTableRecord
  2
ALL
 70
     0
 40
594.0
 10
420.5
 20
297.0
 41
865.125
 11
0.0
 21
0.0
 31
1.0
 12
0.0
 22
0.0
 32
0.0
 42
50.0
 43
0.0
 44
0.0
 50
0.0
 71
     0
  0
ENDTAB
  0
TABLE
  2
UCS
  5
7
330
0
100
AcDbSymbolTable
 70
     0
  0
ENDTAB
  0
TABLE
  2
APPID
  5
9
330
0
100
AcDbSymbolTable
 70
     4
  0
APPID
  5
12
330
9
100
AcDbSymbolTableRecord
100
AcDbRegAppTableRecord
  2
ACAD
 70
     0
  0
APPID
  5
5CB
330
9
100
AcDbSymbolTableRecord
100
AcDbRegAppTableRecord
  2
ARAIGUMI_YOHEKI
 70
     0
  0
APPID
  5
5CC
330
9
100
AcDbSymbolTableRecord
100
AcDbRegAppTableRecord
  2
CONTENTTABDATA
 70
     0
  0
APPID
  5
5CD
330
9
100
AcDbSymbolTableRecord
100
AcDbRegAppTableRecord
  2
CONTENTCURRENTTAB
 70
     0
  0
ENDTAB
  0
TABLE
  2
DIMSTYLE
  5
A
330
0
100
AcDbSymbolTable
 70
    10
  0
DIMSTYLE
105
27
330
A
100
AcDbSymbolTableRecord
100
AcDbDimStyleTableRecord
  2
ISO-25
 70
     0
  3

  4

  5

  6

  7

 40
1.0
 41
2.5
 42
0.625
 43
3.75
 44
1.25
 45
0.0
 46
0.0
 47
0.0
 48
0.0
140
2.5
141
2.5
142
0.0
143
0.03937007874016
144
1.0
145
0.0
146
1.0
147
0.625
 71
     0
 72
     0
 73
     0
 74
     0
 75
     0
 76
     0
 77
     1
 78
     8
170
     0
171
     3
172
     1
173
     0
174
     0
175
     0
176
     0
177
     0
178
     0
270
     2
271
     2
272
     2
273
     2
274
     3
340
11
275
     0
280
     0
281
     0
282
     0
283
     0
284
     8
285
     0
286
     0
287
     3
288
     0
  0
DIMSTYLE
105
197
330
A
100
AcDbSymbolTableRecord
100
AcDbDimStyleTableRecord
  2
ADD
 70
     0
  3

  4

  5

  6

  7

 40
1.0
 41
2.5
 42
1.0
 43
7.0
 44
0.5
 45
0.0
 46
0.0
 47
0.0
 48
0.0
140
2.5
141
2.5
142
0.0
143
0.03937007874016
144
1.0
145
0.7
146
1.0
147
0.625
 71
     0
 72
     0
 73
     0
 74
     0
 75
     0
 76
     0
 77
     1
 78
     8
170
     0
171
     3
172
     1
173
     0
174
     1
175
     0
176
   144
177
   144
178
     7
270
     2
271
     1
272
     1
273
     2
274
     3
340
18E
275
     0
280
     0
281
     0
282
     0
283
     2
284
     8
285
     0
286
     0
287
     5
288
     0
  0
DIMSTYLE
105
3E6
330
A
100
AcDbSymbolTableRecord
100
AcDbDimStyleTableRecord
  2
ADD$2
 70
     0
  3

  4

  5

  6

  7

 40
1.0
 41
2.5
 42
1.0
 43
7.0
 44
0.5
 45
0.0
 46
0.0
 47
0.0
 48
0.0
140
2.5
141
2.5
142
0.0
143
0.03937007874016
144
1.0
145
0.7
146
1.0
147
0.625
 71
     0
 72
     0
 73
     0
 74
     0
 75
     0
 76
     0
 77
     1
 78
     8
170
     0
171
     3
172
     1
173
     0
174
     1
175
     0
176
   144
177
   144
178
     7
270
     2
271
     1
272
     1
273
     2
274
     3
340
18E
275
     0
280
     0
281
     0
282
     0
283
     2
284
     8
285
     0
286
     0
287
     5
288
     0
  0
DIMSTYLE
105
3E7
330
A
100
AcDbSymbolTableRecord
100
AcDbDimStyleTableRecord
  2
ADD$4
 70
     0
  3

  4

  5

  6

  7

 40
1.0
 41
2.5
 42
1.0
 43
7.0
 44
0.5
 45
0.0
 46
0.0
 47
0.0
 48
0.0
140
2.5
141
2.5
142
0.0
143
0.03937007874016
144
1.0
145
0.0
146
1.0
147
0.625
 71
     0
 72
     0
 73
     0
 74
     0
 75
     0
 76
     0
 77
     1
 78
     8
170
     0
171
     3
172
     1
173
     0
174
     1
175
     0
176
   144
177
   144
178
     7
270
     2
271
     1
272
     1
273
     2
274
     3
340
18E
275
     0
280
     0
281
     0
282
     0
283
     2
284
     8
285
     0
286
     0
287
     5
288
     0
  0
DIMSTYLE
105
3E8
330
A
100
AcDbSymbolTableRecord
100
AcDbDimStyleTableRecord
  2
ADD$3
 70
     0
  3

  4

  5

  6

  7

 40
1.0
 41
2.5
 42
1.0
 43
7.0
 44
0.5
 45
0.0
 46
0.0
 47
0.0
 48
0.0
140
2.5
141
2.5
142
0.0
143
0.03937007874016
144
1.0
145
0.0
146
1.0
147
0.625
 71
     0
 72
     0
 73
     0
 74
     0
 75
     0
 76
     0
 77
     1
 78
     8
170
     0
171
     3
172
     1
173
     0
174
     1
175
     0
176
   144
177
   144
178
     7
270
     2
271
     1
272
     1
273
     2
274
     3
340
18E
275
     0
280
     0
281
     0
282
     0
283
     2
284
     8
285
     0
286
     0
287
     5
288
     0
  0
DIMSTYLE
105
3E9
330
A
100
AcDbSymbolTableRecord
100
AcDbDimStyleTableRecord
  2
ADD$6
 70
     0
  3

  4

  5

  6

  7

 40
1.0
 41
2.5
 42
1.0
 43
7.0
 44
0.5
 45
0.0
 46
0.0
 47
0.0
 48
0.0
140
2.5
141
2.5
142
0.0
143
0.03937007874016
144
1.0
145
0.0
146
1.0
147
0.625
 71
     0
 72
     0
 73
     0
 74
     0
 75
     0
 76
     0
 77
     1
 78
     8
170
     0
171
     3
172
     1
173
     0
174
     1
175
     0
176
   144
177
   144
178
     7
270
     2
271
     1
272
     1
273
     2
274
     3
340
18E
275
     0
280
     0
281
     0
282
     0
283
     2
284
     8
285
     0
286
     0
287
     5
288
     0
  0
DIMSTYLE
105
3EA
330
A
100
AcDbSymbolTableRecord
100
AcDbDimStyleTableRecord
  2
ADD$7
 70
     0
  3

  4

  5

  6

  7

 40
1.0
 41
2.5
 42
1.0
 43
7.0
 44
0.5
 45
0.0
 46
0.0
 47
0.0
 48
0.0
140
2.5
141
2.5
142
0.0
143
0.03937007874016
144
1.0
145
0.0
146
1.0
147
0.625
 71
     0
 72
     0
 73
     0
 74
     0
 75
     0
 76
     0
 77
     0
 78
     8
170
     0
171
     3
172
     1
173
     0
174
     1
175
     0
176
   144
177
   144
178
     7
270
     2
271
     1
272
     1
273
     2
274
     3
340
18E
275
     0
280
     0
281
     0
282
     0
283
     2
284
     8
285
     0
286
     0
287
     5
288
     0
  0
DIMSTYLE
105
518
330
A
100
AcDbSymbolTableRecord
100
AcDbDimStyleTableRecord
  2
STANDARD
 70
     0
  3

  4

  5

  6

  7

 40
1.0
 41
0.18
 42
0.0625
 43
0.38
 44
0.18
 45
0.0
 46
0.0
 47
0.0
 48
0.0
140
0.18
141
0.09
142
0.0
143
25.4
144
1.0
145
0.0
146
1.0
147
0.09
 71
     0
 72
     0
 73
     1
 74
     1
 75
     0
 76
     0
 77
     0
 78
     0
170
     0
171
     2
172
     0
173
     0
174
     0
175
     0
176
     0
177
     0
178
     0
270
     2
271
     4
272
     4
273
     2
274
     2
340
11
275
     0
280
     0
281
     0
282
     0
283
     1
284
     0
285
     0
286
     0
287
     3
288
     0
  0
DIMSTYLE
105
550
102
{ACAD_REACTORS
330
2503
330
24F6
330
24E9
330
24DC
330
24CF
330
24C0
330
24B3
330
249F
330
2490
330
2483
330
2474
330
23B7
330
23AA
330
239D
330
2270
330
2261
330
2254
330
2247
330
223A
330
21EC
330
21DF
330
21D0
330
2126
330
2119
330
210C
102
}
330
A
100
AcDbSymbolTableRecord
100
AcDbDimStyleTableRecord
  2
ADD$0
 70
     0
  3

  4

  5

  6

  7

 40
1.0
 41
2.2
 42
1.0
 43
7.0
 44
0.5
 45
0.0
 46
0.0
 47
0.0
 48
0.0
140
2.5
141
2.5
142
0.0
143
0.03937007874016
144
1.0
145
0.7
146
1.0
147
0.625
 71
     0
 72
     0
 73
     0
 74
     0
 75
     0
 76
     0
 77
     1
 78
     8
170
     0
171
     3
172
     1
173
     0
174
     1
175
     0
176
   144
177
   144
178
     7
270
     2
271
     1
272
     1
273
     2
274
     3
340
18E
275
     0
280
     0
281
     0
282
     0
283
     2
284
     8
285
     0
286
     0
287
     5
288
     0
  0
DIMSTYLE
105
59B
330
A
100
AcDbSymbolTableRecord
100
AcDbDimStyleTableRecord
  2
ADD_M
 70
     0
  3

  4

  5

  6

  7

 40
1.0
 41
2.5
 42
1.0
 43
7.0
 44
0.5
 45
0.0
 46
0.0
 47
0.0
 48
0.0
140
2.5
141
2.5
142
0.0
143
0.03937007874016
144
1.0
145
0.7
146
1.0
147
0.625
 71
     0
 72
     0
 73
     0
 74
     0
 75
     0
 76
     0
 77
     1
 78
     8
170
     0
171
     3
172
     1
173
     0
174
     1
175
     0
176
   144
177
   144
178
     7
270
     2
271
     1
272
     1
273
     2
274
     3
340
18E
275
     0
280
     0
281
     0
282
     0
283
     2
284
     8
285
     0
286
     0
287
     5
288
     0
  0
ENDTAB
  0
TABLE
  2
BLOCK_RECORD
  5
1
330
0
100
AcDbSymbolTable
 70
    30
  0
BLOCK_RECORD
  5
1F
102
{ACAD_XDICTIONARY
360
2669
102
}
330
1
100
AcDbSymbolTableRecord
100
AcDbBlockTableRecord
  2
*MODEL_SPACE
  0
BLOCK_RECORD
  5
1B
102
{ACAD_XDICTIONARY
360
266B
102
}
330
1
100
AcDbSymbolTableRecord
100
AcDbBlockTableRecord
  2
*PAPER_SPACE
  0
BLOCK_RECORD
  5
192
330
1
100
AcDbSymbolTableRecord
100
AcDbBlockTableRecord
  2
_DOT
  0
BLOCK_RECORD
  5
5CE
330
1
100
AcDbSymbolTableRecord
100
AcDbBlockTableRecord
  2
A4
  0
BLOCK_RECORD
  5
636
330
1
100
AcDbSymbolTableRecord
100
AcDbBlockTableRecord
  2
_OPEN90
  0
BLOCK_RECORD
  5
63C
330
1
100
AcDbSymbolTableRecord
100
AcDbBlockTableRecord
  2
_OPEN30
  0
BLOCK_RECORD
  5
FDC
330
1
100
AcDbSymbolTableRecord
100
AcDbBlockTableRecord
  2
_DATUMFILLED
  0
BLOCK_RECORD
  5
210D
330
1
100
AcDbSymbolTableRecord
100
AcDbBlockTableRecord
  2
*D5
  0
BLOCK_RECORD
  5
211A
330
1
100
AcDbSymbolTableRecord
100
AcDbBlockTableRecord
  2
*D6
  0
BLOCK_RECORD
  5
2127
330
1
100
AcDbSymbolTableRecord
100
AcDbBlockTableRecord
  2
*D7
  0
BLOCK_RECORD
  5
21D1
330
1
100
AcDbSymbolTableRecord
100
AcDbBlockTableRecord
  2
*D8
  0
BLOCK_RECORD
  5
21E0
330
1
100
AcDbSymbolTableRecord
100
AcDbBlockTableRecord
  2
*D9
  0
BLOCK_RECORD
  5
21ED
330
1
100
AcDbSymbolTableRecord
100
AcDbBlockTableRecord
  2
*D10
  0
BLOCK_RECORD
  5
223B
330
1
100
AcDbSymbolTableRecord
100
AcDbBlockTableRecord
  2
*D11
  0
BLOCK_RECORD
  5
2248
330
1
100
AcDbSymbolTableRecord
100
AcDbBlockTableRecord
  2
*D12
  0
BLOCK_RECORD
  5
2255
330
1
100
AcDbSymbolTableRecord
100
AcDbBlockTableRecord
  2
*D13
  0
BLOCK_RECORD
  5
2262
330
1
100
AcDbSymbolTableRecord
100
AcDbBlockTableRecord
  2
*D14
  0
BLOCK_RECORD
  5
2271
330
1
100
AcDbSymbolTableRecord
100
AcDbBlockTableRecord
  2
*D15
  0
BLOCK_RECORD
  5
239E
330
1
100
AcDbSymbolTableRecord
100
AcDbBlockTableRecord
  2
*D16
  0
BLOCK_RECORD
  5
23AB
330
1
100
AcDbSymbolTableRecord
100
AcDbBlockTableRecord
  2
*D17
  0
BLOCK_RECORD
  5
23B8
330
1
100
AcDbSymbolTableRecord
100
AcDbBlockTableRecord
  2
*D18
  0
BLOCK_RECORD
  5
2475
330
1
100
AcDbSymbolTableRecord
100
AcDbBlockTableRecord
  2
*D19
  0
BLOCK_RECORD
  5
2484
330
1
100
AcDbSymbolTableRecord
100
AcDbBlockTableRecord
  2
*D20
  0
BLOCK_RECORD
  5
2491
330
1
100
AcDbSymbolTableRecord
100
AcDbBlockTableRecord
  2
*D21
  0
BLOCK_RECORD
  5
24A0
330
1
100
AcDbSymbolTableRecord
100
AcDbBlockTableRecord
  2
*D22
  0
BLOCK_RECORD
  5
24B4
330
1
100
AcDbSymbolTableRecord
100
AcDbBlockTableRecord
  2
*D23
  0
BLOCK_RECORD
  5
24C1
330
1
100
AcDbSymbolTableRecord
100
AcDbBlockTableRecord
  2
*D24
  0
BLOCK_RECORD
  5
24D0
330
1
100
AcDbSymbolTableRecord
100
AcDbBlockTableRecord
  2
*D25
  0
BLOCK_RECORD
  5
24DD
330
1
100
AcDbSymbolTableRecord
100
AcDbBlockTableRecord
  2
*D26
  0
BLOCK_RECORD
  5
24EA
330
1
100
AcDbSymbolTableRecord
100
AcDbBlockTableRecord
  2
*D27
  0
BLOCK_RECORD
  5
24F7
330
1
100
AcDbSymbolTableRecord
100
AcDbBlockTableRecord
  2
*D28
  0
BLOCK_RECORD
  5
2504
330
1
100
AcDbSymbolTableRecord
100
AcDbBlockTableRecord
  2
*D29
  0
ENDTAB
  0
ENDSEC
  0
SECTION
  2
BLOCKS
  0
BLOCK
  5
20
330
1F
100
AcDbEntity
  8
0
100
AcDbBlockBegin
  2
*MODEL_SPACE
 70
     0
 10
0.0
 20
0.0
 30
0.0
  3
*MODEL_SPACE
  1

  0
ENDBLK
  5
21
330
1F
100
AcDbEntity
  8
0
100
AcDbBlockEnd
  0
BLOCK
  5
1C
330
1B
100
AcDbEntity
 67
     1
  8
0
100
AcDbBlockBegin
  2
*PAPER_SPACE
 70
     0
 10
0.0
 20
0.0
 30
0.0
  3
*PAPER_SPACE
  1

  0
ENDBLK
  5
1D
330
1B
100
AcDbEntity
 67
     1
  8
0
100
AcDbBlockEnd
  0
BLOCK
  5
195
330
192
100
AcDbEntity
  8
0
100
AcDbBlockBegin
  2
_DOT
 70
     0
 10
0.0
 20
0.0
 30
0.0
  3
_DOT
  1

  0
POLYLINE
  5
193
330
192
100
AcDbEntity
  8
0
 62
     0
100
AcDb2dPolyline
 66
     1
 10
0.0
 20
0.0
 30
0.0
 70
     1
 40
0.5
 41
0.5
  0
VERTEX
  5
295A
330
193
100
AcDbEntity
  8
0
 62
     0
100
AcDbVertex
100
AcDb2dVertex
 10
-0.25
 20
0.0
 30
0.0
 42
1.0
  0
VERTEX
  5
295B
330
193
100
AcDbEntity
  8
0
 62
     0
100
AcDbVertex
100
AcDb2dVertex
 10
0.25
 20
0.0
 30
0.0
 42
1.0
  0
SEQEND
  5
295C
330
193
100
AcDbEntity
  8
0
 62
     0
  0
LINE
  5
194
330
192
100
AcDbEntity
  8
0
 62
     0
100
AcDbLine
 10
-0.5
 20
0.0
 30
0.0
 11
-1.0
 21
0.0
 31
0.0
  0
ENDBLK
  5
196
330
192
100
AcDbEntity
  8
0
100
AcDbBlockEnd
  0
BLOCK
  5
5D1
330
5CE
100
AcDbEntity
  8
0
100
AcDbBlockBegin
  2
A4
 70
     0
 10
0.0
 20
0.0
 30
0.0
  3
A4
  1

  0
POLYLINE
  5
5CF
330
5CE
100
AcDbEntity
  8
HOJO
100
AcDb2dPolyline
 66
     1
 10
0.0
 20
0.0
 30
0.0
 70
     1
  0
VERTEX
  5
295D
330
5CF
100
AcDbEntity
  8
HOJO
100
AcDbVertex
100
AcDb2dVertex
 10
0.0
 20
0.0
 30
0.0
  0
VERTEX
  5
295E
330
5CF
100
AcDbEntity
  8
HOJO
100
AcDbVertex
100
AcDb2dVertex
 10
297.0
 20
0.0
 30
0.0
  0
VERTEX
  5
295F
330
5CF
100
AcDbEntity
  8
HOJO
100
AcDbVertex
100
AcDb2dVertex
 10
297.0
 20
210.0
 30
0.0
  0
VERTEX
  5
2960
330
5CF
100
AcDbEntity
  8
HOJO
100
AcDbVertex
100
AcDb2dVertex
 10
0.0
 20
210.0
 30
0.0
  0
SEQEND
  5
2961
330
5CF
100
AcDbEntity
  8
HOJO
  0
POLYLINE
  5
5D0
330
5CE
100
AcDbEntity
  8
HOJO
100
AcDb2dPolyline
 66
     1
 10
0.0
 20
0.0
 30
0.0
 70
     1
  0
VERTEX
  5
2962
330
5D0
100
AcDbEntity
  8
HOJO
100
AcDbVertex
100
AcDb2dVertex
 10
18.0
 20
13.0
 30
0.0
  0
VERTEX
  5
2963
330
5D0
100
AcDbEntity
  8
HOJO
100
AcDbVertex
100
AcDb2dVertex
 10
279.0
 20
13.0
 30
0.0
  0
VERTEX
  5
2964
330
5D0
100
AcDbEntity
  8
HOJO
100
AcDbVertex
100
AcDb2dVertex
 10
279.0
 20
197.0
 30
0.0
  0
VERTEX
  5
2965
330
5D0
100
AcDbEntity
  8
HOJO
100
AcDbVertex
100
AcDb2dVertex
 10
18.0
 20
197.0
 30
0.0
  0
SEQEND
  5
2966
330
5D0
100
AcDbEntity
  8
HOJO
  0
ENDBLK
  5
5D2
330
5CE
100
AcDbEntity
  8
0
100
AcDbBlockEnd
  0
BLOCK
  5
63A
330
636
100
AcDbEntity
  8
0
100
AcDbBlockBegin
  2
_OPEN90
 70
     0
 10
0.0
 20
0.0
 30
0.0
  3
_OPEN90
  1

  0
LINE
  5
637
330
636
100
AcDbEntity
  8
SUNPO
 62
     0
100
AcDbLine
 10
-0.5
 20
0.5
 30
0.0
 11
0.0
 21
0.0
 31
0.0
  0
LINE
  5
638
330
636
100
AcDbEntity
  8
SUNPO
 62
     0
100
AcDbLine
 10
0.0
 20
0.0
 30
0.0
 11
-0.5
 21
-0.5
 31
0.0
  0
LINE
  5
639
330
636
100
AcDbEntity
  8
SUNPO
 62
     0
100
AcDbLine
 10
0.0
 20
0.0
 30
0.0
 11
-1.0
 21
0.0
 31
0.0
  0
ENDBLK
  5
63B
330
636
100
AcDbEntity
  8
0
100
AcDbBlockEnd
  0
BLOCK
  5
640
330
63C
100
AcDbEntity
  8
0
100
AcDbBlockBegin
  2
_OPEN30
 70
     0
 10
0.0
 20
0.0
 30
0.0
  3
_OPEN30
  1

  0
LINE
  5
63D
330
63C
100
AcDbEntity
  8
SUNPO
 62
     0
100
AcDbLine
 10
-1.0
 20
0.26794919
 30
0.0
 11
0.0
 21
0.0
 31
0.0
  0
LINE
  5
63E
330
63C
100
AcDbEntity
  8
SUNPO
 62
     0
100
AcDbLine
 10
0.0
 20
0.0
 30
0.0
 11
-1.0
 21
-0.26794919
 31
0.0
  0
LINE
  5
63F
330
63C
100
AcDbEntity
  8
SUNPO
 62
     0
100
AcDbLine
 10
0.0
 20
0.0
 30
0.0
 11
-1.0
 21
0.0
 31
0.0
  0
ENDBLK
  5
641
330
63C
100
AcDbEntity
  8
0
100
AcDbBlockEnd
  0
BLOCK
  5
FDE
330
FDC
100
AcDbEntity
  8
0
100
AcDbBlockBegin
  2
_DATUMFILLED
 70
     0
 10
0.0
 20
0.0
 30
0.0
  3
_DATUMFILLED
  1

  0
SOLID
  5
FDD
330
FDC
100
AcDbEntity
  8
MOJI
 62
     0
100
AcDbTrace
 10
0.0
 20
0.5773502700000001
 30
0.0
 11
-1.0
 21
0.0
 31
0.0
 12
0.0
 22
-0.5773502700000001
 32
0.0
 13
0.0
 23
-0.5773502700000001
 33
0.0
  0
ENDBLK
  5
FDF
330
FDC
100
AcDbEntity
  8
0
100
AcDbBlockEnd
  0
BLOCK
  5
2117
330
210D
100
AcDbEntity
  8
0
100
AcDbBlockBegin
  2
*D5
 70
     1
 10
0.0
 20
0.0
 30
0.0
  3
*D5
  1

  0
LINE
  5
2647
330
210D
100
AcDbEntity
  8
SUNPO
 62
   144
100
AcDbLine
 10
3550.0
 20
2389.0
 30
0.0
 11
3550.0
 21
2240.0
 31
0.0
  0
LINE
  5
2648
330
210D
100
AcDbEntity
  8
SUNPO
 62
   144
100
AcDbLine
 10
3699.999999999999
 20
2389.0
 30
0.0
 11
3699.999999999999
 21
2240.0
 31
0.0
  0
LINE
  5
2649
330
210D
100
AcDbEntity
  8
SUNPO
 62
   144
100
AcDbLine
 10
3578.0
 20
2250.0
 30
0.0
 11
3672.0
 21
2250.0
 31
0.0
  0
SOLID
  5
264A
330
210D
100
AcDbEntity
  8
SUNPO
 62
   144
100
AcDbTrace
 10
3578.0
 20
2254.666666666666
 30
0.0
 11
3578.0
 21
2245.333333333333
 31
0.0
 12
3550.0
 22
2250.0
 32
0.0
 13
3550.0
 23
2250.0
 33
0.0
  0
SOLID
  5
264B
330
210D
100
AcDbEntity
  8
SUNPO
 62
   144
100
AcDbTrace
 10
3672.0
 20
2254.666666666666
 30
0.0
 11
3672.0
 21
2245.333333333333
 31
0.0
 12
3699.999999999999
 22
2250.0
 32
0.0
 13
3699.999999999999
 23
2250.0
 33
0.0
  0
MTEXT
  5
264C
330
210D
100
AcDbEntity
  8
SUNPO
 62
     7
100
AcDbMText
 10
3625.0
 20
2280.499999999999
 30
0.0
 40
36.0
 41
0.0
 71
     5
 72
     1
  1
\A2;150
  7
ADD
1001
ACAD
1000
MTEXTBEGIN
1070
    73
1070
     1
1070
    44
1040
1.0
1070
    74
1070
     0
1000
MTEXTEND
1000
MTEXTBEGIN
1070
    73
1070
     1
1070
    44
1040
1.0
1070
    74
1070
     0
1000
MTEXTEND
1000
MTEXTBEGIN
1070
    73
1070
     1
1070
    44
1040
1.0
1070
    74
1070
     0
1000
MTEXTEND
1000
MTEXTBEGIN
1070
    73
1070
     1
1070
    44
1040
1.0
1070
    74
1070
     0
1000
MTEXTEND
  0
POINT
  5
264D
330
210D
100
AcDbEntity
  8
DEFPOINTS
 62
     0
100
AcDbPoint
 10
3550.0
 20
2409.0
 30
0.0
  0
POINT
  5
264E
330
210D
100
AcDbEntity
  8
DEFPOINTS
 62
     0
100
AcDbPoint
 10
3699.999999999999
 20
2409.0
 30
0.0
  0
POINT
  5
264F
330
210D
100
AcDbEntity
  8
DEFPOINTS
 62
     0
100
AcDbPoint
 10
3699.999999999999
 20
2250.0
 30
0.0
  0
ENDBLK
  5
2118
330
210D
100
AcDbEntity
  8
0
100
AcDbBlockEnd
  0
BLOCK
  5
2124
330
211A
100
AcDbEntity
  8
0
100
AcDbBlockBegin
  2
*D6
 70
     1
 10
0.0
 20
0.0
 30
0.0
  3
*D6
  1

  0
LINE
  5
263E
330
211A
100
AcDbEntity
  8
SUNPO
 62
   144
100
AcDbLine
 10
3699.999999999999
 20
2389.0
 30
0.0
 11
3699.999999999999
 21
2240.0
 31
0.0
  0
LINE
  5
263F
330
211A
100
AcDbEntity
  8
SUNPO
 62
   144
100
AcDbLine
 10
4100.0
 20
2389.0
 30
0.0
 11
4100.0
 21
2240.0
 31
0.0
  0
LINE
  5
2640
330
211A
100
AcDbEntity
  8
SUNPO
 62
   144
100
AcDbLine
 10
3727.999999999999
 20
2250.0
 30
0.0
 11
4072.0
 21
2250.0
 31
0.0
  0
SOLID
  5
2641
330
211A
100
AcDbEntity
  8
SUNPO
 62
   144
100
AcDbTrace
 10
3727.999999999999
 20
2254.666666666666
 30
0.0
 11
3727.999999999999
 21
2245.333333333333
 31
0.0
 12
3699.999999999999
 22
2250.0
 32
0.0
 13
3699.999999999999
 23
2250.0
 33
0.0
  0
SOLID
  5
2642
330
211A
100
AcDbEntity
  8
SUNPO
 62
   144
100
AcDbTrace
 10
4072.0
 20
2254.666666666666
 30
0.0
 11
4072.0
 21
2245.333333333333
 31
0.0
 12
4100.0
 22
2250.0
 32
0.0
 13
4100.0
 23
2250.0
 33
0.0
  0
MTEXT
  5
2643
330
211A
100
AcDbEntity
  8
SUNPO
 62
     7
100
AcDbMText
 10
3900.0
 20
2280.499999999999
 30
0.0
 40
36.0
 41
0.0
 71
     5
 72
     1
  1
\A2;400
  7
ADD
1001
ACAD
1000
MTEXTBEGIN
1070
    73
1070
     1
1070
    44
1040
1.0
1070
    74
1070
     0
1000
MTEXTEND
1000
MTEXTBEGIN
1070
    73
1070
     1
1070
    44
1040
1.0
1070
    74
1070
     0
1000
MTEXTEND
1000
MTEXTBEGIN
1070
    73
1070
     1
1070
    44
1040
1.0
1070
    74
1070
     0
1000
MTEXTEND
1000
MTEXTBEGIN
1070
    73
1070
     1
1070
    44
1040
1.0
1070
    74
1070
     0
1000
MTEXTEND
  0
POINT
  5
2644
330
211A
100
AcDbEntity
  8
DEFPOINTS
 62
     0
100
AcDbPoint
 10
3699.999999999999
 20
2409.0
 30
0.0
  0
POINT
  5
2645
330
211A
100
AcDbEntity
  8
DEFPOINTS
 62
     0
100
AcDbPoint
 10
4100.0
 20
2409.0
 30
0.0
  0
POINT
  5
2646
330
211A
100
AcDbEntity
  8
DEFPOINTS
 62
     0
100
AcDbPoint
 10
4100.0
 20
2250.0
 30
0.0
  0
ENDBLK
  5
2125
330
211A
100
AcDbEntity
  8
0
100
AcDbBlockEnd
  0
BLOCK
  5
2131
330
2127
100
AcDbEntity
  8
0
100
AcDbBlockBegin
  2
*D7
 70
     1
 10
0.0
 20
0.0
 30
0.0
  3
*D7
  1

  0
LINE
  5
2635
330
2127
100
AcDbEntity
  8
SUNPO
 62
   144
100
AcDbLine
 10
4100.0
 20
2389.0
 30
0.0
 11
4100.0
 21
2240.0
 31
0.0
  0
LINE
  5
2636
330
2127
100
AcDbEntity
  8
SUNPO
 62
   144
100
AcDbLine
 10
4250.0
 20
2389.0
 30
0.0
 11
4250.0
 21
2240.0
 31
0.0
  0
LINE
  5
2637
330
2127
100
AcDbEntity
  8
SUNPO
 62
   144
100
AcDbLine
 10
4128.0
 20
2250.0
 30
0.0
 11
4222.0
 21
2250.0
 31
0.0
  0
SOLID
  5
2638
330
2127
100
AcDbEntity
  8
SUNPO
 62
   144
100
AcDbTrace
 10
4128.0
 20
2254.666666666666
 30
0.0
 11
4128.0
 21
2245.333333333333
 31
0.0
 12
4100.0
 22
2250.0
 32
0.0
 13
4100.0
 23
2250.0
 33
0.0
  0
SOLID
  5
2639
330
2127
100
AcDbEntity
  8
SUNPO
 62
   144
100
AcDbTrace
 10
4222.0
 20
2254.666666666666
 30
0.0
 11
4222.0
 21
2245.333333333333
 31
0.0
 12
4250.0
 22
2250.0
 32
0.0
 13
4250.0
 23
2250.0
 33
0.0
  0
MTEXT
  5
263A
330
2127
100
AcDbEntity
  8
SUNPO
 62
     7
100
AcDbMText
 10
4175.0
 20
2280.499999999999
 30
0.0
 40
36.0
 41
0.0
 71
     5
 72
     1
  1
\A2;150
  7
ADD
1001
ACAD
1000
MTEXTBEGIN
1070
    73
1070
     1
1070
    44
1040
1.0
1070
    74
1070
     0
1000
MTEXTEND
1000
MTEXTBEGIN
1070
    73
1070
     1
1070
    44
1040
1.0
1070
    74
1070
     0
1000
MTEXTEND
1000
MTEXTBEGIN
1070
    73
1070
     1
1070
    44
1040
1.0
1070
    74
1070
     0
1000
MTEXTEND
1000
MTEXTBEGIN
1070
    73
1070
     1
1070
    44
1040
1.0
1070
    74
1070
     0
1000
MTEXTEND
  0
POINT
  5
263B
330
2127
100
AcDbEntity
  8
DEFPOINTS
 62
     0
100
AcDbPoint
 10
4100.0
 20
2409.0
 30
0.0
  0
POINT
  5
263C
330
2127
100
AcDbEntity
  8
DEFPOINTS
 62
     0
100
AcDbPoint
 10
4250.0
 20
2409.0
 30
0.0
  0
POINT
  5
263D
330
2127
100
AcDbEntity
  8
DEFPOINTS
 62
     0
100
AcDbPoint
 10
4250.0
 20
2250.0
 30
0.0
  0
ENDBLK
  5
2132
330
2127
100
AcDbEntity
  8
0
100
AcDbBlockEnd
  0
BLOCK
  5
21DD
330
21D1
100
AcDbEntity
  8
0
100
AcDbBlockBegin
  2
*D8
 70
     1
 10
0.0
 20
0.0
 30
0.0
  3
*D8
  1

  0
LINE
  5
2606
330
21D1
100
AcDbEntity
  8
SUNPO
 62
   144
100
AcDbLine
 10
1745.0
 20
2389.0
 30
0.0
 11
1745.0
 21
2240.0
 31
0.0
  0
LINE
  5
2607
330
21D1
100
AcDbEntity
  8
SUNPO
 62
   144
100
AcDbLine
 10
1849.999999999999
 20
2389.0
 30
0.0
 11
1849.999999999999
 21
2240.0
 31
0.0
  0
LINE
  5
2608
330
21D1
100
AcDbEntity
  8
SUNPO
 62
   144
100
AcDbLine
 10
1716.999999999999
 20
2250.0
 30
0.0
 11
1688.999999999999
 21
2250.0
 31
0.0
  0
LINE
  5
2609
330
21D1
100
AcDbEntity
  8
SUNPO
 62
   144
100
AcDbLine
 10
1877.999999999999
 20
2250.0
 30
0.0
 11
1905.999999999999
 21
2250.0
 31
0.0
  0
LINE
  5
260A
330
21D1
100
AcDbEntity
  8
SUNPO
 62
   144
100
AcDbLine
 10
1745.0
 20
2250.0
 30
0.0
 11
1849.999999999999
 21
2250.0
 31
0.0
  0
SOLID
  5
260B
330
21D1
100
AcDbEntity
  8
SUNPO
 62
   144
100
AcDbTrace
 10
1716.999999999999
 20
2254.666666666666
 30
0.0
 11
1716.999999999999
 21
2245.333333333333
 31
0.0
 12
1745.0
 22
2250.0
 32
0.0
 13
1745.0
 23
2250.0
 33
0.0
  0
SOLID
  5
260C
330
21D1
100
AcDbEntity
  8
SUNPO
 62
   144
100
AcDbTrace
 10
1877.999999999999
 20
2254.666666666666
 30
0.0
 11
1877.999999999999
 21
2245.333333333333
 31
0.0
 12
1849.999999999999
 22
2250.0
 32
0.0
 13
1849.999999999999
 23
2250.0
 33
0.0
  0
MTEXT
  5
260D
330
21D1
100
AcDbEntity
  8
SUNPO
 62
     7
100
AcDbMText
 10
1797.499999999999
 20
2280.499999999999
 30
0.0
 40
36.0
 41
0.0
 71
     5
 72
     1
  1
\A2;105
  7
ADD
1001
ACAD
1000
MTEXTBEGIN
1070
    73
1070
     1
1070
    44
1040
1.0
1070
    74
1070
     0
1000
MTEXTEND
1000
MTEXTBEGIN
1070
    73
1070
     1
1070
    44
1040
1.0
1070
    74
1070
     0
1000
MTEXTEND
1000
MTEXTBEGIN
1070
    73
1070
     1
1070
    44
1040
1.0
1070
    74
1070
     0
1000
MTEXTEND
1000
MTEXTBEGIN
1070
    73
1070
     1
1070
    44
1040
1.0
1070
    74
1070
     0
1000
MTEXTEND
  0
POINT
  5
260E
330
21D1
100
AcDbEntity
  8
DEFPOINTS
 62
     0
100
AcDbPoint
 10
1745.0
 20
2409.0
 30
0.0
  0
POINT
  5
260F
330
21D1
100
AcDbEntity
  8
DEFPOINTS
 62
     0
100
AcDbPoint
 10
1849.999999999999
 20
2409.0
 30
0.0
  0
POINT
  5
2610
330
21D1
100
AcDbEntity
  8
DEFPOINTS
 62
     0
100
AcDbPoint
 10
1849.999999999999
 20
2250.0
 30
0.0
  0
ENDBLK
  5
21DE
330
21D1
100
AcDbEntity
  8
0
100
AcDbBlockEnd
  0
BLOCK
  5
21EA
330
21E0
100
AcDbEntity
  8
0
100
AcDbBlockBegin
  2
*D9
 70
     1
 10
0.0
 20
0.0
 30
0.0
  3
*D9
  1

  0
LINE
  5
25FD
330
21E0
100
AcDbEntity
  8
SUNPO
 62
   144
100
AcDbLine
 10
1849.999999999999
 20
2389.0
 30
0.0
 11
1849.999999999999
 21
2240.0
 31
0.0
  0
LINE
  5
25FE
330
21E0
100
AcDbEntity
  8
SUNPO
 62
   144
100
AcDbLine
 10
2149.999999999999
 20
2389.0
 30
0.0
 11
2149.999999999999
 21
2240.0
 31
0.0
  0
LINE
  5
25FF
330
21E0
100
AcDbEntity
  8
SUNPO
 62
   144
100
AcDbLine
 10
1877.999999999999
 20
2250.0
 30
0.0
 11
2121.999999999999
 21
2250.0
 31
0.0
  0
SOLID
  5
2600
330
21E0
100
AcDbEntity
  8
SUNPO
 62
   144
100
AcDbTrace
 10
1877.999999999999
 20
2254.666666666666
 30
0.0
 11
1877.999999999999
 21
2245.333333333333
 31
0.0
 12
1849.999999999999
 22
2250.0
 32
0.0
 13
1849.999999999999
 23
2250.0
 33
0.0
  0
SOLID
  5
2601
330
21E0
100
AcDbEntity
  8
SUNPO
 62
   144
100
AcDbTrace
 10
2121.999999999999
 20
2254.666666666666
 30
0.0
 11
2121.999999999999
 21
2245.333333333333
 31
0.0
 12
2149.999999999999
 22
2250.0
 32
0.0
 13
2149.999999999999
 23
2250.0
 33
0.0
  0
MTEXT
  5
2602
330
21E0
100
AcDbEntity
  8
SUNPO
 62
     7
100
AcDbMText
 10
1999.999999999999
 20
2280.499999999999
 30
0.0
 40
36.0
 41
0.0
 71
     5
 72
     1
  1
\A2;300
  7
ADD
1001
ACAD
1000
MTEXTBEGIN
1070
    73
1070
     1
1070
    44
1040
1.0
1070
    74
1070
     0
1000
MTEXTEND
1000
MTEXTBEGIN
1070
    73
1070
     1
1070
    44
1040
1.0
1070
    74
1070
     0
1000
MTEXTEND
1000
MTEXTBEGIN
1070
    73
1070
     1
1070
    44
1040
1.0
1070
    74
1070
     0
1000
MTEXTEND
1000
MTEXTBEGIN
1070
    73
1070
     1
1070
    44
1040
1.0
1070
    74
1070
     0
1000
MTEXTEND
  0
POINT
  5
2603
330
21E0
100
AcDbEntity
  8
DEFPOINTS
 62
     0
100
AcDbPoint
 10
1849.999999999999
 20
2409.0
 30
0.0
  0
POINT
  5
2604
330
21E0
100
AcDbEntity
  8
DEFPOINTS
 62
     0
100
AcDbPoint
 10
2149.999999999999
 20
2409.0
 30
0.0
  0
POINT
  5
2605
330
21E0
100
AcDbEntity
  8
DEFPOINTS
 62
     0
100
AcDbPoint
 10
2149.999999999999
 20
2250.0
 30
0.0
  0
ENDBLK
  5
21EB
330
21E0
100
AcDbEntity
  8
0
100
AcDbBlockEnd
  0
BLOCK
  5
21F9
330
21ED
100
AcDbEntity
  8
0
100
AcDbBlockBegin
  2
*D10
 70
     1
 10
0.0
 20
0.0
 30
0.0
  3
*D10
  1

  0
LINE
  5
25F2
330
21ED
100
AcDbEntity
  8
SUNPO
 62
   144
100
AcDbLine
 10
2149.999999999999
 20
2389.0
 30
0.0
 11
2149.999999999999
 21
2240.0
 31
0.0
  0
LINE
  5
25F3
330
21ED
100
AcDbEntity
  8
SUNPO
 62
   144
100
AcDbLine
 10
2255.0
 20
2389.0
 30
0.0
 11
2255.0
 21
2240.0
 31
0.0
  0
LINE
  5
25F4
330
21ED
100
AcDbEntity
  8
SUNPO
 62
   144
100
AcDbLine
 10
2121.999999999999
 20
2250.0
 30
0.0
 11
2093.999999999999
 21
2250.0
 31
0.0
  0
LINE
  5
25F5
330
21ED
100
AcDbEntity
  8
SUNPO
 62
   144
100
AcDbLine
 10
2283.0
 20
2250.0
 30
0.0
 11
2311.0
 21
2250.0
 31
0.0
  0
LINE
  5
25F6
330
21ED
100
AcDbEntity
  8
SUNPO
 62
   144
100
AcDbLine
 10
2149.999999999999
 20
2250.0
 30
0.0
 11
2255.0
 21
2250.0
 31
0.0
  0
SOLID
  5
25F7
330
21ED
100
AcDbEntity
  8
SUNPO
 62
   144
100
AcDbTrace
 10
2121.999999999999
 20
2254.666666666666
 30
0.0
 11
2121.999999999999
 21
2245.333333333333
 31
0.0
 12
2149.999999999999
 22
2250.0
 32
0.0
 13
2149.999999999999
 23
2250.0
 33
0.0
  0
SOLID
  5
25F8
330
21ED
100
AcDbEntity
  8
SUNPO
 62
   144
100
AcDbTrace
 10
2283.0
 20
2254.666666666666
 30
0.0
 11
2283.0
 21
2245.333333333333
 31
0.0
 12
2255.0
 22
2250.0
 32
0.0
 13
2255.0
 23
2250.0
 33
0.0
  0
MTEXT
  5
25F9
330
21ED
100
AcDbEntity
  8
SUNPO
 62
     7
100
AcDbMText
 10
2202.5
 20
2280.499999999999
 30
0.0
 40
36.0
 41
0.0
 71
     5
 72
     1
  1
\A2;105
  7
ADD
1001
ACAD
1000
MTEXTBEGIN
1070
    73
1070
     1
1070
    44
1040
1.0
1070
    74
1070
     0
1000
MTEXTEND
1000
MTEXTBEGIN
1070
    73
1070
     1
1070
    44
1040
1.0
1070
    74
1070
     0
1000
MTEXTEND
1000
MTEXTBEGIN
1070
    73
1070
     1
1070
    44
1040
1.0
1070
    74
1070
     0
1000
MTEXTEND
1000
MTEXTBEGIN
1070
    73
1070
     1
1070
    44
1040
1.0
1070
    74
1070
     0
1000
MTEXTEND
  0
POINT
  5
25FA
330
21ED
100
AcDbEntity
  8
DEFPOINTS
 62
     0
100
AcDbPoint
 10
2149.999999999999
 20
2409.0
 30
0.0
  0
POINT
  5
25FB
330
21ED
100
AcDbEntity
  8
DEFPOINTS
 62
     0
100
AcDbPoint
 10
2255.0
 20
2409.0
 30
0.0
  0
POINT
  5
25FC
330
21ED
100
AcDbEntity
  8
DEFPOINTS
 62
     0
100
AcDbPoint
 10
2255.0
 20
2250.0
 30
0.0
  0
ENDBLK
  5
21FA
330
21ED
100
AcDbEntity
  8
0
100
AcDbBlockEnd
  0
BLOCK
  5
2245
330
223B
100
AcDbEntity
  8
0
100
AcDbBlockBegin
  2
*D11
 70
     1
 10
0.0
 20
0.0
 30
0.0
  3
*D11
  1

  0
LINE
  5
25E9
330
223B
100
AcDbEntity
  8
SUNPO
 62
   144
100
AcDbLine
 10
2275.0
 20
2409.0
 30
0.0
 11
2410.0
 21
2409.0
 31
0.0
  0
LINE
  5
25EA
330
223B
100
AcDbEntity
  8
SUNPO
 62
   144
100
AcDbLine
 10
2275.0
 20
2559.0
 30
0.0
 11
2410.0
 21
2559.0
 31
0.0
  0
LINE
  5
25EB
330
223B
100
AcDbEntity
  8
SUNPO
 62
   144
100
AcDbLine
 10
2400.0
 20
2437.0
 30
0.0
 11
2400.0
 21
2531.0
 31
0.0
  0
SOLID
  5
25EC
330
223B
100
AcDbEntity
  8
SUNPO
 62
   144
100
AcDbTrace
 10
2395.333333333333
 20
2437.0
 30
0.0
 11
2404.666666666666
 21
2437.0
 31
0.0
 12
2400.0
 22
2409.0
 32
0.0
 13
2400.0
 23
2409.0
 33
0.0
  0
SOLID
  5
25ED
330
223B
100
AcDbEntity
  8
SUNPO
 62
   144
100
AcDbTrace
 10
2395.333333333333
 20
2531.0
 30
0.0
 11
2404.666666666666
 21
2531.0
 31
0.0
 12
2400.0
 22
2559.0
 32
0.0
 13
2400.0
 23
2559.0
 33
0.0
  0
MTEXT
  5
25EE
330
223B
100
AcDbEntity
  8
SUNPO
 62
     7
100
AcDbMText
 10
2369.499999999999
 20
2484.0
 30
0.0
 40
36.0
 41
0.0
 71
     5
 72
     1
  1
\A2;150
  7
ADD
 11
0.0000000000000001
 21
1.0
 31
0.0
1001
ACAD
1000
MTEXTBEGIN
1070
    73
1070
     1
1070
    44
1040
1.0
1070
    74
1070
     0
1000
MTEXTEND
1000
MTEXTBEGIN
1070
    73
1070
     1
1070
    44
1040
1.0
1070
    74
1070
     0
1000
MTEXTEND
1000
MTEXTBEGIN
1070
    73
1070
     1
1070
    44
1040
1.0
1070
    74
1070
     0
1000
MTEXTEND
1000
MTEXTBEGIN
1070
    73
1070
     1
1070
    44
1040
1.0
1070
    74
1070
     0
1000
MTEXTEND
  0
POINT
  5
25EF
330
223B
100
AcDbEntity
  8
DEFPOINTS
 62
     0
100
AcDbPoint
 10
2255.0
 20
2409.0
 30
0.0
  0
POINT
  5
25F0
330
223B
100
AcDbEntity
  8
DEFPOINTS
 62
     0
100
AcDbPoint
 10
2255.0
 20
2559.0
 30
0.0
  0
POINT
  5
25F1
330
223B
100
AcDbEntity
  8
DEFPOINTS
 62
     0
100
AcDbPoint
 10
2400.0
 20
2559.0
 30
0.0
  0
ENDBLK
  5
2246
330
223B
100
AcDbEntity
  8
0
100
AcDbBlockEnd
  0
BLOCK
  5
2252
330
2248
100
AcDbEntity
  8
0
100
AcDbBlockBegin
  2
*D12
 70
     1
 10
0.0
 20
0.0
 30
0.0
  3
*D12
  1

  0
LINE
  5
25E0
330
2248
100
AcDbEntity
  8
SUNPO
 62
   144
100
AcDbLine
 10
2275.0
 20
2709.0
 30
0.0
 11
2410.0
 21
2709.0
 31
0.0
  0
LINE
  5
25E1
330
2248
100
AcDbEntity
  8
SUNPO
 62
   144
100
AcDbLine
 10
2275.0
 20
2559.0
 30
0.0
 11
2410.0
 21
2559.0
 31
0.0
  0
LINE
  5
25E2
330
2248
100
AcDbEntity
  8
SUNPO
 62
   144
100
AcDbLine
 10
2400.0
 20
2681.0
 30
0.0
 11
2400.0
 21
2587.0
 31
0.0
  0
SOLID
  5
25E3
330
2248
100
AcDbEntity
  8
SUNPO
 62
   144
100
AcDbTrace
 10
2395.333333333333
 20
2681.0
 30
0.0
 11
2404.666666666666
 21
2681.0
 31
0.0
 12
2400.0
 22
2709.0
 32
0.0
 13
2400.0
 23
2709.0
 33
0.0
  0
SOLID
  5
25E4
330
2248
100
AcDbEntity
  8
SUNPO
 62
   144
100
AcDbTrace
 10
2395.333333333333
 20
2587.0
 30
0.0
 11
2404.666666666666
 21
2587.0
 31
0.0
 12
2400.0
 22
2559.0
 32
0.0
 13
2400.0
 23
2559.0
 33
0.0
  0
MTEXT
  5
25E5
330
2248
100
AcDbEntity
  8
SUNPO
 62
     7
100
AcDbMText
 10
2369.499999999999
 20
2634.0
 30
0.0
 40
36.0
 41
0.0
 71
     5
 72
     1
  1
\A2;150
  7
ADD
 11
0.0000000000000001
 21
1.0
 31
0.0
1001
ACAD
1000
MTEXTBEGIN
1070
    73
1070
     1
1070
    44
1040
1.0
1070
    74
1070
     0
1000
MTEXTEND
1000
MTEXTBEGIN
1070
    73
1070
     1
1070
    44
1040
1.0
1070
    74
1070
     0
1000
MTEXTEND
1000
MTEXTBEGIN
1070
    73
1070
     1
1070
    44
1040
1.0
1070
    74
1070
     0
1000
MTEXTEND
1000
MTEXTBEGIN
1070
    73
1070
     1
1070
    44
1040
1.0
1070
    74
1070
     0
1000
MTEXTEND
  0
POINT
  5
25E6
330
2248
100
AcDbEntity
  8
DEFPOINTS
 62
     0
100
AcDbPoint
 10
2255.0
 20
2709.0
 30
0.0
  0
POINT
  5
25E7
330
2248
100
AcDbEntity
  8
DEFPOINTS
 62
     0
100
AcDbPoint
 10
2255.0
 20
2559.0
 30
0.0
  0
POINT
  5
25E8
330
2248
100
AcDbEntity
  8
DEFPOINTS
 62
     0
100
AcDbPoint
 10
2400.0
 20
2559.0
 30
0.0
  0
ENDBLK
  5
2253
330
2248
100
AcDbEntity
  8
0
100
AcDbBlockEnd
  0
BLOCK
  5
225F
330
2255
100
AcDbEntity
  8
0
100
AcDbBlockBegin
  2
*D13
 70
     1
 10
0.0
 20
0.0
 30
0.0
  3
*D13
  1

  0
LINE
  5
25D7
330
2255
100
AcDbEntity
  8
SUNPO
 62
   144
100
AcDbLine
 10
2275.0
 20
3109.0
 30
0.0
 11
2410.0
 21
3109.0
 31
0.0
  0
LINE
  5
25D8
330
2255
100
AcDbEntity
  8
SUNPO
 62
   144
100
AcDbLine
 10
2275.0
 20
2709.0
 30
0.0
 11
2410.0
 21
2709.0
 31
0.0
  0
LINE
  5
25D9
330
2255
100
AcDbEntity
  8
SUNPO
 62
   144
100
AcDbLine
 10
2400.0
 20
3081.0
 30
0.0
 11
2400.0
 21
2737.0
 31
0.0
  0
SOLID
  5
25DA
330
2255
100
AcDbEntity
  8
SUNPO
 62
   144
100
AcDbTrace
 10
2395.333333333334
 20
3081.0
 30
0.0
 11
2404.666666666667
 21
3081.0
 31
0.0
 12
2400.0
 22
3109.0
 32
0.0
 13
2400.0
 23
3109.0
 33
0.0
  0
SOLID
  5
25DB
330
2255
100
AcDbEntity
  8
SUNPO
 62
   144
100
AcDbTrace
 10
2395.333333333333
 20
2737.0
 30
0.0
 11
2404.666666666666
 21
2737.0
 31
0.0
 12
2400.0
 22
2709.0
 32
0.0
 13
2400.0
 23
2709.0
 33
0.0
  0
MTEXT
  5
25DC
330
2255
100
AcDbEntity
  8
SUNPO
 62
     7
100
AcDbMText
 10
2369.499999999999
 20
2909.0
 30
0.0
 40
36.0
 41
0.0
 71
     5
 72
     1
  1
\A2;400
  7
ADD
 11
0.0000000000000001
 21
1.0
 31
0.0
1001
ACAD
1000
MTEXTBEGIN
1070
    73
1070
     1
1070
    44
1040
1.0
1070
    74
1070
     0
1000
MTEXTEND
1000
MTEXTBEGIN
1070
    73
1070
     1
1070
    44
1040
1.0
1070
    74
1070
     0
1000
MTEXTEND
1000
MTEXTBEGIN
1070
    73
1070
     1
1070
    44
1040
1.0
1070
    74
1070
     0
1000
MTEXTEND
1000
MTEXTBEGIN
1070
    73
1070
     1
1070
    44
1040
1.0
1070
    74
1070
     0
1000
MTEXTEND
  0
POINT
  5
25DD
330
2255
100
AcDbEntity
  8
DEFPOINTS
 62
     0
100
AcDbPoint
 10
2255.0
 20
3109.0
 30
0.0
  0
POINT
  5
25DE
330
2255
100
AcDbEntity
  8
DEFPOINTS
 62
     0
100
AcDbPoint
 10
2255.0
 20
2709.0
 30
0.0
  0
POINT
  5
25DF
330
2255
100
AcDbEntity
  8
DEFPOINTS
 62
     0
100
AcDbPoint
 10
2400.0
 20
2709.0
 30
0.0
  0
ENDBLK
  5
2260
330
2255
100
AcDbEntity
  8
0
100
AcDbBlockEnd
  0
BLOCK
  5
226E
330
2262
100
AcDbEntity
  8
0
100
AcDbBlockBegin
  2
*D14
 70
     1
 10
0.0
 20
0.0
 30
0.0
  3
*D14
  1

  0
LINE
  5
2263
330
2262
100
AcDbEntity
  8
SUNPO
 62
   144
100
AcDbLine
 10
2275.0
 20
3209.0
 30
0.0
 11
2410.0
 21
3209.0
 31
0.0
  0
LINE
  5
2264
330
2262
100
AcDbEntity
  8
SUNPO
 62
   144
100
AcDbLine
 10
2275.0
 20
3109.0
 30
0.0
 11
2410.0
 21
3109.0
 31
0.0
  0
LINE
  5
2265
330
2262
100
AcDbEntity
  8
SUNPO
 62
   144
100
AcDbLine
 10
2400.0
 20
3237.0
 30
0.0
 11
2400.0
 21
3265.0
 31
0.0
  0
LINE
  5
2266
330
2262
100
AcDbEntity
  8
SUNPO
 62
   144
100
AcDbLine
 10
2400.0
 20
3081.0
 30
0.0
 11
2400.0
 21
3053.0
 31
0.0
  0
LINE
  5
2267
330
2262
100
AcDbEntity
  8
SUNPO
 62
   144
100
AcDbLine
 10
2400.0
 20
3209.0
 30
0.0
 11
2400.0
 21
3109.0
 31
0.0
  0
SOLID
  5
2268
330
2262
100
AcDbEntity
  8
SUNPO
 62
   144
100
AcDbTrace
 10
2395.333333333334
 20
3237.0
 30
0.0
 11
2404.666666666667
 21
3237.0
 31
0.0
 12
2400.0
 22
3209.0
 32
0.0
 13
2400.0
 23
3209.0
 33
0.0
  0
SOLID
  5
2269
330
2262
100
AcDbEntity
  8
SUNPO
 62
   144
100
AcDbTrace
 10
2395.333333333334
 20
3081.0
 30
0.0
 11
2404.666666666667
 21
3081.0
 31
0.0
 12
2400.0
 22
3109.0
 32
0.0
 13
2400.0
 23
3109.0
 33
0.0
  0
MTEXT
  5
226A
330
2262
100
AcDbEntity
  8
SUNPO
 62
     7
100
AcDbMText
 10
2369.499999999999
 20
3159.0
 30
0.0
 40
36.0
 41
0.0
 71
     5
 72
     1
  1
\A2;100
  7
ADD
 11
0.0000000000000001
 21
1.0
 31
0.0
1001
ACAD
1000
MTEXTBEGIN
1070
    73
1070
     1
1070
    44
1040
1.0
1070
    74
1070
     0
1000
MTEXTEND
1000
MTEXTBEGIN
1070
    73
1070
     1
1070
    44
1040
1.0
1070
    74
1070
     0
1000
MTEXTEND
1000
MTEXTBEGIN
1070
    73
1070
     1
1070
    44
1040
1.0
1070
    74
1070
     0
1000
MTEXTEND
1000
MTEXTBEGIN
1070
    73
1070
     1
1070
    44
1040
1.0
1070
    74
1070
     0
1000
MTEXTEND
  0
POINT
  5
226B
330
2262
100
AcDbEntity
  8
DEFPOINTS
 62
     0
100
AcDbPoint
 10
2255.0
 20
3209.0
 30
0.0
  0
POINT
  5
226C
330
2262
100
AcDbEntity
  8
DEFPOINTS
 62
     0
100
AcDbPoint
 10
2255.0
 20
3109.0
 30
0.0
  0
POINT
  5
226D
330
2262
100
AcDbEntity
  8
DEFPOINTS
 62
     0
100
AcDbPoint
 10
2400.0
 20
3109.0
 30
0.0
  0
ENDBLK
  5
226F
330
2262
100
AcDbEntity
  8
0
100
AcDbBlockEnd
  0
BLOCK
  5
227B
330
2271
100
AcDbEntity
  8
0
100
AcDbBlockBegin
  2
*D15
 70
     1
 10
0.0
 20
0.0
 30
0.0
  3
*D15
  1

  0
LINE
  5
25CE
330
2271
100
AcDbEntity
  8
SUNPO
 62
   144
100
AcDbLine
 10
2275.0
 20
3209.0
 30
0.0
 11
2510.0
 21
3209.0
 31
0.0
  0
LINE
  5
25CF
330
2271
100
AcDbEntity
  8
SUNPO
 62
   144
100
AcDbLine
 10
2275.0
 20
2409.0
 30
0.0
 11
2510.0
 21
2409.0
 31
0.0
  0
LINE
  5
25D0
330
2271
100
AcDbEntity
  8
SUNPO
 62
   144
100
AcDbLine
 10
2500.0
 20
3181.0
 30
0.0
 11
2500.0
 21
2437.0
 31
0.0
  0
SOLID
  5
25D1
330
2271
100
AcDbEntity
  8
SUNPO
 62
   144
100
AcDbTrace
 10
2495.333333333334
 20
3181.0
 30
0.0
 11
2504.666666666667
 21
3181.0
 31
0.0
 12
2500.0
 22
3209.0
 32
0.0
 13
2500.0
 23
3209.0
 33
0.0
  0
SOLID
  5
25D2
330
2271
100
AcDbEntity
  8
SUNPO
 62
   144
100
AcDbTrace
 10
2495.333333333333
 20
2437.0
 30
0.0
 11
2504.666666666667
 21
2437.0
 31
0.0
 12
2500.0
 22
2409.0
 32
0.0
 13
2500.0
 23
2409.0
 33
0.0
  0
MTEXT
  5
25D3
330
2271
100
AcDbEntity
  8
SUNPO
 62
     7
100
AcDbMText
 10
2469.5
 20
2809.0
 30
0.0
 40
36.0
 41
0.0
 71
     5
 72
     1
  1
\A2;800
  7
ADD
 11
0.0000000000000001
 21
1.0
 31
0.0
1001
ACAD
1000
MTEXTBEGIN
1070
    73
1070
     1
1070
    44
1040
1.0
1070
    74
1070
     0
1000
MTEXTEND
1000
MTEXTBEGIN
1070
    73
1070
     1
1070
    44
1040
1.0
1070
    74
1070
     0
1000
MTEXTEND
1000
MTEXTBEGIN
1070
    73
1070
     1
1070
    44
1040
1.0
1070
    74
1070
     0
1000
MTEXTEND
1000
MTEXTBEGIN
1070
    73
1070
     1
1070
    44
1040
1.0
1070
    74
1070
     0
1000
MTEXTEND
  0
POINT
  5
25D4
330
2271
100
AcDbEntity
  8
DEFPOINTS
 62
     0
100
AcDbPoint
 10
2255.0
 20
3209.0
 30
0.0
  0
POINT
  5
25D5
330
2271
100
AcDbEntity
  8
DEFPOINTS
 62
     0
100
AcDbPoint
 10
2255.0
 20
2409.0
 30
0.0
  0
POINT
  5
25D6
330
2271
100
AcDbEntity
  8
DEFPOINTS
 62
     0
100
AcDbPoint
 10
2500.0
 20
2409.0
 30
0.0
  0
ENDBLK
  5
227C
330
2271
100
AcDbEntity
  8
0
100
AcDbBlockEnd
  0
BLOCK
  5
23A8
330
239E
100
AcDbEntity
  8
0
100
AcDbBlockBegin
  2
*D16
 70
     1
 10
0.0
 20
0.0
 30
0.0
  3
*D16
  1

  0
LINE
  5
239F
330
239E
100
AcDbEntity
  8
SUNPO
 62
   144
100
AcDbLine
 10
3550.0
 20
1225.0
 30
0.0
 11
3550.0
 21
1090.0
 31
0.0
  0
LINE
  5
23A0
330
239E
100
AcDbEntity
  8
SUNPO
 62
   144
100
AcDbLine
 10
3699.999999999999
 20
1225.0
 30
0.0
 11
3699.999999999999
 21
1090.0
 31
0.0
  0
LINE
  5
23A1
330
239E
100
AcDbEntity
  8
SUNPO
 62
   144
100
AcDbLine
 10
3578.0
 20
1100.0
 30
0.0
 11
3672.0
 21
1100.0
 31
0.0
  0
SOLID
  5
23A2
330
239E
100
AcDbEntity
  8
SUNPO
 62
   144
100
AcDbTrace
 10
3578.0
 20
1104.666666666666
 30
0.0
 11
3578.0
 21
1095.333333333333
 31
0.0
 12
3550.0
 22
1100.0
 32
0.0
 13
3550.0
 23
1100.0
 33
0.0
  0
SOLID
  5
23A3
330
239E
100
AcDbEntity
  8
SUNPO
 62
   144
100
AcDbTrace
 10
3672.0
 20
1104.666666666666
 30
0.0
 11
3672.0
 21
1095.333333333333
 31
0.0
 12
3699.999999999999
 22
1100.0
 32
0.0
 13
3699.999999999999
 23
1100.0
 33
0.0
  0
MTEXT
  5
23A4
330
239E
100
AcDbEntity
  8
SUNPO
 62
     7
100
AcDbMText
 10
3625.0
 20
1130.5
 30
0.0
 40
36.0
 41
0.0
 71
     5
 72
     1
  1
\A2;150
  7
ADD
1001
ACAD
1000
MTEXTBEGIN
1070
    73
1070
     1
1070
    44
1040
1.0
1070
    74
1070
     0
1000
MTEXTEND
1000
MTEXTBEGIN
1070
    73
1070
     1
1070
    44
1040
1.0
1070
    74
1070
     0
1000
MTEXTEND
1000
MTEXTBEGIN
1070
    73
1070
     1
1070
    44
1040
1.0
1070
    74
1070
     0
1000
MTEXTEND
1000
MTEXTBEGIN
1070
    73
1070
     1
1070
    44
1040
1.0
1070
    74
1070
     0
1000
MTEXTEND
  0
POINT
  5
23A5
330
239E
100
AcDbEntity
  8
DEFPOINTS
 62
     0
100
AcDbPoint
 10
3550.0
 20
1245.0
 30
0.0
  0
POINT
  5
23A6
330
239E
100
AcDbEntity
  8
DEFPOINTS
 62
     0
100
AcDbPoint
 10
3699.999999999999
 20
1245.0
 30
0.0
  0
POINT
  5
23A7
330
239E
100
AcDbEntity
  8
DEFPOINTS
 62
     0
100
AcDbPoint
 10
3699.999999999999
 20
1100.0
 30
0.0
  0
ENDBLK
  5
23A9
330
239E
100
AcDbEntity
  8
0
100
AcDbBlockEnd
  0
BLOCK
  5
23B5
330
23AB
100
AcDbEntity
  8
0
100
AcDbBlockBegin
  2
*D17
 70
     1
 10
0.0
 20
0.0
 30
0.0
  3
*D17
  1

  0
LINE
  5
23AC
330
23AB
100
AcDbEntity
  8
SUNPO
 62
   144
100
AcDbLine
 10
4100.0
 20
1225.0
 30
0.0
 11
4100.0
 21
1090.0
 31
0.0
  0
LINE
  5
23AD
330
23AB
100
AcDbEntity
  8
SUNPO
 62
   144
100
AcDbLine
 10
4250.0
 20
1225.0
 30
0.0
 11
4250.0
 21
1090.0
 31
0.0
  0
LINE
  5
23AE
330
23AB
100
AcDbEntity
  8
SUNPO
 62
   144
100
AcDbLine
 10
4128.0
 20
1100.0
 30
0.0
 11
4222.0
 21
1100.0
 31
0.0
  0
SOLID
  5
23AF
330
23AB
100
AcDbEntity
  8
SUNPO
 62
   144
100
AcDbTrace
 10
4128.0
 20
1104.666666666666
 30
0.0
 11
4128.0
 21
1095.333333333333
 31
0.0
 12
4100.0
 22
1100.0
 32
0.0
 13
4100.0
 23
1100.0
 33
0.0
  0
SOLID
  5
23B0
330
23AB
100
AcDbEntity
  8
SUNPO
 62
   144
100
AcDbTrace
 10
4222.0
 20
1104.666666666666
 30
0.0
 11
4222.0
 21
1095.333333333333
 31
0.0
 12
4250.0
 22
1100.0
 32
0.0
 13
4250.0
 23
1100.0
 33
0.0
  0
MTEXT
  5
23B1
330
23AB
100
AcDbEntity
  8
SUNPO
 62
     7
100
AcDbMText
 10
4175.0
 20
1130.5
 30
0.0
 40
36.0
 41
0.0
 71
     5
 72
     1
  1
\A2;150
  7
ADD
1001
ACAD
1000
MTEXTBEGIN
1070
    73
1070
     1
1070
    44
1040
1.0
1070
    74
1070
     0
1000
MTEXTEND
1000
MTEXTBEGIN
1070
    73
1070
     1
1070
    44
1040
1.0
1070
    74
1070
     0
1000
MTEXTEND
1000
MTEXTBEGIN
1070
    73
1070
     1
1070
    44
1040
1.0
1070
    74
1070
     0
1000
MTEXTEND
1000
MTEXTBEGIN
1070
    73
1070
     1
1070
    44
1040
1.0
1070
    74
1070
     0
1000
MTEXTEND
  0
POINT
  5
23B2
330
23AB
100
AcDbEntity
  8
DEFPOINTS
 62
     0
100
AcDbPoint
 10
4100.0
 20
1245.0
 30
0.0
  0
POINT
  5
23B3
330
23AB
100
AcDbEntity
  8
DEFPOINTS
 62
     0
100
AcDbPoint
 10
4250.0
 20
1245.0
 30
0.0
  0
POINT
  5
23B4
330
23AB
100
AcDbEntity
  8
DEFPOINTS
 62
     0
100
AcDbPoint
 10
4250.0
 20
1100.0
 30
0.0
  0
ENDBLK
  5
23B6
330
23AB
100
AcDbEntity
  8
0
100
AcDbBlockEnd
  0
BLOCK
  5
23C2
330
23B8
100
AcDbEntity
  8
0
100
AcDbBlockBegin
  2
*D18
 70
     1
 10
0.0
 20
0.0
 30
0.0
  3
*D18
  1

  0
LINE
  5
23B9
330
23B8
100
AcDbEntity
  8
SUNPO
 62
   144
100
AcDbLine
 10
3699.999999999999
 20
1225.0
 30
0.0
 11
3699.999999999999
 21
1090.0
 31
0.0
  0
LINE
  5
23BA
330
23B8
100
AcDbEntity
  8
SUNPO
 62
   144
100
AcDbLine
 10
4100.0
 20
1225.0
 30
0.0
 11
4100.0
 21
1090.0
 31
0.0
  0
LINE
  5
23BB
330
23B8
100
AcDbEntity
  8
SUNPO
 62
   144
100
AcDbLine
 10
3727.999999999999
 20
1100.0
 30
0.0
 11
4072.0
 21
1100.0
 31
0.0
  0
SOLID
  5
23BC
330
23B8
100
AcDbEntity
  8
SUNPO
 62
   144
100
AcDbTrace
 10
3727.999999999999
 20
1104.666666666666
 30
0.0
 11
3727.999999999999
 21
1095.333333333333
 31
0.0
 12
3699.999999999999
 22
1100.0
 32
0.0
 13
3699.999999999999
 23
1100.0
 33
0.0
  0
SOLID
  5
23BD
330
23B8
100
AcDbEntity
  8
SUNPO
 62
   144
100
AcDbTrace
 10
4072.0
 20
1104.666666666666
 30
0.0
 11
4072.0
 21
1095.333333333333
 31
0.0
 12
4100.0
 22
1100.0
 32
0.0
 13
4100.0
 23
1100.0
 33
0.0
  0
MTEXT
  5
23BE
330
23B8
100
AcDbEntity
  8
SUNPO
 62
     7
100
AcDbMText
 10
3900.0
 20
1130.5
 30
0.0
 40
36.0
 41
0.0
 71
     5
 72
     1
  1
\A2;400
  7
ADD
1001
ACAD
1000
MTEXTBEGIN
1070
    73
1070
     1
1070
    44
1040
1.0
1070
    74
1070
     0
1000
MTEXTEND
1000
MTEXTBEGIN
1070
    73
1070
     1
1070
    44
1040
1.0
1070
    74
1070
     0
1000
MTEXTEND
1000
MTEXTBEGIN
1070
    73
1070
     1
1070
    44
1040
1.0
1070
    74
1070
     0
1000
MTEXTEND
1000
MTEXTBEGIN
1070
    73
1070
     1
1070
    44
1040
1.0
1070
    74
1070
     0
1000
MTEXTEND
  0
POINT
  5
23BF
330
23B8
100
AcDbEntity
  8
DEFPOINTS
 62
     0
100
AcDbPoint
 10
3699.999999999999
 20
1245.0
 30
0.0
  0
POINT
  5
23C0
330
23B8
100
AcDbEntity
  8
DEFPOINTS
 62
     0
100
AcDbPoint
 10
4100.0
 20
1245.0
 30
0.0
  0
POINT
  5
23C1
330
23B8
100
AcDbEntity
  8
DEFPOINTS
 62
     0
100
AcDbPoint
 10
4100.0
 20
1100.0
 30
0.0
  0
ENDBLK
  5
23C3
330
23B8
100
AcDbEntity
  8
0
100
AcDbBlockEnd
  0
BLOCK
  5
2481
330
2475
100
AcDbEntity
  8
0
100
AcDbBlockBegin
  2
*D19
 70
     1
 10
0.0
 20
0.0
 30
0.0
  3
*D19
  1

  0
LINE
  5
2476
330
2475
100
AcDbEntity
  8
SUNPO
 62
   144
100
AcDbLine
 10
3530.0
 20
1755.0
 30
0.0
 11
3440.0
 21
1755.0
 31
0.0
  0
LINE
  5
2477
330
2475
100
AcDbEntity
  8
SUNPO
 62
   144
100
AcDbLine
 10
3530.0
 20
1650.0
 30
0.0
 11
3440.0
 21
1650.0
 31
0.0
  0
LINE
  5
2478
330
2475
100
AcDbEntity
  8
SUNPO
 62
   144
100
AcDbLine
 10
3450.0
 20
1783.0
 30
0.0
 11
3450.0
 21
1811.0
 31
0.0
  0
LINE
  5
2479
330
2475
100
AcDbEntity
  8
SUNPO
 62
   144
100
AcDbLine
 10
3450.0
 20
1622.0
 30
0.0
 11
3450.0
 21
1594.0
 31
0.0
  0
LINE
  5
247A
330
2475
100
AcDbEntity
  8
SUNPO
 62
   144
100
AcDbLine
 10
3450.0
 20
1755.0
 30
0.0
 11
3450.0
 21
1650.0
 31
0.0
  0
SOLID
  5
247B
330
2475
100
AcDbEntity
  8
SUNPO
 62
   144
100
AcDbTrace
 10
3445.333333333333
 20
1783.0
 30
0.0
 11
3454.666666666666
 21
1783.0
 31
0.0
 12
3450.0
 22
1755.0
 32
0.0
 13
3450.0
 23
1755.0
 33
0.0
  0
SOLID
  5
247C
330
2475
100
AcDbEntity
  8
SUNPO
 62
   144
100
AcDbTrace
 10
3445.333333333333
 20
1622.0
 30
0.0
 11
3454.666666666666
 21
1622.0
 31
0.0
 12
3450.0
 22
1650.0
 32
0.0
 13
3450.0
 23
1650.0
 33
0.0
  0
MTEXT
  5
247D
330
2475
100
AcDbEntity
  8
SUNPO
 62
     7
100
AcDbMText
 10
3419.499999999999
 20
1702.5
 30
0.0
 40
36.0
 41
0.0
 71
     5
 72
     1
  1
\A2;105
  7
ADD
 11
0.0000000000000001
 21
1.0
 31
0.0
1001
ACAD
1000
MTEXTBEGIN
1070
    73
1070
     1
1070
    44
1040
1.0
1070
    74
1070
     0
1000
MTEXTEND
1000
MTEXTBEGIN
1070
    73
1070
     1
1070
    44
1040
1.0
1070
    74
1070
     0
1000
MTEXTEND
1000
MTEXTBEGIN
1070
    73
1070
     1
1070
    44
1040
1.0
1070
    74
1070
     0
1000
MTEXTEND
1000
MTEXTBEGIN
1070
    73
1070
     1
1070
    44
1040
1.0
1070
    74
1070
     0
1000
MTEXTEND
  0
POINT
  5
247E
330
2475
100
AcDbEntity
  8
DEFPOINTS
 62
     0
100
AcDbPoint
 10
3550.0
 20
1755.0
 30
0.0
  0
POINT
  5
247F
330
2475
100
AcDbEntity
  8
DEFPOINTS
 62
     0
100
AcDbPoint
 10
3550.0
 20
1650.0
 30
0.0
  0
POINT
  5
2480
330
2475
100
AcDbEntity
  8
DEFPOINTS
 62
     0
100
AcDbPoint
 10
3450.0
 20
1650.0
 30
0.0
  0
ENDBLK
  5
2482
330
2475
100
AcDbEntity
  8
0
100
AcDbBlockEnd
  0
BLOCK
  5
248E
330
2484
100
AcDbEntity
  8
0
100
AcDbBlockBegin
  2
*D20
 70
     1
 10
0.0
 20
0.0
 30
0.0
  3
*D20
  1

  0
LINE
  5
2485
330
2484
100
AcDbEntity
  8
SUNPO
 62
   144
100
AcDbLine
 10
3530.0
 20
1650.0
 30
0.0
 11
3440.0
 21
1650.0
 31
0.0
  0
LINE
  5
2486
330
2484
100
AcDbEntity
  8
SUNPO
 62
   144
100
AcDbLine
 10
3530.0
 20
1350.0
 30
0.0
 11
3440.0
 21
1350.0
 31
0.0
  0
LINE
  5
2487
330
2484
100
AcDbEntity
  8
SUNPO
 62
   144
100
AcDbLine
 10
3450.0
 20
1622.0
 30
0.0
 11
3450.0
 21
1378.0
 31
0.0
  0
SOLID
  5
2488
330
2484
100
AcDbEntity
  8
SUNPO
 62
   144
100
AcDbTrace
 10
3445.333333333333
 20
1622.0
 30
0.0
 11
3454.666666666666
 21
1622.0
 31
0.0
 12
3450.0
 22
1650.0
 32
0.0
 13
3450.0
 23
1650.0
 33
0.0
  0
SOLID
  5
2489
330
2484
100
AcDbEntity
  8
SUNPO
 62
   144
100
AcDbTrace
 10
3445.333333333333
 20
1378.0
 30
0.0
 11
3454.666666666666
 21
1378.0
 31
0.0
 12
3450.0
 22
1350.0
 32
0.0
 13
3450.0
 23
1350.0
 33
0.0
  0
MTEXT
  5
248A
330
2484
100
AcDbEntity
  8
SUNPO
 62
     7
100
AcDbMText
 10
3419.499999999999
 20
1500.0
 30
0.0
 40
36.0
 41
0.0
 71
     5
 72
     1
  1
\A2;300
  7
ADD
 11
0.0000000000000001
 21
1.0
 31
0.0
1001
ACAD
1000
MTEXTBEGIN
1070
    73
1070
     1
1070
    44
1040
1.0
1070
    74
1070
     0
1000
MTEXTEND
1000
MTEXTBEGIN
1070
    73
1070
     1
1070
    44
1040
1.0
1070
    74
1070
     0
1000
MTEXTEND
1000
MTEXTBEGIN
1070
    73
1070
     1
1070
    44
1040
1.0
1070
    74
1070
     0
1000
MTEXTEND
1000
MTEXTBEGIN
1070
    73
1070
     1
1070
    44
1040
1.0
1070
    74
1070
     0
1000
MTEXTEND
  0
POINT
  5
248B
330
2484
100
AcDbEntity
  8
DEFPOINTS
 62
     0
100
AcDbPoint
 10
3550.0
 20
1650.0
 30
0.0
  0
POINT
  5
248C
330
2484
100
AcDbEntity
  8
DEFPOINTS
 62
     0
100
AcDbPoint
 10
3550.0
 20
1350.0
 30
0.0
  0
POINT
  5
248D
330
2484
100
AcDbEntity
  8
DEFPOINTS
 62
     0
100
AcDbPoint
 10
3450.0
 20
1350.0
 30
0.0
  0
ENDBLK
  5
248F
330
2484
100
AcDbEntity
  8
0
100
AcDbBlockEnd
  0
BLOCK
  5
249D
330
2491
100
AcDbEntity
  8
0
100
AcDbBlockBegin
  2
*D21
 70
     1
 10
0.0
 20
0.0
 30
0.0
  3
*D21
  1

  0
LINE
  5
2492
330
2491
100
AcDbEntity
  8
SUNPO
 62
   144
100
AcDbLine
 10
3530.0
 20
1350.0
 30
0.0
 11
3440.0
 21
1350.0
 31
0.0
  0
LINE
  5
2493
330
2491
100
AcDbEntity
  8
SUNPO
 62
   144
100
AcDbLine
 10
3530.0
 20
1245.0
 30
0.0
 11
3440.0
 21
1245.0
 31
0.0
  0
LINE
  5
2494
330
2491
100
AcDbEntity
  8
SUNPO
 62
   144
100
AcDbLine
 10
3450.0
 20
1378.0
 30
0.0
 11
3450.0
 21
1406.0
 31
0.0
  0
LINE
  5
2495
330
2491
100
AcDbEntity
  8
SUNPO
 62
   144
100
AcDbLine
 10
3450.0
 20
1217.0
 30
0.0
 11
3450.0
 21
1189.0
 31
0.0
  0
LINE
  5
2496
330
2491
100
AcDbEntity
  8
SUNPO
 62
   144
100
AcDbLine
 10
3450.0
 20
1350.0
 30
0.0
 11
3450.0
 21
1245.0
 31
0.0
  0
SOLID
  5
2497
330
2491
100
AcDbEntity
  8
SUNPO
 62
   144
100
AcDbTrace
 10
3445.333333333333
 20
1378.0
 30
0.0
 11
3454.666666666666
 21
1378.0
 31
0.0
 12
3450.0
 22
1350.0
 32
0.0
 13
3450.0
 23
1350.0
 33
0.0
  0
SOLID
  5
2498
330
2491
100
AcDbEntity
  8
SUNPO
 62
   144
100
AcDbTrace
 10
3445.333333333333
 20
1217.0
 30
0.0
 11
3454.666666666666
 21
1217.0
 31
0.0
 12
3450.0
 22
1245.0
 32
0.0
 13
3450.0
 23
1245.0
 33
0.0
  0
MTEXT
  5
2499
330
2491
100
AcDbEntity
  8
SUNPO
 62
     7
100
AcDbMText
 10
3419.499999999999
 20
1297.5
 30
0.0
 40
36.0
 41
0.0
 71
     5
 72
     1
  1
\A2;105
  7
ADD
 11
0.0000000000000001
 21
1.0
 31
0.0
1001
ACAD
1000
MTEXTBEGIN
1070
    73
1070
     1
1070
    44
1040
1.0
1070
    74
1070
     0
1000
MTEXTEND
1000
MTEXTBEGIN
1070
    73
1070
     1
1070
    44
1040
1.0
1070
    74
1070
     0
1000
MTEXTEND
1000
MTEXTBEGIN
1070
    73
1070
     1
1070
    44
1040
1.0
1070
    74
1070
     0
1000
MTEXTEND
1000
MTEXTBEGIN
1070
    73
1070
     1
1070
    44
1040
1.0
1070
    74
1070
     0
1000
MTEXTEND
  0
POINT
  5
249A
330
2491
100
AcDbEntity
  8
DEFPOINTS
 62
     0
100
AcDbPoint
 10
3550.0
 20
1350.0
 30
0.0
  0
POINT
  5
249B
330
2491
100
AcDbEntity
  8
DEFPOINTS
 62
     0
100
AcDbPoint
 10
3550.0
 20
1245.0
 30
0.0
  0
POINT
  5
249C
330
2491
100
AcDbEntity
  8
DEFPOINTS
 62
     0
100
AcDbPoint
 10
3450.0
 20
1245.0
 30
0.0
  0
ENDBLK
  5
249E
330
2491
100
AcDbEntity
  8
0
100
AcDbBlockEnd
  0
BLOCK
  5
24AA
330
24A0
100
AcDbEntity
  8
0
100
AcDbBlockBegin
  2
*D22
 70
     1
 10
0.0
 20
0.0
 30
0.0
  3
*D22
  1

  0
LINE
  5
24A1
330
24A0
100
AcDbEntity
  8
SUNPO
 62
   144
100
AcDbLine
 10
3530.0
 20
1755.0
 30
0.0
 11
3340.0
 21
1755.0
 31
0.0
  0
LINE
  5
24A2
330
24A0
100
AcDbEntity
  8
SUNPO
 62
   144
100
AcDbLine
 10
3530.0
 20
1245.0
 30
0.0
 11
3340.0
 21
1245.0
 31
0.0
  0
LINE
  5
24A3
330
24A0
100
AcDbEntity
  8
SUNPO
 62
   144
100
AcDbLine
 10
3350.0
 20
1727.0
 30
0.0
 11
3350.0
 21
1273.0
 31
0.0
  0
SOLID
  5
24A4
330
24A0
100
AcDbEntity
  8
SUNPO
 62
   144
100
AcDbTrace
 10
3345.333333333333
 20
1727.0
 30
0.0
 11
3354.666666666666
 21
1727.0
 31
0.0
 12
3350.0
 22
1755.0
 32
0.0
 13
3350.0
 23
1755.0
 33
0.0
  0
SOLID
  5
24A5
330
24A0
100
AcDbEntity
  8
SUNPO
 62
   144
100
AcDbTrace
 10
3345.333333333333
 20
1273.0
 30
0.0
 11
3354.666666666666
 21
1273.0
 31
0.0
 12
3350.0
 22
1245.0
 32
0.0
 13
3350.0
 23
1245.0
 33
0.0
  0
MTEXT
  5
24A6
330
24A0
100
AcDbEntity
  8
SUNPO
 62
     7
100
AcDbMText
 10
3319.499999999999
 20
1500.0
 30
0.0
 40
36.0
 41
0.0
 71
     5
 72
     1
  1
\A2;510
  7
ADD
 11
0.0000000000000001
 21
1.0
 31
0.0
1001
ACAD
1000
MTEXTBEGIN
1070
    73
1070
     1
1070
    44
1040
1.0
1070
    74
1070
     0
1000
MTEXTEND
1000
MTEXTBEGIN
1070
    73
1070
     1
1070
    44
1040
1.0
1070
    74
1070
     0
1000
MTEXTEND
1000
MTEXTBEGIN
1070
    73
1070
     1
1070
    44
1040
1.0
1070
    74
1070
     0
1000
MTEXTEND
1000
MTEXTBEGIN
1070
    73
1070
     1
1070
    44
1040
1.0
1070
    74
1070
     0
1000
MTEXTEND
  0
POINT
  5
24A7
330
24A0
100
AcDbEntity
  8
DEFPOINTS
 62
     0
100
AcDbPoint
 10
3550.0
 20
1755.0
 30
0.0
  0
POINT
  5
24A8
330
24A0
100
AcDbEntity
  8
DEFPOINTS
 62
     0
100
AcDbPoint
 10
3550.0
 20
1245.0
 30
0.0
  0
POINT
  5
24A9
330
24A0
100
AcDbEntity
  8
DEFPOINTS
 62
     0
100
AcDbPoint
 10
3350.0
 20
1245.0
 30
0.0
  0
ENDBLK
  5
24AB
330
24A0
100
AcDbEntity
  8
0
100
AcDbBlockEnd
  0
BLOCK
  5
24BE
330
24B4
100
AcDbEntity
  8
0
100
AcDbBlockBegin
  2
*D23
 70
     1
 10
0.0
 20
0.0
 30
0.0
  3
*D23
  1

  0
LINE
  5
24B5
330
24B4
100
AcDbEntity
  8
SUNPO
 62
   144
100
AcDbLine
 10
1745.0
 20
3229.0
 30
0.0
 11
1745.0
 21
3510.0
 31
0.0
  0
LINE
  5
24B6
330
24B4
100
AcDbEntity
  8
SUNPO
 62
   144
100
AcDbLine
 10
2255.0
 20
3229.0
 30
0.0
 11
2255.0
 21
3510.0
 31
0.0
  0
LINE
  5
24B7
330
24B4
100
AcDbEntity
  8
SUNPO
 62
   144
100
AcDbLine
 10
1773.0
 20
3500.0
 30
0.0
 11
2227.0
 21
3500.0
 31
0.0
  0
SOLID
  5
24B8
330
24B4
100
AcDbEntity
  8
SUNPO
 62
   144
100
AcDbTrace
 10
1773.0
 20
3504.666666666667
 30
0.0
 11
1773.0
 21
3495.333333333333
 31
0.0
 12
1745.0
 22
3500.0
 32
0.0
 13
1745.0
 23
3500.0
 33
0.0
  0
SOLID
  5
24B9
330
24B4
100
AcDbEntity
  8
SUNPO
 62
   144
100
AcDbTrace
 10
2227.0
 20
3504.666666666667
 30
0.0
 11
2227.0
 21
3495.333333333333
 31
0.0
 12
2255.0
 22
3500.0
 32
0.0
 13
2255.0
 23
3500.0
 33
0.0
  0
MTEXT
  5
24BA
330
24B4
100
AcDbEntity
  8
SUNPO
 62
     7
100
AcDbMText
 10
2000.0
 20
3530.499999999999
 30
0.0
 40
36.0
 41
0.0
 71
     5
 72
     1
  1
\A2;510
  7
ADD
1001
ACAD
1000
MTEXTBEGIN
1070
    73
1070
     1
1070
    44
1040
1.0
1070
    74
1070
     0
1000
MTEXTEND
1000
MTEXTBEGIN
1070
    73
1070
     1
1070
    44
1040
1.0
1070
    74
1070
     0
1000
MTEXTEND
1000
MTEXTBEGIN
1070
    73
1070
     1
1070
    44
1040
1.0
1070
    74
1070
     0
1000
MTEXTEND
1000
MTEXTBEGIN
1070
    73
1070
     1
1070
    44
1040
1.0
1070
    74
1070
     0
1000
MTEXTEND
  0
POINT
  5
24BB
330
24B4
100
AcDbEntity
  8
DEFPOINTS
 62
     0
100
AcDbPoint
 10
1745.0
 20
3209.0
 30
0.0
  0
POINT
  5
24BC
330
24B4
100
AcDbEntity
  8
DEFPOINTS
 62
     0
100
AcDbPoint
 10
2255.0
 20
3209.0
 30
0.0
  0
POINT
  5
24BD
330
24B4
100
AcDbEntity
  8
DEFPOINTS
 62
     0
100
AcDbPoint
 10
2255.0
 20
3500.0
 30
0.0
  0
ENDBLK
  5
24BF
330
24B4
100
AcDbEntity
  8
0
100
AcDbBlockEnd
  0
BLOCK
  5
24CD
330
24C1
100
AcDbEntity
  8
0
100
AcDbBlockBegin
  2
*D24
 70
     1
 10
0.0
 20
0.0
 30
0.0
  3
*D24
  1

  0
LINE
  5
24C2
330
24C1
100
AcDbEntity
  8
SUNPO
 62
   144
100
AcDbLine
 10
4270.0
 20
3208.999999999999
 30
0.0
 11
4410.0
 21
3208.999999999999
 31
0.0
  0
LINE
  5
24C3
330
24C1
100
AcDbEntity
  8
SUNPO
 62
   144
100
AcDbLine
 10
4270.0
 20
3109.0
 30
0.0
 11
4410.0
 21
3109.0
 31
0.0
  0
LINE
  5
24C4
330
24C1
100
AcDbEntity
  8
SUNPO
 62
   144
100
AcDbLine
 10
4400.0
 20
3237.0
 30
0.0
 11
4400.0
 21
3265.0
 31
0.0
  0
LINE
  5
24C5
330
24C1
100
AcDbEntity
  8
SUNPO
 62
   144
100
AcDbLine
 10
4400.0
 20
3081.0
 30
0.0
 11
4400.0
 21
3053.0
 31
0.0
  0
LINE
  5
24C6
330
24C1
100
AcDbEntity
  8
SUNPO
 62
   144
100
AcDbLine
 10
4400.0
 20
3208.999999999999
 30
0.0
 11
4400.0
 21
3109.0
 31
0.0
  0
SOLID
  5
24C7
330
24C1
100
AcDbEntity
  8
SUNPO
 62
   144
100
AcDbTrace
 10
4395.333333333333
 20
3237.0
 30
0.0
 11
4404.666666666667
 21
3237.0
 31
0.0
 12
4400.0
 22
3208.999999999999
 32
0.0
 13
4400.0
 23
3208.999999999999
 33
0.0
  0
SOLID
  5
24C8
330
24C1
100
AcDbEntity
  8
SUNPO
 62
   144
100
AcDbTrace
 10
4395.333333333333
 20
3081.0
 30
0.0
 11
4404.666666666667
 21
3081.0
 31
0.0
 12
4400.0
 22
3109.0
 32
0.0
 13
4400.0
 23
3109.0
 33
0.0
  0
MTEXT
  5
24C9
330
24C1
100
AcDbEntity
  8
SUNPO
 62
     7
100
AcDbMText
 10
4369.499999999999
 20
3159.0
 30
0.0
 40
36.0
 41
0.0
 71
     5
 72
     1
  1
\A2;100
  7
ADD
 11
0.0000000000000001
 21
1.0
 31
0.0
1001
ACAD
1000
MTEXTBEGIN
1070
    73
1070
     1
1070
    44
1040
1.0
1070
    74
1070
     0
1000
MTEXTEND
1000
MTEXTBEGIN
1070
    73
1070
     1
1070
    44
1040
1.0
1070
    74
1070
     0
1000
MTEXTEND
1000
MTEXTBEGIN
1070
    73
1070
     1
1070
    44
1040
1.0
1070
    74
1070
     0
1000
MTEXTEND
1000
MTEXTBEGIN
1070
    73
1070
     1
1070
    44
1040
1.0
1070
    74
1070
     0
1000
MTEXTEND
  0
POINT
  5
24CA
330
24C1
100
AcDbEntity
  8
DEFPOINTS
 62
     0
100
AcDbPoint
 10
4250.0
 20
3208.999999999999
 30
0.0
  0
POINT
  5
24CB
330
24C1
100
AcDbEntity
  8
DEFPOINTS
 62
     0
100
AcDbPoint
 10
4250.0
 20
3109.0
 30
0.0
  0
POINT
  5
24CC
330
24C1
100
AcDbEntity
  8
DEFPOINTS
 62
     0
100
AcDbPoint
 10
4400.0
 20
3109.0
 30
0.0
  0
ENDBLK
  5
24CE
330
24C1
100
AcDbEntity
  8
0
100
AcDbBlockEnd
  0
BLOCK
  5
24DA
330
24D0
100
AcDbEntity
  8
0
100
AcDbBlockBegin
  2
*D25
 70
     1
 10
0.0
 20
0.0
 30
0.0
  3
*D25
  1

  0
LINE
  5
262C
330
24D0
100
AcDbEntity
  8
SUNPO
 62
   144
100
AcDbLine
 10
4270.0
 20
3109.0
 30
0.0
 11
4410.0
 21
3109.0
 31
0.0
  0
LINE
  5
262D
330
24D0
100
AcDbEntity
  8
SUNPO
 62
   144
100
AcDbLine
 10
4270.0
 20
2709.0
 30
0.0
 11
4410.0
 21
2709.0
 31
0.0
  0
LINE
  5
262E
330
24D0
100
AcDbEntity
  8
SUNPO
 62
   144
100
AcDbLine
 10
4400.0
 20
3081.0
 30
0.0
 11
4400.0
 21
2737.0
 31
0.0
  0
SOLID
  5
262F
330
24D0
100
AcDbEntity
  8
SUNPO
 62
   144
100
AcDbTrace
 10
4395.333333333333
 20
3081.0
 30
0.0
 11
4404.666666666667
 21
3081.0
 31
0.0
 12
4400.0
 22
3109.0
 32
0.0
 13
4400.0
 23
3109.0
 33
0.0
  0
SOLID
  5
2630
330
24D0
100
AcDbEntity
  8
SUNPO
 62
   144
100
AcDbTrace
 10
4395.333333333333
 20
2737.0
 30
0.0
 11
4404.666666666667
 21
2737.0
 31
0.0
 12
4400.0
 22
2709.0
 32
0.0
 13
4400.0
 23
2709.0
 33
0.0
  0
MTEXT
  5
2631
330
24D0
100
AcDbEntity
  8
SUNPO
 62
     7
100
AcDbMText
 10
4369.499999999999
 20
2909.0
 30
0.0
 40
36.0
 41
0.0
 71
     5
 72
     1
  1
\A2;400
  7
ADD
 11
0.0000000000000001
 21
1.0
 31
0.0
1001
ACAD
1000
MTEXTBEGIN
1070
    73
1070
     1
1070
    44
1040
1.0
1070
    74
1070
     0
1000
MTEXTEND
1000
MTEXTBEGIN
1070
    73
1070
     1
1070
    44
1040
1.0
1070
    74
1070
     0
1000
MTEXTEND
1000
MTEXTBEGIN
1070
    73
1070
     1
1070
    44
1040
1.0
1070
    74
1070
     0
1000
MTEXTEND
1000
MTEXTBEGIN
1070
    73
1070
     1
1070
    44
1040
1.0
1070
    74
1070
     0
1000
MTEXTEND
  0
POINT
  5
2632
330
24D0
100
AcDbEntity
  8
DEFPOINTS
 62
     0
100
AcDbPoint
 10
4250.0
 20
3109.0
 30
0.0
  0
POINT
  5
2633
330
24D0
100
AcDbEntity
  8
DEFPOINTS
 62
     0
100
AcDbPoint
 10
4250.0
 20
2709.0
 30
0.0
  0
POINT
  5
2634
330
24D0
100
AcDbEntity
  8
DEFPOINTS
 62
     0
100
AcDbPoint
 10
4400.0
 20
2709.0
 30
0.0
  0
ENDBLK
  5
24DB
330
24D0
100
AcDbEntity
  8
0
100
AcDbBlockEnd
  0
BLOCK
  5
24E7
330
24DD
100
AcDbEntity
  8
0
100
AcDbBlockBegin
  2
*D26
 70
     1
 10
0.0
 20
0.0
 30
0.0
  3
*D26
  1

  0
LINE
  5
2623
330
24DD
100
AcDbEntity
  8
SUNPO
 62
   144
100
AcDbLine
 10
4270.0
 20
2709.0
 30
0.0
 11
4410.0
 21
2709.0
 31
0.0
  0
LINE
  5
2624
330
24DD
100
AcDbEntity
  8
SUNPO
 62
   144
100
AcDbLine
 10
4270.0
 20
2559.0
 30
0.0
 11
4410.0
 21
2559.0
 31
0.0
  0
LINE
  5
2625
330
24DD
100
AcDbEntity
  8
SUNPO
 62
   144
100
AcDbLine
 10
4400.0
 20
2681.0
 30
0.0
 11
4400.0
 21
2587.0
 31
0.0
  0
SOLID
  5
2626
330
24DD
100
AcDbEntity
  8
SUNPO
 62
   144
100
AcDbTrace
 10
4395.333333333333
 20
2681.0
 30
0.0
 11
4404.666666666667
 21
2681.0
 31
0.0
 12
4400.0
 22
2709.0
 32
0.0
 13
4400.0
 23
2709.0
 33
0.0
  0
SOLID
  5
2627
330
24DD
100
AcDbEntity
  8
SUNPO
 62
   144
100
AcDbTrace
 10
4395.333333333333
 20
2587.0
 30
0.0
 11
4404.666666666667
 21
2587.0
 31
0.0
 12
4400.0
 22
2559.0
 32
0.0
 13
4400.0
 23
2559.0
 33
0.0
  0
MTEXT
  5
2628
330
24DD
100
AcDbEntity
  8
SUNPO
 62
     7
100
AcDbMText
 10
4369.499999999999
 20
2634.0
 30
0.0
 40
36.0
 41
0.0
 71
     5
 72
     1
  1
\A2;150
  7
ADD
 11
0.0000000000000001
 21
1.0
 31
0.0
1001
ACAD
1000
MTEXTBEGIN
1070
    73
1070
     1
1070
    44
1040
1.0
1070
    74
1070
     0
1000
MTEXTEND
1000
MTEXTBEGIN
1070
    73
1070
     1
1070
    44
1040
1.0
1070
    74
1070
     0
1000
MTEXTEND
1000
MTEXTBEGIN
1070
    73
1070
     1
1070
    44
1040
1.0
1070
    74
1070
     0
1000
MTEXTEND
1000
MTEXTBEGIN
1070
    73
1070
     1
1070
    44
1040
1.0
1070
    74
1070
     0
1000
MTEXTEND
  0
POINT
  5
2629
330
24DD
100
AcDbEntity
  8
DEFPOINTS
 62
     0
100
AcDbPoint
 10
4250.0
 20
2709.0
 30
0.0
  0
POINT
  5
262A
330
24DD
100
AcDbEntity
  8
DEFPOINTS
 62
     0
100
AcDbPoint
 10
4250.0
 20
2559.0
 30
0.0
  0
POINT
  5
262B
330
24DD
100
AcDbEntity
  8
DEFPOINTS
 62
     0
100
AcDbPoint
 10
4400.0
 20
2559.0
 30
0.0
  0
ENDBLK
  5
24E8
330
24DD
100
AcDbEntity
  8
0
100
AcDbBlockEnd
  0
BLOCK
  5
24F4
330
24EA
100
AcDbEntity
  8
0
100
AcDbBlockBegin
  2
*D27
 70
     1
 10
0.0
 20
0.0
 30
0.0
  3
*D27
  1

  0
LINE
  5
261A
330
24EA
100
AcDbEntity
  8
SUNPO
 62
   144
100
AcDbLine
 10
4270.0
 20
2559.0
 30
0.0
 11
4410.0
 21
2559.0
 31
0.0
  0
LINE
  5
261B
330
24EA
100
AcDbEntity
  8
SUNPO
 62
   144
100
AcDbLine
 10
4270.0
 20
2409.0
 30
0.0
 11
4410.0
 21
2409.0
 31
0.0
  0
LINE
  5
261C
330
24EA
100
AcDbEntity
  8
SUNPO
 62
   144
100
AcDbLine
 10
4400.0
 20
2531.0
 30
0.0
 11
4400.0
 21
2437.0
 31
0.0
  0
SOLID
  5
261D
330
24EA
100
AcDbEntity
  8
SUNPO
 62
   144
100
AcDbTrace
 10
4395.333333333333
 20
2531.0
 30
0.0
 11
4404.666666666667
 21
2531.0
 31
0.0
 12
4400.0
 22
2559.0
 32
0.0
 13
4400.0
 23
2559.0
 33
0.0
  0
SOLID
  5
261E
330
24EA
100
AcDbEntity
  8
SUNPO
 62
   144
100
AcDbTrace
 10
4395.333333333333
 20
2437.0
 30
0.0
 11
4404.666666666667
 21
2437.0
 31
0.0
 12
4400.0
 22
2409.0
 32
0.0
 13
4400.0
 23
2409.0
 33
0.0
  0
MTEXT
  5
261F
330
24EA
100
AcDbEntity
  8
SUNPO
 62
     7
100
AcDbMText
 10
4369.499999999999
 20
2484.0
 30
0.0
 40
36.0
 41
0.0
 71
     5
 72
     1
  1
\A2;150
  7
ADD
 11
0.0000000000000001
 21
1.0
 31
0.0
1001
ACAD
1000
MTEXTBEGIN
1070
    73
1070
     1
1070
    44
1040
1.0
1070
    74
1070
     0
1000
MTEXTEND
1000
MTEXTBEGIN
1070
    73
1070
     1
1070
    44
1040
1.0
1070
    74
1070
     0
1000
MTEXTEND
1000
MTEXTBEGIN
1070
    73
1070
     1
1070
    44
1040
1.0
1070
    74
1070
     0
1000
MTEXTEND
1000
MTEXTBEGIN
1070
    73
1070
     1
1070
    44
1040
1.0
1070
    74
1070
     0
1000
MTEXTEND
  0
POINT
  5
2620
330
24EA
100
AcDbEntity
  8
DEFPOINTS
 62
     0
100
AcDbPoint
 10
4250.0
 20
2559.0
 30
0.0
  0
POINT
  5
2621
330
24EA
100
AcDbEntity
  8
DEFPOINTS
 62
     0
100
AcDbPoint
 10
4250.0
 20
2409.0
 30
0.0
  0
POINT
  5
2622
330
24EA
100
AcDbEntity
  8
DEFPOINTS
 62
     0
100
AcDbPoint
 10
4400.0
 20
2409.0
 30
0.0
  0
ENDBLK
  5
24F5
330
24EA
100
AcDbEntity
  8
0
100
AcDbBlockEnd
  0
BLOCK
  5
2501
330
24F7
100
AcDbEntity
  8
0
100
AcDbBlockBegin
  2
*D28
 70
     1
 10
0.0
 20
0.0
 30
0.0
  3
*D28
  1

  0
LINE
  5
2611
330
24F7
100
AcDbEntity
  8
SUNPO
 62
   144
100
AcDbLine
 10
4270.0
 20
2409.0
 30
0.0
 11
4510.0
 21
2409.0
 31
0.0
  0
LINE
  5
2612
330
24F7
100
AcDbEntity
  8
SUNPO
 62
   144
100
AcDbLine
 10
4270.0
 20
3208.999999999999
 30
0.0
 11
4510.0
 21
3208.999999999999
 31
0.0
  0
LINE
  5
2613
330
24F7
100
AcDbEntity
  8
SUNPO
 62
   144
100
AcDbLine
 10
4500.0
 20
2437.0
 30
0.0
 11
4500.0
 21
3180.999999999999
 31
0.0
  0
SOLID
  5
2614
330
24F7
100
AcDbEntity
  8
SUNPO
 62
   144
100
AcDbTrace
 10
4495.333333333333
 20
2437.0
 30
0.0
 11
4504.666666666667
 21
2437.0
 31
0.0
 12
4500.0
 22
2409.0
 32
0.0
 13
4500.0
 23
2409.0
 33
0.0
  0
SOLID
  5
2615
330
24F7
100
AcDbEntity
  8
SUNPO
 62
   144
100
AcDbTrace
 10
4495.333333333333
 20
3180.999999999999
 30
0.0
 11
4504.666666666667
 21
3180.999999999999
 31
0.0
 12
4500.0
 22
3208.999999999999
 32
0.0
 13
4500.0
 23
3208.999999999999
 33
0.0
  0
MTEXT
  5
2616
330
24F7
100
AcDbEntity
  8
SUNPO
 62
     7
100
AcDbMText
 10
4469.499999999999
 20
2809.0
 30
0.0
 40
36.0
 41
0.0
 71
     5
 72
     1
  1
\A2;800
  7
ADD
 11
0.0000000000000001
 21
1.0
 31
0.0
1001
ACAD
1000
MTEXTBEGIN
1070
    73
1070
     1
1070
    44
1040
1.0
1070
    74
1070
     0
1000
MTEXTEND
1000
MTEXTBEGIN
1070
    73
1070
     1
1070
    44
1040
1.0
1070
    74
1070
     0
1000
MTEXTEND
1000
MTEXTBEGIN
1070
    73
1070
     1
1070
    44
1040
1.0
1070
    74
1070
     0
1000
MTEXTEND
1000
MTEXTBEGIN
1070
    73
1070
     1
1070
    44
1040
1.0
1070
    74
1070
     0
1000
MTEXTEND
  0
POINT
  5
2617
330
24F7
100
AcDbEntity
  8
DEFPOINTS
 62
     0
100
AcDbPoint
 10
4250.0
 20
2409.0
 30
0.0
  0
POINT
  5
2618
330
24F7
100
AcDbEntity
  8
DEFPOINTS
 62
     0
100
AcDbPoint
 10
4250.0
 20
3208.999999999999
 30
0.0
  0
POINT
  5
2619
330
24F7
100
AcDbEntity
  8
DEFPOINTS
 62
     0
100
AcDbPoint
 10
4500.0
 20
3208.999999999999
 30
0.0
  0
ENDBLK
  5
2502
330
24F7
100
AcDbEntity
  8
0
100
AcDbBlockEnd
  0
BLOCK
  5
250E
330
2504
100
AcDbEntity
  8
0
100
AcDbBlockBegin
  2
*D29
 70
     1
 10
0.0
 20
0.0
 30
0.0
  3
*D29
  1

  0
LINE
  5
2505
330
2504
100
AcDbEntity
  8
SUNPO
 62
   144
100
AcDbLine
 10
3550.0
 20
1225.0
 30
0.0
 11
3550.0
 21
990.0
 31
0.0
  0
LINE
  5
2506
330
2504
100
AcDbEntity
  8
SUNPO
 62
   144
100
AcDbLine
 10
4250.0
 20
1225.0
 30
0.0
 11
4250.0
 21
990.0
 31
0.0
  0
LINE
  5
2507
330
2504
100
AcDbEntity
  8
SUNPO
 62
   144
100
AcDbLine
 10
3578.0
 20
1000.0
 30
0.0
 11
4222.0
 21
1000.0
 31
0.0
  0
SOLID
  5
2508
330
2504
100
AcDbEntity
  8
SUNPO
 62
   144
100
AcDbTrace
 10
3578.0
 20
1004.666666666666
 30
0.0
 11
3578.0
 21
995.3333333333333
 31
0.0
 12
3550.0
 22
1000.0
 32
0.0
 13
3550.0
 23
1000.0
 33
0.0
  0
SOLID
  5
2509
330
2504
100
AcDbEntity
  8
SUNPO
 62
   144
100
AcDbTrace
 10
4222.0
 20
1004.666666666666
 30
0.0
 11
4222.0
 21
995.3333333333333
 31
0.0
 12
4250.0
 22
1000.0
 32
0.0
 13
4250.0
 23
1000.0
 33
0.0
  0
MTEXT
  5
250A
330
2504
100
AcDbEntity
  8
SUNPO
 62
     7
100
AcDbMText
 10
3900.0
 20
1030.499999999999
 30
0.0
 40
36.0
 41
0.0
 71
     5
 72
     1
  1
\A2;700
  7
ADD
1001
ACAD
1000
MTEXTBEGIN
1070
    73
1070
     1
1070
    44
1040
1.0
1070
    74
1070
     0
1000
MTEXTEND
1000
MTEXTBEGIN
1070
    73
1070
     1
1070
    44
1040
1.0
1070
    74
1070
     0
1000
MTEXTEND
1000
MTEXTBEGIN
1070
    73
1070
     1
1070
    44
1040
1.0
1070
    74
1070
     0
1000
MTEXTEND
1000
MTEXTBEGIN
1070
    73
1070
     1
1070
    44
1040
1.0
1070
    74
1070
     0
1000
MTEXTEND
  0
POINT
  5
250B
330
2504
100
AcDbEntity
  8
DEFPOINTS
 62
     0
100
AcDbPoint
 10
3550.0
 20
1245.0
 30
0.0
  0
POINT
  5
250C
330
2504
100
AcDbEntity
  8
DEFPOINTS
 62
     0
100
AcDbPoint
 10
4250.0
 20
1245.0
 30
0.0
  0
POINT
  5
250D
330
2504
100
AcDbEntity
  8
DEFPOINTS
 62
     0
100
AcDbPoint
 10
4250.0
 20
1000.0
 30
0.0
  0
ENDBLK
  5
250F
330
2504
100
AcDbEntity
  8
0
100
AcDbBlockEnd
  0
ENDSEC
  0
SECTION
  2
ENTITIES
  0
LINE
  5
60A
330
1F
100
AcDbEntity
  8
3C1
100
AcDbLine
 10
360.0
 20
260.0
 30
0.0
 11
5580.0
 21
260.0
 31
0.0
  0
LINE
  5
60B
330
1F
100
AcDbEntity
  8
3C1
100
AcDbLine
 10
360.0
 20
560.0
 30
0.0
 11
5580.0
 21
560.0
 31
0.0
  0
LINE
  5
60C
330
1F
100
AcDbEntity
  8
3C1
100
AcDbLine
 10
360.0
 20
260.0
 30
0.0
 11
360.0
 21
560.0
 31
0.0
  0
LINE
  5
60D
330
1F
100
AcDbEntity
  8
3C1
100
AcDbLine
 10
2360.0
 20
260.0
 30
0.0
 11
2360.0
 21
560.0
 31
0.0
  0
LINE
  5
60F
330
1F
100
AcDbEntity
  8
3C1
100
AcDbLine
 10
3160.0
 20
260.0
 30
0.0
 11
3160.0
 21
560.0
 31
0.0
  0
LINE
  5
610
330
1F
100
AcDbEntity
  8
3C1
100
AcDbLine
 10
3660.0
 20
260.0
 30
0.0
 11
3660.0
 21
560.0
 31
0.0
  0
LINE
  5
19CA
330
1F
100
AcDbEntity
  8
3C1
100
AcDbLine
 10
1745.0
 20
3209.0
 30
0.0
 11
2255.0
 21
3209.0
 31
0.0
  0
LINE
  5
19D2
330
1F
100
AcDbEntity
  8
3C1
100
AcDbLine
 10
1850.0
 20
3154.0
 30
0.0
 11
1849.999999999999
 21
2709.0
 31
0.0
  0
LINE
  5
19D4
330
1F
100
AcDbEntity
  8
3C1
100
AcDbLine
 10
2150.0
 20
3154.0
 30
0.0
 11
2149.999999999999
 21
2709.0
 31
0.0
  0
LINE
  5
19E7
330
1F
100
AcDbEntity
  8
3C1
100
AcDbLine
 10
1855.0
 20
3209.0
 30
0.0
 11
1854.999999999999
 21
3154.0
 31
0.0
  0
LINE
  5
19E8
330
1F
100
AcDbEntity
  8
3C1
100
AcDbLine
 10
1840.0
 20
3209.0
 30
0.0
 11
1839.999999999999
 21
3154.0
 31
0.0
  0
LINE
  5
19E9
330
1F
100
AcDbEntity
  8
3C1
100
AcDbLine
 10
1839.999999999999
 20
3154.0
 30
0.0
 11
1850.0
 21
3154.0
 31
0.0
  0
LINE
  5
19F1
330
1F
100
AcDbEntity
  8
3C1
100
AcDbLine
 10
1855.0
 20
3154.0
 30
0.0
 11
2144.999999999999
 21
3154.0
 31
0.0
  0
LINE
  5
19F2
330
1F
100
AcDbEntity
  8
3C1
100
AcDbLine
 10
2144.999999999999
 20
3154.0
 30
0.0
 11
2144.999999999999
 21
3209.0
 31
0.0
  0
LINE
  5
19F3
330
1F
100
AcDbEntity
  8
3C1
100
AcDbLine
 10
2159.999999999999
 20
3209.0
 30
0.0
 11
2159.999999999999
 21
3154.0
 31
0.0
  0
LINE
  5
19F4
330
1F
100
AcDbEntity
  8
3C1
100
AcDbLine
 10
2159.999999999999
 20
3154.0
 30
0.0
 11
2150.0
 21
3154.0
 31
0.0
  0
LINE
  5
19F8
330
1F
100
AcDbEntity
  8
3C1
100
AcDbLine
 10
1846.0
 20
3209.0
 30
0.0
 11
1845.999999999999
 21
3154.0
 31
0.0
  0
LINE
  5
19F9
330
1F
100
AcDbEntity
  8
3C1
100
AcDbLine
 10
2153.999999999999
 20
3209.0
 30
0.0
 11
2153.999999999999
 21
3154.0
 31
0.0
  0
LINE
  5
19FA
330
1F
100
AcDbEntity
  8
3C1
100
AcDbLine
 10
1849.999999999999
 20
2709.0
 30
0.0
 11
2149.999999999999
 21
2709.0
 31
0.0
  0
LINE
  5
19FB
330
1F
100
AcDbEntity
  8
3C1
  6
HIDDEN2
100
AcDbLine
 10
1849.999999999999
 20
2559.0
 30
0.0
 11
2149.999999999999
 21
2559.0
 31
0.0
  0
LINE
  5
19FD
330
1F
100
AcDbEntity
  8
3C1
100
AcDbLine
 10
1745.0
 20
2409.0
 30
0.0
 11
2255.0
 21
2409.0
 31
0.0
  0
LINE
  5
19FF
330
1F
100
AcDbEntity
  8
3C1
  6
HIDDEN2
100
AcDbLine
 10
1849.999999999999
 20
2709.0
 30
0.0
 11
1849.999999999999
 21
2559.0
 31
0.0
  0
LINE
  5
1A00
330
1F
100
AcDbEntity
  8
3C1
  6
HIDDEN2
100
AcDbLine
 10
2149.999999999999
 20
2709.0
 30
0.0
 11
2149.999999999999
 21
2559.0
 31
0.0
  0
LINE
  5
1A08
330
1F
100
AcDbEntity
  8
3C1
100
AcDbLine
 10
1850.0
 20
3109.0
 30
0.0
 11
2150.0
 21
3109.0
 31
0.0
  0
LINE
  5
1A8E
330
1F
100
AcDbEntity
  8
3C1
100
AcDbLine
 10
1999.940611518964
 20
3410.999999999999
 30
0.0
 11
1988.0
 21
3411.0
 31
0.0
  0
LINE
  5
1A8F
330
1F
100
AcDbEntity
  8
3C1
100
AcDbLine
 10
1988.0
 20
3411.0
 30
0.0
 11
1988.0
 21
3402.999999999999
 31
0.0
  0
LINE
  5
1A91
330
1F
100
AcDbEntity
  8
3C1
  6
HIDDEN2
100
AcDbLine
 10
1994.5
 20
3403.0
 30
0.0
 11
1994.5
 21
3209.0
 31
0.0
  0
LINE
  5
1A92
330
1F
100
AcDbEntity
  8
3C1
  6
HIDDEN2
100
AcDbLine
 10
1994.0
 20
3209.0
 30
0.0
 11
1994.0
 21
3139.0
 31
0.0
  0
LINE
  5
1A93
330
1F
100
AcDbEntity
  8
3C1
  6
HIDDEN2
100
AcDbLine
 10
1994.0
 20
3139.0
 30
0.0
 11
2006.0
 21
3139.0
 31
0.0
  0
LINE
  5
1A98
330
1F
100
AcDbEntity
  8
3C1
100
AcDbLine
 10
1994.0
 20
3411.0
 30
0.0
 11
1994.0
 21
3402.999999999999
 31
0.0
  0
LINE
  5
1A99
330
1F
100
AcDbEntity
  8
3C1
100
AcDbLine
 10
2005.881223037927
 20
3411.0
 30
0.0
 11
2005.881223037927
 21
3402.999999999999
 31
0.0
  0
LINE
  5
1A9A
330
1F
100
AcDbEntity
  8
3C1
100
AcDbLine
 10
2011.881223037927
 20
3411.0
 30
0.0
 11
2011.881223037927
 21
3402.999999999999
 31
0.0
  0
LINE
  5
1A9B
330
1F
100
AcDbEntity
  8
3C1
100
AcDbLine
 10
1999.940611518964
 20
3410.999999999999
 30
0.0
 11
2011.881223037927
 21
3411.0
 31
0.0
  0
LINE
  5
1A9C
330
1F
100
AcDbEntity
  8
3C1
  6
HIDDEN2
100
AcDbLine
 10
2005.5
 20
3403.0
 30
0.0
 11
2005.5
 21
3209.0
 31
0.0
  0
LINE
  5
1A9D
330
1F
100
AcDbEntity
  8
3C1
  6
HIDDEN2
100
AcDbLine
 10
2006.0
 20
3209.0
 30
0.0
 11
2006.0
 21
3139.0
 31
0.0
  0
LINE
  5
1A9E
330
1F
100
AcDbEntity
  8
3C1
  6
HIDDEN2
100
AcDbLine
 10
1991.0
 20
3209.0
 30
0.0
 11
1991.0
 21
3136.0
 31
0.0
  0
LINE
  5
1A9F
330
1F
100
AcDbEntity
  8
3C1
  6
HIDDEN2
100
AcDbLine
 10
2009.0
 20
3209.0
 30
0.0
 11
2009.0
 21
3135.999999999999
 31
0.0
  0
LINE
  5
1AA0
330
1F
100
AcDbEntity
  8
3C1
  6
HIDDEN2
100
AcDbLine
 10
1991.0
 20
3136.0
 30
0.0
 11
2009.0
 21
3135.999999999999
 31
0.0
  0
LINE
  5
1AB6
330
1F
100
AcDbEntity
  8
3C1
100
AcDbLine
 10
1949.85307038295
 20
3403.0
 30
0.0
 11
2050.146929617049
 21
3403.0
 31
0.0
  0
LINE
  5
1ABC
330
1F
100
AcDbEntity
  8
3C1
100
AcDbLine
 10
2080.019403644106
 20
3375.763203847502
 30
0.0
 11
2095.444999999999
 21
3208.999999999999
 31
0.0
  0
LINE
  5
1ABF
330
1F
100
AcDbEntity
  8
3C1
100
AcDbLine
 10
1950.094156308807
 20
3400.000000000001
 30
0.0
 11
2050.004817630977
 21
3400.000000000001
 31
0.0
  0
LINE
  5
1AC0
330
1F
100
AcDbEntity
  8
3C1
100
AcDbLine
 10
2076.889659676798
 20
3375.491037569224
 30
0.0
 11
2092.316026282074
 21
3209.0
 31
0.0
  0
ARC
  5
1AC1
330
1F
100
AcDbEntity
  8
3C1
100
AcDbCircle
 10
1950.094156308807
 20
3373.000000000001
 30
0.0
 40
27.0
100
AcDbArc
 50
90.0
 51
174.6604452465656
  0
ARC
  5
1AC2
330
1F
100
AcDbEntity
  8
3C1
100
AcDbCircle
 10
2050.004817630977
 20
3373.000000000001
 30
0.0
 40
27.0
100
AcDbArc
 50
5.293674076103549
 51
90.0
  0
ARC
  5
1AC3
330
1F
100
AcDbEntity
  8
3C1
100
AcDbCircle
 10
2050.146929617049
 20
3373.0
 30
0.0
 40
30.0
100
AcDbArc
 50
5.284821092509035
 51
89.99999999999975
  0
ARC
  5
1AC4
330
1F
100
AcDbEntity
  8
3C1
100
AcDbCircle
 10
1949.85307038295
 20
3373.0
 30
0.0
 40
30.0
100
AcDbArc
 50
89.99999999999948
 51
174.7151789074909
  0
LINE
  5
1AC6
330
1F
100
AcDbEntity
  8
3C1
100
AcDbLine
 10
3550.0
 20
3402.999999999999
 30
0.0
 11
3550.0
 21
2409.0
 31
0.0
  0
LINE
  5
1AC7
330
1F
100
AcDbEntity
  8
3C1
100
AcDbLine
 10
4250.0
 20
3402.999999999999
 30
0.0
 11
4250.0
 21
2409.0
 31
0.0
  0
LINE
  5
1AC8
330
1F
100
AcDbEntity
  8
3C1
100
AcDbLine
 10
3550.0
 20
3402.999999999999
 30
0.0
 11
4250.0
 21
3402.999999999999
 31
0.0
  0
LINE
  5
1AC9
330
1F
100
AcDbEntity
  8
3C1
100
AcDbLine
 10
3550.0
 20
2409.0
 30
0.0
 11
4250.0
 21
2409.0
 31
0.0
  0
LINE
  5
1ACB
330
1F
100
AcDbEntity
  8
3C1
100
AcDbLine
 10
3550.0
 20
3209.0
 30
0.0
 11
4250.0
 21
3208.999999999999
 31
0.0
  0
LINE
  5
1AE0
330
1F
100
AcDbEntity
  8
3C1
100
AcDbLine
 10
3639.000000000001
 20
3209.0
 30
0.0
 11
3639.0
 21
3148.0
 31
0.0
  0
LINE
  5
1AE1
330
1F
100
AcDbEntity
  8
3C1
100
AcDbLine
 10
3639.0
 20
3148.0
 30
0.0
 11
3700.0
 21
3148.0
 31
0.0
  0
LINE
  5
1AE2
330
1F
100
AcDbEntity
  8
3C1
100
AcDbLine
 10
3645.0
 20
3209.0
 30
0.0
 11
3645.0
 21
3154.0
 31
0.0
  0
LINE
  5
1AE4
330
1F
100
AcDbEntity
  8
3C1
100
AcDbLine
 10
3699.0
 20
3154.0
 30
0.0
 11
3699.0
 21
3148.0
 31
0.0
  0
LINE
  5
1AE5
330
1F
100
AcDbEntity
  8
3C1
100
AcDbLine
 10
3645.0
 20
3154.0
 30
0.0
 11
3650.0
 21
3154.0
 31
0.0
  0
LINE
  5
1AE6
330
1F
100
AcDbEntity
  8
3C1
100
AcDbLine
 10
3650.0
 20
3209.0
 30
0.0
 11
3650.0
 21
3154.0
 31
0.0
  0
LINE
  5
1AE7
330
1F
100
AcDbEntity
  8
3C1
100
AcDbLine
 10
3650.0
 20
3154.0
 30
0.0
 11
4150.0
 21
3153.999999999999
 31
0.0
  0
LINE
  5
1AE8
330
1F
100
AcDbEntity
  8
3C1
100
AcDbLine
 10
4150.0
 20
3153.999999999999
 30
0.0
 11
4150.0
 21
3208.999999999997
 31
0.0
  0
LINE
  5
1AE9
330
1F
100
AcDbEntity
  8
3C1
100
AcDbLine
 10
4161.0
 20
3208.999999999997
 30
0.0
 11
4161.0
 21
3147.999999999999
 31
0.0
  0
LINE
  5
1AEA
330
1F
100
AcDbEntity
  8
3C1
100
AcDbLine
 10
4161.0
 20
3147.999999999999
 30
0.0
 11
4100.0
 21
3147.999999999999
 31
0.0
  0
LINE
  5
1AEB
330
1F
100
AcDbEntity
  8
3C1
100
AcDbLine
 10
4155.0
 20
3208.999999999997
 30
0.0
 11
4155.0
 21
3153.999999999999
 31
0.0
  0
LINE
  5
1AEC
330
1F
100
AcDbEntity
  8
3C1
100
AcDbLine
 10
4155.0
 20
3153.999999999999
 30
0.0
 11
4150.0
 21
3153.999999999999
 31
0.0
  0
LINE
  5
1AED
330
1F
100
AcDbEntity
  8
3C1
100
AcDbLine
 10
4101.0
 20
3153.999999999999
 30
0.0
 11
4101.0
 21
3147.999999999999
 31
0.0
  0
LINE
  5
1AEE
330
1F
100
AcDbEntity
  8
3C1
100
AcDbLine
 10
3700.0
 20
3148.0
 30
0.0
 11
3700.0
 21
2709.0
 31
0.0
  0
LINE
  5
1AF0
330
1F
100
AcDbEntity
  8
3C1
  6
HIDDEN2
100
AcDbLine
 10
3700.0
 20
2709.0
 30
0.0
 11
3700.0
 21
2559.0
 31
0.0
  0
LINE
  5
1AF1
330
1F
100
AcDbEntity
  8
3C1
  6
HIDDEN2
100
AcDbLine
 10
3700.0
 20
2559.0
 30
0.0
 11
4100.0
 21
2559.0
 31
0.0
  0
LINE
  5
1AF2
330
1F
100
AcDbEntity
  8
3C1
  6
HIDDEN2
100
AcDbLine
 10
4100.0
 20
2559.0
 30
0.0
 11
4100.0
 21
2709.0
 31
0.0
  0
LINE
  5
1AF3
330
1F
100
AcDbEntity
  8
3C1
100
AcDbLine
 10
4100.0
 20
3148.0
 30
0.0
 11
4100.0
 21
2709.0
 31
0.0
  0
LINE
  5
1AF5
330
1F
100
AcDbEntity
  8
3C1
  6
HIDDEN2
100
AcDbLine
 10
3550.0
 20
2709.0
 30
0.0
 11
3700.0
 21
2709.0
 31
0.0
  0
LINE
  5
1AF6
330
1F
100
AcDbEntity
  8
3C1
  6
HIDDEN2
100
AcDbLine
 10
4100.0
 20
2709.0
 30
0.0
 11
4250.0
 21
2709.0
 31
0.0
  0
LINE
  5
1AF7
330
1F
100
AcDbEntity
  8
3C1
  6
HIDDEN2
100
AcDbLine
 10
3550.0
 20
3109.0
 30
0.0
 11
3700.0
 21
3109.0
 31
0.0
  0
LINE
  5
1AF8
330
1F
100
AcDbEntity
  8
3C1
  6
HIDDEN2
100
AcDbLine
 10
4100.0
 20
3109.0
 30
0.0
 11
4250.0
 21
3109.0
 31
0.0
  0
LINE
  5
1B51
330
1F
100
AcDbEntity
  8
3C1
100
AcDbLine
 10
3650.0
 20
1645.0
 30
0.0
 11
3650.0
 21
1595.4
 31
0.0
  0
LINE
  5
1B52
330
1F
100
AcDbEntity
  8
3C1
100
AcDbLine
 10
3650.0
 20
1355.0
 30
0.0
 11
4150.0
 21
1355.0
 31
0.0
  0
LINE
  5
1B53
330
1F
100
AcDbEntity
  8
3C1
100
AcDbLine
 10
4150.0
 20
1355.0
 30
0.0
 11
4150.0
 21
1645.0
 31
0.0
  0
LINE
  5
1B54
330
1F
100
AcDbEntity
  8
3C1
100
AcDbLine
 10
4150.0
 20
1645.0
 30
0.0
 11
3650.0
 21
1645.0
 31
0.0
  0
LINE
  5
1B55
330
1F
100
AcDbEntity
  8
3C1
100
AcDbLine
 10
3645.0
 20
1654.0
 30
0.0
 11
3645.0
 21
1595.4
 31
0.0
  0
LINE
  5
1B56
330
1F
100
AcDbEntity
  8
3C1
100
AcDbLine
 10
3645.0
 20
1346.0
 30
0.0
 11
4155.0
 21
1346.0
 31
0.0
  0
LINE
  5
1B57
330
1F
100
AcDbEntity
  8
3C1
100
AcDbLine
 10
4155.0
 20
1346.0
 30
0.0
 11
4155.0
 21
1654.0
 31
0.0
  0
LINE
  5
1B58
330
1F
100
AcDbEntity
  8
3C1
100
AcDbLine
 10
4155.0
 20
1654.0
 30
0.0
 11
3645.0
 21
1654.0
 31
0.0
  0
LINE
  5
1B59
330
1F
100
AcDbEntity
  8
3C1
100
AcDbLine
 10
3639.0
 20
1660.0
 30
0.0
 11
3639.0
 21
1595.4
 31
0.0
  0
LINE
  5
1B5A
330
1F
100
AcDbEntity
  8
3C1
100
AcDbLine
 10
3639.0
 20
1340.0
 30
0.0
 11
4161.0
 21
1340.0
 31
0.0
  0
LINE
  5
1B5C
330
1F
100
AcDbEntity
  8
3C1
100
AcDbLine
 10
4161.0
 20
1660.0
 30
0.0
 11
3639.0
 21
1660.0
 31
0.0
  0
LINE
  5
1B5D
330
1F
100
AcDbEntity
  8
3C1
100
AcDbLine
 10
3654.0
 20
1645.0
 30
0.0
 11
3654.0
 21
1595.4
 31
0.0
  0
LINE
  5
1B5E
330
1F
100
AcDbEntity
  8
3C1
100
AcDbLine
 10
4146.0
 20
1355.0
 30
0.0
 11
4146.0
 21
1645.0
 31
0.0
  0
LINE
  5
1B5F
330
1F
100
AcDbEntity
  8
3C1
100
AcDbLine
 10
4146.0
 20
1639.0
 30
0.0
 11
3654.0
 21
1639.0
 31
0.0
  0
LINE
  5
1B60
330
1F
100
AcDbEntity
  8
3C1
100
AcDbLine
 10
3654.0
 20
1361.0
 30
0.0
 11
4146.0
 21
1361.0
 31
0.0
  0
LINE
  5
1C23
330
1F
100
AcDbEntity
  8
3C1
100
AcDbLine
 10
3550.0
 20
1755.0
 30
0.0
 11
3549.999999999999
 21
1245.0
 31
0.0
  0
LINE
  5
1C25
330
1F
100
AcDbEntity
  8
3C1
100
AcDbLine
 10
4250.0
 20
1245.0
 30
0.0
 11
4250.0
 21
1755.0
 31
0.0
  0
LINE
  5
1C27
330
1F
100
AcDbEntity
  8
3C1
  6
HIDDEN2
100
AcDbLine
 10
3550.0
 20
1650.0
 30
0.0
 11
3639.0
 21
1650.0
 31
0.0
  0
LINE
  5
1C28
330
1F
100
AcDbEntity
  8
3C1
  6
HIDDEN2
100
AcDbLine
 10
3550.0
 20
1350.0
 30
0.0
 11
3639.0
 21
1350.0
 31
0.0
  0
LINE
  5
1C2B
330
1F
100
AcDbEntity
  8
3C1
100
AcDbLine
 10
3645.0
 20
1650.0
 30
0.0
 11
4155.0
 21
1650.0
 31
0.0
  0
LINE
  5
1C2C
330
1F
100
AcDbEntity
  8
3C1
100
AcDbLine
 10
4155.0
 20
1350.0
 30
0.0
 11
3645.0
 21
1350.0
 31
0.0
  0
LINE
  5
1CF7
330
1F
100
AcDbEntity
  8
3C1
  6
HIDDEN2
100
AcDbLine
 10
3591.0
 20
3136.000000000001
 30
0.0
 11
3608.999999999999
 21
3136.000000000001
 31
0.0
  0
LINE
  5
1CF8
330
1F
100
AcDbEntity
  8
3C1
  6
HIDDEN2
100
AcDbLine
 10
3609.0
 20
3209.000000000001
 30
0.0
 11
3608.999999999999
 21
3136.0
 31
0.0
  0
LINE
  5
1CF9
330
1F
100
AcDbEntity
  8
3C1
  6
HIDDEN2
100
AcDbLine
 10
3591.0
 20
3209.000000000001
 30
0.0
 11
3591.0
 21
3136.000000000001
 31
0.0
  0
LINE
  5
1CFA
330
1F
100
AcDbEntity
  8
3C1
  6
HIDDEN2
100
AcDbLine
 10
3606.0
 20
3209.000000000001
 30
0.0
 11
3606.0
 21
3139.000000000001
 31
0.0
  0
LINE
  5
1CFB
330
1F
100
AcDbEntity
  8
3C1
  6
HIDDEN2
100
AcDbLine
 10
3605.5
 20
3402.999999999999
 30
0.0
 11
3605.5
 21
3209.000000000001
 31
0.0
  0
LINE
  5
1CFC
330
1F
100
AcDbEntity
  8
3C1
100
AcDbLine
 10
3599.940611518964
 20
3411.0
 30
0.0
 11
3611.881223037928
 21
3411.0
 31
0.0
  0
LINE
  5
1CFD
330
1F
100
AcDbEntity
  8
3C1
100
AcDbLine
 10
3611.881223037928
 20
3411.0
 30
0.0
 11
3611.881223037928
 21
3403.0
 31
0.0
  0
LINE
  5
1CFE
330
1F
100
AcDbEntity
  8
3C1
100
AcDbLine
 10
3605.881223037927
 20
3411.0
 30
0.0
 11
3605.881223037927
 21
3403.0
 31
0.0
  0
LINE
  5
1CFF
330
1F
100
AcDbEntity
  8
3C1
100
AcDbLine
 10
3594.0
 20
3411.0
 30
0.0
 11
3594.0
 21
3403.0
 31
0.0
  0
LINE
  5
1D00
330
1F
100
AcDbEntity
  8
3C1
  6
HIDDEN2
100
AcDbLine
 10
3594.0
 20
3139.000000000001
 30
0.0
 11
3606.0
 21
3139.000000000001
 31
0.0
  0
LINE
  5
1D01
330
1F
100
AcDbEntity
  8
3C1
  6
HIDDEN2
100
AcDbLine
 10
3594.0
 20
3209.000000000001
 30
0.0
 11
3594.0
 21
3139.000000000001
 31
0.0
  0
LINE
  5
1D02
330
1F
100
AcDbEntity
  8
3C1
  6
HIDDEN2
100
AcDbLine
 10
3594.499999999999
 20
3402.999999999999
 30
0.0
 11
3594.5
 21
3209.000000000001
 31
0.0
  0
LINE
  5
1D03
330
1F
100
AcDbEntity
  8
3C1
100
AcDbLine
 10
3588.0
 20
3411.0
 30
0.0
 11
3588.0
 21
3403.0
 31
0.0
  0
LINE
  5
1D04
330
1F
100
AcDbEntity
  8
3C1
100
AcDbLine
 10
3599.940611518964
 20
3411.0
 30
0.0
 11
3588.0
 21
3411.0
 31
0.0
  0
LINE
  5
1D05
330
1F
100
AcDbEntity
  8
3C1
100
AcDbLine
 10
4199.940611518964
 20
3411.0
 30
0.0
 11
4188.0
 21
3411.0
 31
0.0
  0
LINE
  5
1D06
330
1F
100
AcDbEntity
  8
3C1
100
AcDbLine
 10
4188.0
 20
3411.0
 30
0.0
 11
4188.0
 21
3403.0
 31
0.0
  0
LINE
  5
1D07
330
1F
100
AcDbEntity
  8
3C1
  6
HIDDEN2
100
AcDbLine
 10
4194.5
 20
3402.999999999999
 30
0.0
 11
4194.5
 21
3209.000000000001
 31
0.0
  0
LINE
  5
1D08
330
1F
100
AcDbEntity
  8
3C1
  6
HIDDEN2
100
AcDbLine
 10
4194.0
 20
3209.000000000001
 30
0.0
 11
4194.0
 21
3139.000000000001
 31
0.0
  0
LINE
  5
1D09
330
1F
100
AcDbEntity
  8
3C1
  6
HIDDEN2
100
AcDbLine
 10
4194.0
 20
3139.000000000001
 30
0.0
 11
4206.0
 21
3139.000000000001
 31
0.0
  0
LINE
  5
1D0A
330
1F
100
AcDbEntity
  8
3C1
100
AcDbLine
 10
4194.0
 20
3411.0
 30
0.0
 11
4194.0
 21
3403.0
 31
0.0
  0
LINE
  5
1D0B
330
1F
100
AcDbEntity
  8
3C1
100
AcDbLine
 10
4205.881223037927
 20
3411.0
 30
0.0
 11
4205.881223037927
 21
3403.0
 31
0.0
  0
LINE
  5
1D0C
330
1F
100
AcDbEntity
  8
3C1
100
AcDbLine
 10
4211.881223037928
 20
3411.0
 30
0.0
 11
4211.881223037928
 21
3403.0
 31
0.0
  0
LINE
  5
1D0D
330
1F
100
AcDbEntity
  8
3C1
100
AcDbLine
 10
4199.940611518964
 20
3411.0
 30
0.0
 11
4211.881223037928
 21
3411.0
 31
0.0
  0
LINE
  5
1D0E
330
1F
100
AcDbEntity
  8
3C1
  6
HIDDEN2
100
AcDbLine
 10
4205.499999999999
 20
3402.999999999999
 30
0.0
 11
4205.499999999999
 21
3209.000000000001
 31
0.0
  0
LINE
  5
1D0F
330
1F
100
AcDbEntity
  8
3C1
  6
HIDDEN2
100
AcDbLine
 10
4206.0
 20
3209.000000000001
 30
0.0
 11
4206.0
 21
3139.000000000001
 31
0.0
  0
LINE
  5
1D10
330
1F
100
AcDbEntity
  8
3C1
  6
HIDDEN2
100
AcDbLine
 10
4191.0
 20
3209.000000000001
 30
0.0
 11
4191.0
 21
3136.000000000001
 31
0.0
  0
LINE
  5
1D11
330
1F
100
AcDbEntity
  8
3C1
  6
HIDDEN2
100
AcDbLine
 10
4209.0
 20
3209.000000000001
 30
0.0
 11
4209.0
 21
3136.0
 31
0.0
  0
LINE
  5
1D12
330
1F
100
AcDbEntity
  8
3C1
  6
HIDDEN2
100
AcDbLine
 10
4191.0
 20
3136.000000000001
 30
0.0
 11
4209.0
 21
3136.000000000001
 31
0.0
  0
LINE
  5
1D1F
330
1F
100
AcDbEntity
  8
3C1
100
AcDbLine
 10
3853.999999999999
 20
1639.0
 30
0.0
 11
3854.0
 21
1595.4
 31
0.0
  0
LINE
  5
1D20
330
1F
100
AcDbEntity
  8
3C1
100
AcDbLine
 10
3945.999999999999
 20
1639.0
 30
0.0
 11
3946.000000000001
 21
1360.999999999999
 31
0.0
  0
LINE
  5
1D21
330
1F
100
AcDbEntity
  8
3C1
100
AcDbLine
 10
3845.999999999999
 20
1639.0
 30
0.0
 11
3845.999999999999
 21
1595.4
 31
0.0
  0
LINE
  5
1D22
330
1F
100
AcDbEntity
  8
3C1
100
AcDbLine
 10
3954.0
 20
1639.0
 30
0.0
 11
3954.0
 21
1360.999999999999
 31
0.0
  0
LINE
  5
1D23
330
1F
100
AcDbEntity
  8
3C1
100
AcDbLine
 10
3746.0
 20
1639.0
 30
0.0
 11
3746.0
 21
1595.4
 31
0.0
  0
LINE
  5
1D24
330
1F
100
AcDbEntity
  8
3C1
100
AcDbLine
 10
3754.0
 20
1639.0
 30
0.0
 11
3754.0
 21
1595.4
 31
0.0
  0
LINE
  5
1D25
330
1F
100
AcDbEntity
  8
3C1
100
AcDbLine
 10
4046.0
 20
1639.0
 30
0.0
 11
4046.0
 21
1360.999999999999
 31
0.0
  0
LINE
  5
1D26
330
1F
100
AcDbEntity
  8
3C1
100
AcDbLine
 10
4054.0
 20
1639.0
 30
0.0
 11
4054.0
 21
1360.999999999999
 31
0.0
  0
LINE
  5
1DB7
330
1F
100
AcDbEntity
  8
2C1
100
AcDbLine
 10
3550.0
 20
3397.57142857143
 30
0.0
 11
3554.249999999999
 21
3400.0
 31
0.0
  0
CIRCLE
  5
207A
330
1F
100
AcDbEntity
  8
3C1
100
AcDbCircle
 10
4200.0
 20
1500.0
 30
0.0
 40
6.0
  0
CIRCLE
  5
2087
330
1F
100
AcDbEntity
  8
3C1
100
AcDbCircle
 10
4200.0
 20
1500.0
 30
0.0
 40
7.0
  0
LINE
  5
21CD
330
1F
100
AcDbEntity
  8
3C1
100
AcDbLine
 10
1745.0
 20
3209.0
 30
0.0
 11
1745.0
 21
2409.0
 31
0.0
  0
LINE
  5
21CE
330
1F
100
AcDbEntity
  8
3C1
100
AcDbLine
 10
2255.0
 20
3208.999999999999
 30
0.0
 11
2255.0
 21
2409.0
 31
0.0
  0
LINE
  5
228C
330
1F
100
AcDbEntity
  8
SUNPO
100
AcDbLine
 10
3550.0
 20
3209.0
 30
0.0
 11
3889.499999999999
 21
3402.999999999999
 31
0.0
  0
LINE
  5
228D
330
1F
100
AcDbEntity
  8
SUNPO
100
AcDbLine
 10
3910.5
 20
3402.999999999999
 30
0.0
 11
4250.0
 21
3208.999999999999
 31
0.0
  0
LINE
  5
22AB
330
1F
100
AcDbEntity
  8
SUNPO
100
AcDbLine
 10
3825.000000000001
 20
3209.0
 30
0.0
 11
4164.499999999999
 21
3402.999999999999
 31
0.0
  0
LINE
  5
22AC
330
1F
100
AcDbEntity
  8
SUNPO
100
AcDbLine
 10
3770.0
 20
3209.0
 30
0.0
 11
4109.499999999999
 21
3402.999999999999
 31
0.0
  0
LINE
  5
22AD
330
1F
100
AcDbEntity
  8
SUNPO
100
AcDbLine
 10
3715.0
 20
3209.0
 30
0.0
 11
4054.499999999999
 21
3402.999999999999
 31
0.0
  0
LINE
  5
22AE
330
1F
100
AcDbEntity
  8
SUNPO
100
AcDbLine
 10
3660.0
 20
3209.0
 30
0.0
 11
3999.499999999999
 21
3402.999999999999
 31
0.0
  0
LINE
  5
22AF
330
1F
100
AcDbEntity
  8
SUNPO
100
AcDbLine
 10
3604.999999999999
 20
3209.0
 30
0.0
 11
3944.499999999998
 21
3402.999999999999
 31
0.0
  0
LINE
  5
22B0
330
1F
100
AcDbEntity
  8
SUNPO
100
AcDbLine
 10
4100.0
 20
3209.0
 30
0.0
 11
4250.0
 21
3294.714285714284
 31
0.0
  0
LINE
  5
22B1
330
1F
100
AcDbEntity
  8
SUNPO
100
AcDbLine
 10
4045.0
 20
3209.0
 30
0.0
 11
4250.0
 21
3326.142857142857
 31
0.0
  0
LINE
  5
22B2
330
1F
100
AcDbEntity
  8
SUNPO
100
AcDbLine
 10
3990.0
 20
3209.0
 30
0.0
 11
4250.0
 21
3357.571428571428
 31
0.0
  0
LINE
  5
22B3
330
1F
100
AcDbEntity
  8
SUNPO
100
AcDbLine
 10
3935.0
 20
3209.0
 30
0.0
 11
4250.0
 21
3389.0
 31
0.0
  0
LINE
  5
22B4
330
1F
100
AcDbEntity
  8
SUNPO
100
AcDbLine
 10
3880.0
 20
3209.0
 30
0.0
 11
4219.499999999999
 21
3402.999999999999
 31
0.0
  0
LINE
  5
22B5
330
1F
100
AcDbEntity
  8
SUNPO
100
AcDbLine
 10
4210.0
 20
3208.999999999999
 30
0.0
 11
4250.0
 21
3231.857142857142
 31
0.0
  0
LINE
  5
22B6
330
1F
100
AcDbEntity
  8
SUNPO
100
AcDbLine
 10
4155.0
 20
3208.999999999999
 30
0.0
 11
4250.0
 21
3263.285714285714
 31
0.0
  0
LINE
  5
22C0
330
1F
100
AcDbEntity
  8
SUNPO
100
AcDbLine
 10
3965.500000000002
 20
3402.999999999999
 30
0.0
 11
4250.0
 21
3240.42857142857
 31
0.0
  0
LINE
  5
22C1
330
1F
100
AcDbEntity
  8
SUNPO
100
AcDbLine
 10
4020.5
 20
3402.999999999999
 30
0.0
 11
4250.0
 21
3271.857142857142
 31
0.0
  0
LINE
  5
22C2
330
1F
100
AcDbEntity
  8
SUNPO
100
AcDbLine
 10
4075.5
 20
3402.999999999999
 30
0.0
 11
4250.0
 21
3303.285714285713
 31
0.0
  0
LINE
  5
22C3
330
1F
100
AcDbEntity
  8
SUNPO
100
AcDbLine
 10
4240.499999999999
 20
3402.999999999999
 30
0.0
 11
4250.0
 21
3397.571428571428
 31
0.0
  0
LINE
  5
22C4
330
1F
100
AcDbEntity
  8
SUNPO
100
AcDbLine
 10
4185.500000000001
 20
3402.999999999999
 30
0.0
 11
4250.0
 21
3366.142857142856
 31
0.0
  0
LINE
  5
22C5
330
1F
100
AcDbEntity
  8
SUNPO
100
AcDbLine
 10
4130.5
 20
3402.999999999999
 30
0.0
 11
4250.0
 21
3334.714285714285
 31
0.0
  0
LINE
  5
22CC
330
1F
100
AcDbEntity
  8
SUNPO
100
AcDbLine
 10
3855.500000000001
 20
3402.999999999999
 30
0.0
 11
4195.0
 21
3208.999999999999
 31
0.0
  0
LINE
  5
22CD
330
1F
100
AcDbEntity
  8
SUNPO
100
AcDbLine
 10
3745.500000000001
 20
3402.999999999999
 30
0.0
 11
4085.0
 21
3208.999999999999
 31
0.0
  0
LINE
  5
22CE
330
1F
100
AcDbEntity
  8
SUNPO
100
AcDbLine
 10
3800.5
 20
3402.999999999999
 30
0.0
 11
4140.0
 21
3208.999999999999
 31
0.0
  0
LINE
  5
22D3
330
1F
100
AcDbEntity
  8
SUNPO
100
AcDbLine
 10
3690.500000000001
 20
3402.999999999999
 30
0.0
 11
4030.0
 21
3209.0
 31
0.0
  0
LINE
  5
22D7
330
1F
100
AcDbEntity
  8
SUNPO
100
AcDbLine
 10
3580.5
 20
3402.999999999999
 30
0.0
 11
3919.999999999999
 21
3208.999999999999
 31
0.0
  0
LINE
  5
22D8
330
1F
100
AcDbEntity
  8
SUNPO
100
AcDbLine
 10
3635.499999999999
 20
3402.999999999999
 30
0.0
 11
3974.999999999999
 21
3208.999999999999
 31
0.0
  0
LINE
  5
22DD
330
1F
100
AcDbEntity
  8
SUNPO
100
AcDbLine
 10
3550.0
 20
3231.857142857142
 30
0.0
 11
3589.999999999999
 21
3209.0
 31
0.0
  0
LINE
  5
22DE
330
1F
100
AcDbEntity
  8
SUNPO
100
AcDbLine
 10
3550.0
 20
3294.714285714285
 30
0.0
 11
3699.999999999999
 21
3209.0
 31
0.0
  0
LINE
  5
22DF
330
1F
100
AcDbEntity
  8
SUNPO
100
AcDbLine
 10
3550.0
 20
3263.285714285715
 30
0.0
 11
3644.999999999999
 21
3209.000000000001
 31
0.0
  0
LINE
  5
22E0
330
1F
100
AcDbEntity
  8
SUNPO
100
AcDbLine
 10
3549.999999999999
 20
3357.571428571426
 30
0.0
 11
3809.999999999999
 21
3208.999999999999
 31
0.0
  0
LINE
  5
22E1
330
1F
100
AcDbEntity
  8
SUNPO
100
AcDbLine
 10
3550.0
 20
3326.142857142857
 30
0.0
 11
3754.999999999999
 21
3209.0
 31
0.0
  0
LINE
  5
22E2
330
1F
100
AcDbEntity
  8
SUNPO
100
AcDbLine
 10
3550.0
 20
3397.57142857143
 30
0.0
 11
3559.499999999997
 21
3402.999999999999
 31
0.0
  0
LINE
  5
22E3
330
1F
100
AcDbEntity
  8
SUNPO
100
AcDbLine
 10
3550.0
 20
3366.142857142857
 30
0.0
 11
3614.499999999998
 21
3403.0
 31
0.0
  0
LINE
  5
22E4
330
1F
100
AcDbEntity
  8
SUNPO
100
AcDbLine
 10
3550.0
 20
3334.714285714287
 30
0.0
 11
3669.499999999997
 21
3402.999999999999
 31
0.0
  0
LINE
  5
22E5
330
1F
100
AcDbEntity
  8
SUNPO
100
AcDbLine
 10
3550.0
 20
3303.285714285715
 30
0.0
 11
3724.499999999999
 21
3402.999999999999
 31
0.0
  0
LINE
  5
22E6
330
1F
100
AcDbEntity
  8
SUNPO
100
AcDbLine
 10
3549.999999999999
 20
3271.857142857142
 30
0.0
 11
3779.499999999999
 21
3402.999999999999
 31
0.0
  0
LINE
  5
22E7
330
1F
100
AcDbEntity
  8
SUNPO
100
AcDbLine
 10
3550.0
 20
3240.42857142857
 30
0.0
 11
3834.499999999998
 21
3402.999999999999
 31
0.0
  0
LINE
  5
22E8
330
1F
100
AcDbEntity
  8
SUNPO
100
AcDbLine
 10
3550.0
 20
3389.000000000001
 30
0.0
 11
3864.999999999999
 21
3208.999999999999
 31
0.0
  0
LINE
  5
235E
330
1F
100
AcDbEntity
  8
3C1
100
AcDbLine
 10
3699.999999999999
 20
1639.0
 30
0.0
 11
3699.999999999999
 21
1595.4
 31
0.0
  0
LINE
  5
235F
330
1F
100
AcDbEntity
  8
3C1
100
AcDbLine
 10
3699.999999999999
 20
1650.0
 30
0.0
 11
3699.999999999999
 21
1645.0
 31
0.0
  0
LINE
  5
237A
330
1F
100
AcDbEntity
  8
3C1
  6
HIDDEN2
100
AcDbLine
 10
4161.0
 20
1650.0
 30
0.0
 11
4250.0
 21
1650.0
 31
0.0
  0
LINE
  5
237B
330
1F
100
AcDbEntity
  8
3C1
100
AcDbLine
 10
4100.0
 20
1639.0
 30
0.0
 11
4100.0
 21
1361.0
 31
0.0
  0
LINE
  5
237C
330
1F
100
AcDbEntity
  8
3C1
100
AcDbLine
 10
4100.0
 20
1650.0
 30
0.0
 11
4100.0
 21
1645.0
 31
0.0
  0
LINE
  5
237E
330
1F
100
AcDbEntity
  8
3C1
100
AcDbLine
 10
4250.0
 20
1755.0
 30
0.0
 11
3550.0
 21
1755.0
 31
0.0
  0
LINE
  5
238D
330
1F
100
AcDbEntity
  8
3C1
100
AcDbLine
 10
4161.0
 20
1340.0
 30
0.0
 11
4161.0
 21
1660.0
 31
0.0
  0
LINE
  5
238E
330
1F
100
AcDbEntity
  8
3C1
  6
HIDDEN2
100
AcDbLine
 10
4161.0
 20
1350.0
 30
0.0
 11
4250.0
 21
1350.0
 31
0.0
  0
LINE
  5
238F
330
1F
100
AcDbEntity
  8
3C1
100
AcDbLine
 10
3699.999999999999
 20
1355.0
 30
0.0
 11
3699.999999999999
 21
1350.0
 31
0.0
  0
LINE
  5
2399
330
1F
100
AcDbEntity
  8
3C1
100
AcDbLine
 10
4100.0
 20
1355.0
 30
0.0
 11
4100.0
 21
1350.0
 31
0.0
  0
LINE
  5
239C
330
1F
100
AcDbEntity
  8
3C1
100
AcDbLine
 10
3550.0
 20
1245.0
 30
0.0
 11
4250.0
 21
1245.0
 31
0.0
  0
LINE
  5
23C9
330
1F
100
AcDbEntity
  8
3C1
100
AcDbLine
 10
3654.0
 20
1609.499999999999
 30
0.0
 11
3746.0
 21
1609.499999999999
 31
0.0
  0
LINE
  5
23CD
330
1F
100
AcDbEntity
  8
3C1
100
AcDbLine
 10
3654.0
 20
1603.5
 30
0.0
 11
3746.0
 21
1603.5
 31
0.0
  0
LINE
  5
23D0
330
1F
100
AcDbEntity
  8
3C1
100
AcDbLine
 10
3654.0
 20
1390.5
 30
0.0
 11
3746.0
 21
1390.5
 31
0.0
  0
LINE
  5
23D3
330
1F
100
AcDbEntity
  8
3C1
100
AcDbLine
 10
3654.0
 20
1396.5
 30
0.0
 11
3746.0
 21
1396.5
 31
0.0
  0
LINE
  5
23D4
330
1F
100
AcDbEntity
  8
3C1
100
AcDbLine
 10
3754.0
 20
1603.5
 30
0.0
 11
3845.999999999999
 21
1603.499999999999
 31
0.0
  0
LINE
  5
23D6
330
1F
100
AcDbEntity
  8
3C1
100
AcDbLine
 10
3754.0
 20
1609.499999999999
 30
0.0
 11
3845.999999999999
 21
1609.499999999999
 31
0.0
  0
LINE
  5
23E0
330
1F
100
AcDbEntity
  8
3C1
100
AcDbLine
 10
3754.0
 20
1396.5
 30
0.0
 11
3846.0
 21
1396.5
 31
0.0
  0
LINE
  5
23E1
330
1F
100
AcDbEntity
  8
3C1
100
AcDbLine
 10
3754.0
 20
1390.5
 30
0.0
 11
3846.000000000001
 21
1390.5
 31
0.0
  0
LINE
  5
23E2
330
1F
100
AcDbEntity
  8
3C1
100
AcDbLine
 10
3854.000000000001
 20
1390.5
 30
0.0
 11
3946.000000000001
 21
1390.5
 31
0.0
  0
LINE
  5
23E3
330
1F
100
AcDbEntity
  8
3C1
100
AcDbLine
 10
3854.000000000001
 20
1396.5
 30
0.0
 11
3946.0
 21
1396.5
 31
0.0
  0
LINE
  5
23EA
330
1F
100
AcDbEntity
  8
3C1
100
AcDbLine
 10
3954.0
 20
1432.0
 30
0.0
 11
4046.0
 21
1432.0
 31
0.0
  0
LINE
  5
23EB
330
1F
100
AcDbEntity
  8
3C1
100
AcDbLine
 10
3954.0
 20
1467.5
 30
0.0
 11
4046.0
 21
1467.5
 31
0.0
  0
LINE
  5
23EC
330
1F
100
AcDbEntity
  8
3C1
100
AcDbLine
 10
3954.0
 20
1426.0
 30
0.0
 11
4046.0
 21
1426.0
 31
0.0
  0
LINE
  5
23ED
330
1F
100
AcDbEntity
  8
3C1
100
AcDbLine
 10
3954.0
 20
1461.5
 30
0.0
 11
4046.0
 21
1461.5
 31
0.0
  0
LINE
  5
23EE
330
1F
100
AcDbEntity
  8
3C1
100
AcDbLine
 10
3954.0
 20
1497.0
 30
0.0
 11
4046.0
 21
1497.0
 31
0.0
  0
LINE
  5
23EF
330
1F
100
AcDbEntity
  8
3C1
100
AcDbLine
 10
3954.0
 20
1503.0
 30
0.0
 11
4046.0
 21
1503.0
 31
0.0
  0
LINE
  5
23F0
330
1F
100
AcDbEntity
  8
3C1
100
AcDbLine
 10
3954.0
 20
1396.5
 30
0.0
 11
4046.0
 21
1396.5
 31
0.0
  0
LINE
  5
23F1
330
1F
100
AcDbEntity
  8
3C1
100
AcDbLine
 10
3954.0
 20
1390.5
 30
0.0
 11
4046.0
 21
1390.499999999999
 31
0.0
  0
LINE
  5
23F2
330
1F
100
AcDbEntity
  8
3C1
100
AcDbLine
 10
4054.0
 20
1390.499999999999
 30
0.0
 11
4146.0
 21
1390.5
 31
0.0
  0
LINE
  5
23F3
330
1F
100
AcDbEntity
  8
3C1
100
AcDbLine
 10
4054.0
 20
1396.5
 30
0.0
 11
4146.0
 21
1396.5
 31
0.0
  0
LINE
  5
23F4
330
1F
100
AcDbEntity
  8
3C1
100
AcDbLine
 10
4054.0
 20
1503.0
 30
0.0
 11
4146.0
 21
1503.0
 31
0.0
  0
LINE
  5
23F5
330
1F
100
AcDbEntity
  8
3C1
100
AcDbLine
 10
4054.0
 20
1497.0
 30
0.0
 11
4146.0
 21
1497.0
 31
0.0
  0
LINE
  5
23F6
330
1F
100
AcDbEntity
  8
3C1
100
AcDbLine
 10
4054.0
 20
1461.5
 30
0.0
 11
4146.0
 21
1461.5
 31
0.0
  0
LINE
  5
23F7
330
1F
100
AcDbEntity
  8
3C1
100
AcDbLine
 10
4054.0
 20
1426.0
 30
0.0
 11
4146.0
 21
1426.0
 31
0.0
  0
LINE
  5
23F8
330
1F
100
AcDbEntity
  8
3C1
100
AcDbLine
 10
4054.0
 20
1467.5
 30
0.0
 11
4146.0
 21
1467.5
 31
0.0
  0
LINE
  5
23F9
330
1F
100
AcDbEntity
  8
3C1
100
AcDbLine
 10
4054.0
 20
1432.0
 30
0.0
 11
4146.0
 21
1432.0
 31
0.0
  0
LINE
  5
23FA
330
1F
100
AcDbEntity
  8
3C1
100
AcDbLine
 10
4054.0
 20
1538.499999999999
 30
0.0
 11
4146.0
 21
1538.499999999999
 31
0.0
  0
LINE
  5
23FB
330
1F
100
AcDbEntity
  8
3C1
100
AcDbLine
 10
4054.0
 20
1532.5
 30
0.0
 11
4146.0
 21
1532.5
 31
0.0
  0
LINE
  5
23FC
330
1F
100
AcDbEntity
  8
3C1
100
AcDbLine
 10
4054.0
 20
1574.0
 30
0.0
 11
4146.0
 21
1574.0
 31
0.0
  0
LINE
  5
23FD
330
1F
100
AcDbEntity
  8
3C1
100
AcDbLine
 10
4054.0
 20
1609.5
 30
0.0
 11
4146.0
 21
1609.499999999999
 31
0.0
  0
LINE
  5
23FE
330
1F
100
AcDbEntity
  8
3C1
100
AcDbLine
 10
4054.0
 20
1568.0
 30
0.0
 11
4146.0
 21
1568.0
 31
0.0
  0
LINE
  5
23FF
330
1F
100
AcDbEntity
  8
3C1
100
AcDbLine
 10
4054.0
 20
1603.5
 30
0.0
 11
4146.0
 21
1603.5
 31
0.0
  0
LINE
  5
2400
330
1F
100
AcDbEntity
  8
3C1
100
AcDbLine
 10
3954.0
 20
1538.499999999999
 30
0.0
 11
4046.0
 21
1538.499999999999
 31
0.0
  0
LINE
  5
2401
330
1F
100
AcDbEntity
  8
3C1
100
AcDbLine
 10
3954.0
 20
1532.5
 30
0.0
 11
4046.0
 21
1532.5
 31
0.0
  0
LINE
  5
2402
330
1F
100
AcDbEntity
  8
3C1
100
AcDbLine
 10
3954.000000000001
 20
1574.0
 30
0.0
 11
4046.0
 21
1574.0
 31
0.0
  0
LINE
  5
2403
330
1F
100
AcDbEntity
  8
3C1
100
AcDbLine
 10
3954.000000000001
 20
1609.5
 30
0.0
 11
4046.0
 21
1609.5
 31
0.0
  0
LINE
  5
2404
330
1F
100
AcDbEntity
  8
3C1
100
AcDbLine
 10
3954.0
 20
1568.0
 30
0.0
 11
4046.0
 21
1568.0
 31
0.0
  0
LINE
  5
2405
330
1F
100
AcDbEntity
  8
3C1
100
AcDbLine
 10
3954.000000000001
 20
1603.5
 30
0.0
 11
4046.0
 21
1603.5
 31
0.0
  0
LINE
  5
2409
330
1F
100
AcDbEntity
  8
3C1
100
AcDbLine
 10
3854.0
 20
1609.499999999999
 30
0.0
 11
3945.999999999999
 21
1609.5
 31
0.0
  0
LINE
  5
240B
330
1F
100
AcDbEntity
  8
3C1
100
AcDbLine
 10
3854.0
 20
1603.499999999999
 30
0.0
 11
3945.999999999999
 21
1603.5
 31
0.0
  0
LINE
  5
240C
330
1F
100
AcDbEntity
  8
3C1
100
AcDbLine
 10
3746.0
 20
1639.0
 30
0.0
 11
3754.0
 21
1609.499999999999
 31
0.0
  0
LINE
  5
240D
330
1F
100
AcDbEntity
  8
3C1
100
AcDbLine
 10
3746.0
 20
1603.5
 30
0.0
 11
3748.196610169491
 21
1595.4
 31
0.0
  0
LINE
  5
2414
330
1F
100
AcDbEntity
  8
3C1
100
AcDbLine
 10
3746.0
 20
1390.5
 30
0.0
 11
3754.0
 21
1361.0
 31
0.0
  0
LINE
  5
243B
330
1F
100
AcDbEntity
  8
3C1
100
AcDbLine
 10
3845.999999999999
 20
1390.5
 30
0.0
 11
3853.999999999999
 21
1361.0
 31
0.0
  0
LINE
  5
2442
330
1F
100
AcDbEntity
  8
3C1
100
AcDbLine
 10
3845.999999999999
 20
1603.5
 30
0.0
 11
3848.19661016949
 21
1595.4
 31
0.0
  0
LINE
  5
2443
330
1F
100
AcDbEntity
  8
3C1
100
AcDbLine
 10
3845.999999999999
 20
1639.0
 30
0.0
 11
3853.999999999999
 21
1609.499999999999
 31
0.0
  0
LINE
  5
2446
330
1F
100
AcDbEntity
  8
3C1
100
AcDbLine
 10
3945.999999999999
 20
1390.5
 30
0.0
 11
3954.0
 21
1361.0
 31
0.0
  0
LINE
  5
2447
330
1F
100
AcDbEntity
  8
3C1
100
AcDbLine
 10
3945.999999999999
 20
1426.0
 30
0.0
 11
3954.0
 21
1396.5
 31
0.0
  0
LINE
  5
2448
330
1F
100
AcDbEntity
  8
3C1
100
AcDbLine
 10
3945.999999999999
 20
1461.5
 30
0.0
 11
3954.0
 21
1432.0
 31
0.0
  0
LINE
  5
2449
330
1F
100
AcDbEntity
  8
3C1
100
AcDbLine
 10
3945.999999999999
 20
1497.0
 30
0.0
 11
3954.0
 21
1467.5
 31
0.0
  0
LINE
  5
244A
330
1F
100
AcDbEntity
  8
3C1
100
AcDbLine
 10
3945.999999999999
 20
1532.5
 30
0.0
 11
3954.0
 21
1503.0
 31
0.0
  0
LINE
  5
244B
330
1F
100
AcDbEntity
  8
3C1
100
AcDbLine
 10
3945.999999999999
 20
1568.0
 30
0.0
 11
3954.0
 21
1538.5
 31
0.0
  0
LINE
  5
244C
330
1F
100
AcDbEntity
  8
3C1
100
AcDbLine
 10
3945.999999999999
 20
1603.5
 30
0.0
 11
3954.0
 21
1574.0
 31
0.0
  0
LINE
  5
244D
330
1F
100
AcDbEntity
  8
3C1
100
AcDbLine
 10
3945.999999999999
 20
1639.0
 30
0.0
 11
3954.0
 21
1609.5
 31
0.0
  0
LINE
  5
244E
330
1F
100
AcDbEntity
  8
3C1
100
AcDbLine
 10
4046.0
 20
1390.5
 30
0.0
 11
4054.0
 21
1361.0
 31
0.0
  0
LINE
  5
2451
330
1F
100
AcDbEntity
  8
3C1
100
AcDbLine
 10
4046.0
 20
1426.0
 30
0.0
 11
4054.0
 21
1396.5
 31
0.0
  0
LINE
  5
2452
330
1F
100
AcDbEntity
  8
3C1
100
AcDbLine
 10
4046.0
 20
1461.5
 30
0.0
 11
4054.0
 21
1432.0
 31
0.0
  0
LINE
  5
2453
330
1F
100
AcDbEntity
  8
3C1
100
AcDbLine
 10
4046.0
 20
1497.0
 30
0.0
 11
4054.0
 21
1467.5
 31
0.0
  0
LINE
  5
2454
330
1F
100
AcDbEntity
  8
3C1
100
AcDbLine
 10
4046.0
 20
1532.5
 30
0.0
 11
4054.0
 21
1503.0
 31
0.0
  0
LINE
  5
2455
330
1F
100
AcDbEntity
  8
3C1
100
AcDbLine
 10
4046.0
 20
1568.0
 30
0.0
 11
4054.0
 21
1538.5
 31
0.0
  0
LINE
  5
2456
330
1F
100
AcDbEntity
  8
3C1
100
AcDbLine
 10
4046.0
 20
1603.5
 30
0.0
 11
4054.0
 21
1574.0
 31
0.0
  0
LINE
  5
2457
330
1F
100
AcDbEntity
  8
3C1
100
AcDbLine
 10
4046.0
 20
1639.0
 30
0.0
 11
4054.0
 21
1609.5
 31
0.0
  0
LINE
  5
2458
330
1F
100
AcDbEntity
  8
2C1
100
AcDbLine
 10
3874.450000000003
 20
1595.4
 30
0.0
 11
3549.999999999998
 21
1409.999999999998
 31
0.0
  0
LINE
  5
2459
330
1F
100
AcDbEntity
  8
2C1
100
AcDbLine
 10
3815.549999999996
 20
1595.399999999999
 30
0.0
 11
3900.0
 21
1547.142857142855
 31
0.0
  0
LINE
  5
245A
330
1F
100
AcDbEntity
  8
2C1
100
AcDbLine
 10
3870.549999999996
 20
1595.399999999999
 30
0.0
 11
3900.0
 21
1578.571428571427
 31
0.0
  0
LINE
  5
245B
330
1F
100
AcDbEntity
  8
2C1
100
AcDbLine
 10
3819.450000000002
 20
1595.4
 30
0.0
 11
3550.0
 21
1441.428571428571
 31
0.0
  0
LINE
  5
245C
330
1F
100
AcDbEntity
  8
2C1
100
AcDbLine
 10
3705.549999999997
 20
1595.4
 30
0.0
 11
3900.0
 21
1484.285714285713
 31
0.0
  0
LINE
  5
245D
330
1F
100
AcDbEntity
  8
2C1
100
AcDbLine
 10
3760.549999999996
 20
1595.4
 30
0.0
 11
3900.0
 21
1515.714285714285
 31
0.0
  0
LINE
  5
245E
330
1F
100
AcDbEntity
  8
2C1
100
AcDbLine
 10
3709.449999999999
 20
1595.4
 30
0.0
 11
3550.0
 21
1504.285714285715
 31
0.0
  0
LINE
  5
245F
330
1F
100
AcDbEntity
  8
2C1
100
AcDbLine
 10
3764.449999999998
 20
1595.4
 30
0.0
 11
3550.0
 21
1472.857142857144
 31
0.0
  0
LINE
  5
2460
330
1F
100
AcDbEntity
  8
2C1
100
AcDbLine
 10
3650.549999999997
 20
1595.4
 30
0.0
 11
3900.0
 21
1452.857142857142
 31
0.0
  0
LINE
  5
2461
330
1F
100
AcDbEntity
  8
2C1
100
AcDbLine
 10
3595.549999999999
 20
1595.4
 30
0.0
 11
3900.0
 21
1421.428571428571
 31
0.0
  0
LINE
  5
2462
330
1F
100
AcDbEntity
  8
2C1
100
AcDbLine
 10
3599.450000000001
 20
1595.4
 30
0.0
 11
3550.0
 21
1567.142857142857
 31
0.0
  0
LINE
  5
2463
330
1F
100
AcDbEntity
  8
2C1
100
AcDbLine
 10
3654.45
 20
1595.4
 30
0.0
 11
3550.0
 21
1535.714285714286
 31
0.0
  0
LINE
  5
2464
330
1F
100
AcDbEntity
  8
2C1
100
AcDbLine
 10
3900.0
 20
1578.571428571427
 30
0.0
 11
3595.55
 21
1404.6
 31
0.0
  0
LINE
  5
2465
330
1F
100
AcDbEntity
  8
2C1
100
AcDbLine
 10
3900.0
 20
1547.142857142857
 30
0.0
 11
3650.549999999998
 21
1404.6
 31
0.0
  0
LINE
  5
2466
330
1F
100
AcDbEntity
  8
2C1
100
AcDbLine
 10
3900.0
 20
1515.714285714286
 30
0.0
 11
3705.549999999998
 21
1404.6
 31
0.0
  0
LINE
  5
2467
330
1F
100
AcDbEntity
  8
2C1
100
AcDbLine
 10
3900.0
 20
1484.285714285713
 30
0.0
 11
3760.550000000002
 21
1404.6
 31
0.0
  0
LINE
  5
2468
330
1F
100
AcDbEntity
  8
2C1
100
AcDbLine
 10
3900.0
 20
1452.857142857141
 30
0.0
 11
3815.550000000001
 21
1404.6
 31
0.0
  0
LINE
  5
2469
330
1F
100
AcDbEntity
  8
2C1
100
AcDbLine
 10
3900.0
 20
1421.428571428571
 30
0.0
 11
3870.55
 21
1404.6
 31
0.0
  0
LINE
  5
246A
330
1F
100
AcDbEntity
  8
2C1
100
AcDbLine
 10
3550.0
 20
1589.999999999999
 30
0.0
 11
3874.450000000001
 21
1404.6
 31
0.0
  0
LINE
  5
246B
330
1F
100
AcDbEntity
  8
2C1
100
AcDbLine
 10
3550.0
 20
1558.571428571428
 30
0.0
 11
3819.450000000003
 21
1404.6
 31
0.0
  0
LINE
  5
246C
330
1F
100
AcDbEntity
  8
2C1
100
AcDbLine
 10
3550.0
 20
1527.142857142856
 30
0.0
 11
3764.45
 21
1404.6
 31
0.0
  0
LINE
  5
246D
330
1F
100
AcDbEntity
  8
2C1
100
AcDbLine
 10
3550.0
 20
1495.714285714287
 30
0.0
 11
3709.450000000002
 21
1404.6
 31
0.0
  0
LINE
  5
246E
330
1F
100
AcDbEntity
  8
2C1
100
AcDbLine
 10
3550.0
 20
1464.285714285716
 30
0.0
 11
3654.450000000002
 21
1404.6
 31
0.0
  0
LINE
  5
246F
330
1F
100
AcDbEntity
  8
2C1
100
AcDbLine
 10
3550.0
 20
1432.857142857145
 30
0.0
 11
3599.450000000004
 21
1404.6
 31
0.0
  0
LINE
  5
2470
330
1F
100
AcDbEntity
  8
3C1
100
AcDbLine
 10
3550.0
 20
1404.6
 30
0.0
 11
3900.0
 21
1404.6
 31
0.0
  0
LINE
  5
2471
330
1F
100
AcDbEntity
  8
3C1
100
AcDbLine
 10
3550.0
 20
1595.4
 30
0.0
 11
3900.0
 21
1595.4
 31
0.0
  0
LINE
  5
2473
330
1F
100
AcDbEntity
  8
3C1
100
AcDbLine
 10
3900.0
 20
1800.0
 30
0.0
 11
3900.0
 21
1200.0
 31
0.0
  0
LINE
  5
24AC
330
1F
100
AcDbEntity
  8
3C1
100
AcDbLine
 10
1907.648463541666
 20
3209.0
 30
0.0
 11
1923.211317627838
 21
3375.512565313178
 31
0.0
  0
LINE
  5
24AD
330
1F
100
AcDbEntity
  8
3C1
100
AcDbLine
 10
1904.554999999999
 20
3209.0
 30
0.0
 11
1919.980596355893
 21
3375.763203847503
 31
0.0
  0
LINE
  5
2512
330
1F
100
AcDbEntity
  8
3C1
100
AcDbLine
 10
3550.0
 20
1577.5
 30
0.0
 11
3900.0
 21
1577.5
 31
0.0
  0
LINE
  5
2513
330
1F
100
AcDbEntity
  8
3C1
100
AcDbLine
 10
3550.0
 20
1422.5
 30
0.0
 11
3900.0
 21
1422.5
 31
0.0
  0
LINE
  5
2514
330
1F
100
AcDbEntity
  8
2C1
100
AcDbLine
 10
3550.0
 20
1430.0
 30
0.0
 11
3900.0
 21
1430.0
 31
0.0
  0
LINE
  5
2515
330
1F
100
AcDbEntity
  8
2C1
100
AcDbLine
 10
3550.0
 20
1415.0
 30
0.0
 11
3900.0
 21
1415.0
 31
0.0
  0
LINE
  5
2516
330
1F
100
AcDbEntity
  8
2C1
100
AcDbLine
 10
3550.0
 20
1585.0
 30
0.0
 11
3900.0
 21
1585.0
 31
0.0
  0
LINE
  5
2517
330
1F
100
AcDbEntity
  8
2C1
100
AcDbLine
 10
3550.0
 20
1570.0
 30
0.0
 11
3900.0
 21
1570.0
 31
0.0
  0
LINE
  5
251A
330
1F
100
AcDbEntity
  8
3C1
100
AcDbLine
 10
3900.0
 20
1568.0
 30
0.0
 11
3945.999999999999
 21
1568.0
 31
0.0
  0
LINE
  5
251B
330
1F
100
AcDbEntity
  8
3C1
100
AcDbLine
 10
3900.0
 20
1574.0
 30
0.0
 11
3945.999999999999
 21
1574.0
 31
0.0
  0
LINE
  5
251C
330
1F
100
AcDbEntity
  8
3C1
100
AcDbLine
 10
3900.0
 20
1532.5
 30
0.0
 11
3945.999999999999
 21
1532.5
 31
0.0
  0
LINE
  5
251D
330
1F
100
AcDbEntity
  8
3C1
100
AcDbLine
 10
3900.0
 20
1538.499999999999
 30
0.0
 11
3945.999999999999
 21
1538.499999999999
 31
0.0
  0
LINE
  5
251E
330
1F
100
AcDbEntity
  8
3C1
100
AcDbLine
 10
3900.0
 20
1467.499999999999
 30
0.0
 11
3945.999999999999
 21
1467.5
 31
0.0
  0
LINE
  5
251F
330
1F
100
AcDbEntity
  8
3C1
100
AcDbLine
 10
3900.0
 20
1461.5
 30
0.0
 11
3945.999999999999
 21
1461.5
 31
0.0
  0
LINE
  5
2520
330
1F
100
AcDbEntity
  8
3C1
100
AcDbLine
 10
3900.0
 20
1497.0
 30
0.0
 11
3945.999999999999
 21
1497.0
 31
0.0
  0
LINE
  5
2521
330
1F
100
AcDbEntity
  8
3C1
100
AcDbLine
 10
3900.0
 20
1503.0
 30
0.0
 11
3945.999999999999
 21
1503.0
 31
0.0
  0
LINE
  5
2522
330
1F
100
AcDbEntity
  8
3C1
100
AcDbLine
 10
3900.0
 20
1431.999999999999
 30
0.0
 11
3946.0
 21
1432.0
 31
0.0
  0
LINE
  5
2523
330
1F
100
AcDbEntity
  8
3C1
100
AcDbLine
 10
3900.0
 20
1425.999999999999
 30
0.0
 11
3946.0
 21
1426.0
 31
0.0
  0
LINE
  5
252A
330
1F
100
AcDbEntity
  8
3C1
100
AcDbLine
 10
3746.0
 20
1404.599999999999
 30
0.0
 11
3746.0
 21
1361.0
 31
0.0
  0
LINE
  5
252B
330
1F
100
AcDbEntity
  8
3C1
100
AcDbLine
 10
3754.0
 20
1404.6
 30
0.0
 11
3754.0
 21
1361.0
 31
0.0
  0
LINE
  5
252C
330
1F
100
AcDbEntity
  8
3C1
100
AcDbLine
 10
3751.803389830509
 20
1404.599999999999
 30
0.0
 11
3754.0
 21
1396.5
 31
0.0
  0
LINE
  5
252D
330
1F
100
AcDbEntity
  8
3C1
100
AcDbLine
 10
3854.000000000001
 20
1404.6
 30
0.0
 11
3854.0
 21
1360.999999999999
 31
0.0
  0
LINE
  5
252E
330
1F
100
AcDbEntity
  8
3C1
100
AcDbLine
 10
3846.0
 20
1404.6
 30
0.0
 11
3846.0
 21
1360.999999999999
 31
0.0
  0
LINE
  5
252F
330
1F
100
AcDbEntity
  8
3C1
100
AcDbLine
 10
3851.803389830507
 20
1404.599999999999
 30
0.0
 11
3853.999999999999
 21
1396.5
 31
0.0
  0
LINE
  5
2534
330
1F
100
AcDbEntity
  8
3C1
100
AcDbLine
 10
3645.0
 20
1404.6
 30
0.0
 11
3645.0
 21
1346.0
 31
0.0
  0
LINE
  5
2535
330
1F
100
AcDbEntity
  8
3C1
100
AcDbLine
 10
3639.000000000001
 20
1404.6
 30
0.0
 11
3639.0
 21
1340.0
 31
0.0
  0
LINE
  5
2536
330
1F
100
AcDbEntity
  8
3C1
100
AcDbLine
 10
3650.0
 20
1404.6
 30
0.0
 11
3650.0
 21
1355.0
 31
0.0
  0
LINE
  5
2537
330
1F
100
AcDbEntity
  8
3C1
100
AcDbLine
 10
3653.999999999999
 20
1404.599999999999
 30
0.0
 11
3654.0
 21
1355.0
 31
0.0
  0
LINE
  5
2539
330
1F
100
AcDbEntity
  8
3C1
100
AcDbLine
 10
3699.999999999999
 20
1404.599999999999
 30
0.0
 11
3699.999999999999
 21
1361.0
 31
0.0
  0
LINE
  5
253A
330
1F
100
AcDbEntity
  8
3C1
  6
HIDDEN2
100
AcDbLine
 10
3639.0
 20
1595.4
 30
0.0
 11
3639.000000000001
 21
1404.6
 31
0.0
  0
LINE
  5
253B
330
1F
100
AcDbEntity
  8
3C1
  6
HIDDEN2
100
AcDbLine
 10
3699.999999999999
 20
1595.4
 30
0.0
 11
3699.999999999999
 21
1404.599999999999
 31
0.0
  0
LINE
  5
253C
330
1F
100
AcDbEntity
  8
3C1
  6
HIDDEN2
100
AcDbLine
 10
3645.0
 20
1595.4
 30
0.0
 11
3645.0
 21
1404.6
 31
0.0
  0
LINE
  5
2887
330
1F
100
AcDbEntity
  8
SUNPO
 62
   144
100
AcDbLine
 10
3550.0
 20
1225.0
 30
0.0
 11
3550.0
 21
990.0
 31
0.0
  0
LINE
  5
2888
330
1F
100
AcDbEntity
  8
SUNPO
 62
   144
100
AcDbLine
 10
4250.0
 20
1225.0
 30
0.0
 11
4250.0
 21
990.0
 31
0.0
  0
LINE
  5
2889
330
1F
100
AcDbEntity
  8
SUNPO
 62
   144
100
AcDbLine
 10
3578.0
 20
1000.0
 30
0.0
 11
4222.0
 21
1000.0
 31
0.0
  0
SOLID
  5
288A
330
1F
100
AcDbEntity
  8
SUNPO
 62
   144
100
AcDbTrace
 10
3578.0
 20
1004.666666666666
 30
0.0
 11
3578.0
 21
995.3333333333333
 31
0.0
 12
3550.0
 22
1000.0
 32
0.0
 13
3550.0
 23
1000.0
 33
0.0
  0
SOLID
  5
288B
330
1F
100
AcDbEntity
  8
SUNPO
 62
   144
100
AcDbTrace
 10
4222.0
 20
1004.666666666666
 30
0.0
 11
4222.0
 21
995.3333333333333
 31
0.0
 12
4250.0
 22
1000.0
 32
0.0
 13
4250.0
 23
1000.0
 33
0.0
  0
LINE
  5
288D
330
1F
100
AcDbEntity
  8
SUNPO
 62
   144
100
AcDbLine
 10
4270.0
 20
2409.0
 30
0.0
 11
4510.0
 21
2409.0
 31
0.0
  0
LINE
  5
288E
330
1F
100
AcDbEntity
  8
SUNPO
 62
   144
100
AcDbLine
 10
4270.0
 20
3208.999999999999
 30
0.0
 11
4510.0
 21
3208.999999999999
 31
0.0
  0
LINE
  5
288F
330
1F
100
AcDbEntity
  8
SUNPO
 62
   144
100
AcDbLine
 10
4500.0
 20
2437.0
 30
0.0
 11
4500.0
 21
3180.999999999999
 31
0.0
  0
SOLID
  5
2890
330
1F
100
AcDbEntity
  8
SUNPO
 62
   144
100
AcDbTrace
 10
4495.333333333333
 20
2437.0
 30
0.0
 11
4504.666666666667
 21
2437.0
 31
0.0
 12
4500.0
 22
2409.0
 32
0.0
 13
4500.0
 23
2409.0
 33
0.0
  0
SOLID
  5
2891
330
1F
100
AcDbEntity
  8
SUNPO
 62
   144
100
AcDbTrace
 10
4495.333333333333
 20
3180.999999999999
 30
0.0
 11
4504.666666666667
 21
3180.999999999999
 31
0.0
 12
4500.0
 22
3208.999999999999
 32
0.0
 13
4500.0
 23
3208.999999999999
 33
0.0
  0
LINE
  5
2893
330
1F
100
AcDbEntity
  8
SUNPO
 62
   144
100
AcDbLine
 10
4270.0
 20
2559.0
 30
0.0
 11
4410.0
 21
2559.0
 31
0.0
  0
LINE
  5
2894
330
1F
100
AcDbEntity
  8
SUNPO
 62
   144
100
AcDbLine
 10
4270.0
 20
2409.0
 30
0.0
 11
4410.0
 21
2409.0
 31
0.0
  0
LINE
  5
2895
330
1F
100
AcDbEntity
  8
SUNPO
 62
   144
100
AcDbLine
 10
4400.0
 20
2531.0
 30
0.0
 11
4400.0
 21
2437.0
 31
0.0
  0
SOLID
  5
2896
330
1F
100
AcDbEntity
  8
SUNPO
 62
   144
100
AcDbTrace
 10
4395.333333333333
 20
2531.0
 30
0.0
 11
4404.666666666667
 21
2531.0
 31
0.0
 12
4400.0
 22
2559.0
 32
0.0
 13
4400.0
 23
2559.0
 33
0.0
  0
SOLID
  5
2897
330
1F
100
AcDbEntity
  8
SUNPO
 62
   144
100
AcDbTrace
 10
4395.333333333333
 20
2437.0
 30
0.0
 11
4404.666666666667
 21
2437.0
 31
0.0
 12
4400.0
 22
2409.0
 32
0.0
 13
4400.0
 23
2409.0
 33
0.0
  0
LINE
  5
2899
330
1F
100
AcDbEntity
  8
SUNPO
 62
   144
100
AcDbLine
 10
4270.0
 20
2709.0
 30
0.0
 11
4410.0
 21
2709.0
 31
0.0
  0
LINE
  5
289A
330
1F
100
AcDbEntity
  8
SUNPO
 62
   144
100
AcDbLine
 10
4270.0
 20
2559.0
 30
0.0
 11
4410.0
 21
2559.0
 31
0.0
  0
LINE
  5
289B
330
1F
100
AcDbEntity
  8
SUNPO
 62
   144
100
AcDbLine
 10
4400.0
 20
2681.0
 30
0.0
 11
4400.0
 21
2587.0
 31
0.0
  0
SOLID
  5
289C
330
1F
100
AcDbEntity
  8
SUNPO
 62
   144
100
AcDbTrace
 10
4395.333333333333
 20
2681.0
 30
0.0
 11
4404.666666666667
 21
2681.0
 31
0.0
 12
4400.0
 22
2709.0
 32
0.0
 13
4400.0
 23
2709.0
 33
0.0
  0
SOLID
  5
289D
330
1F
100
AcDbEntity
  8
SUNPO
 62
   144
100
AcDbTrace
 10
4395.333333333333
 20
2587.0
 30
0.0
 11
4404.666666666667
 21
2587.0
 31
0.0
 12
4400.0
 22
2559.0
 32
0.0
 13
4400.0
 23
2559.0
 33
0.0
  0
LINE
  5
289F
330
1F
100
AcDbEntity
  8
SUNPO
 62
   144
100
AcDbLine
 10
4270.0
 20
3109.0
 30
0.0
 11
4410.0
 21
3109.0
 31
0.0
  0
LINE
  5
28A0
330
1F
100
AcDbEntity
  8
SUNPO
 62
   144
100
AcDbLine
 10
4270.0
 20
2709.0
 30
0.0
 11
4410.0
 21
2709.0
 31
0.0
  0
LINE
  5
28A1
330
1F
100
AcDbEntity
  8
SUNPO
 62
   144
100
AcDbLine
 10
4400.0
 20
3081.0
 30
0.0
 11
4400.0
 21
2737.0
 31
0.0
  0
SOLID
  5
28A2
330
1F
100
AcDbEntity
  8
SUNPO
 62
   144
100
AcDbTrace
 10
4395.333333333333
 20
3081.0
 30
0.0
 11
4404.666666666667
 21
3081.0
 31
0.0
 12
4400.0
 22
3109.0
 32
0.0
 13
4400.0
 23
3109.0
 33
0.0
  0
SOLID
  5
28A3
330
1F
100
AcDbEntity
  8
SUNPO
 62
   144
100
AcDbTrace
 10
4395.333333333333
 20
2737.0
 30
0.0
 11
4404.666666666667
 21
2737.0
 31
0.0
 12
4400.0
 22
2709.0
 32
0.0
 13
4400.0
 23
2709.0
 33
0.0
  0
LINE
  5
28A5
330
1F
100
AcDbEntity
  8
SUNPO
 62
   144
100
AcDbLine
 10
4270.0
 20
3208.999999999999
 30
0.0
 11
4410.0
 21
3208.999999999999
 31
0.0
  0
LINE
  5
28A6
330
1F
100
AcDbEntity
  8
SUNPO
 62
   144
100
AcDbLine
 10
4270.0
 20
3109.0
 30
0.0
 11
4410.0
 21
3109.0
 31
0.0
  0
LINE
  5
28A7
330
1F
100
AcDbEntity
  8
SUNPO
 62
   144
100
AcDbLine
 10
4400.0
 20
3237.0
 30
0.0
 11
4400.0
 21
3265.0
 31
0.0
  0
LINE
  5
28A8
330
1F
100
AcDbEntity
  8
SUNPO
 62
   144
100
AcDbLine
 10
4400.0
 20
3081.0
 30
0.0
 11
4400.0
 21
3053.0
 31
0.0
  0
LINE
  5
28A9
330
1F
100
AcDbEntity
  8
SUNPO
 62
   144
100
AcDbLine
 10
4400.0
 20
3208.999999999999
 30
0.0
 11
4400.0
 21
3109.0
 31
0.0
  0
SOLID
  5
28AA
330
1F
100
AcDbEntity
  8
SUNPO
 62
   144
100
AcDbTrace
 10
4395.333333333333
 20
3237.0
 30
0.0
 11
4404.666666666667
 21
3237.0
 31
0.0
 12
4400.0
 22
3208.999999999999
 32
0.0
 13
4400.0
 23
3208.999999999999
 33
0.0
  0
SOLID
  5
28AB
330
1F
100
AcDbEntity
  8
SUNPO
 62
   144
100
AcDbTrace
 10
4395.333333333333
 20
3081.0
 30
0.0
 11
4404.666666666667
 21
3081.0
 31
0.0
 12
4400.0
 22
3109.0
 32
0.0
 13
4400.0
 23
3109.0
 33
0.0
  0
LINE
  5
28AD
330
1F
100
AcDbEntity
  8
SUNPO
 62
   144
100
AcDbLine
 10
1745.0
 20
3229.0
 30
0.0
 11
1745.0
 21
3510.0
 31
0.0
  0
LINE
  5
28AE
330
1F
100
AcDbEntity
  8
SUNPO
 62
   144
100
AcDbLine
 10
2255.0
 20
3229.0
 30
0.0
 11
2255.0
 21
3510.0
 31
0.0
  0
LINE
  5
28AF
330
1F
100
AcDbEntity
  8
SUNPO
 62
   144
100
AcDbLine
 10
1773.0
 20
3500.0
 30
0.0
 11
2227.0
 21
3500.0
 31
0.0
  0
SOLID
  5
28B0
330
1F
100
AcDbEntity
  8
SUNPO
 62
   144
100
AcDbTrace
 10
1773.0
 20
3504.666666666667
 30
0.0
 11
1773.0
 21
3495.333333333333
 31
0.0
 12
1745.0
 22
3500.0
 32
0.0
 13
1745.0
 23
3500.0
 33
0.0
  0
SOLID
  5
28B1
330
1F
100
AcDbEntity
  8
SUNPO
 62
   144
100
AcDbTrace
 10
2227.0
 20
3504.666666666667
 30
0.0
 11
2227.0
 21
3495.333333333333
 31
0.0
 12
2255.0
 22
3500.0
 32
0.0
 13
2255.0
 23
3500.0
 33
0.0
  0
LINE
  5
28B3
330
1F
100
AcDbEntity
  8
3C1
100
AcDbLine
 10
3612.0
 20
1500.0
 30
0.0
 11
3606.0
 21
1510.392304845413
 31
0.0
  0
LINE
  5
28B4
330
1F
100
AcDbEntity
  8
3C1
100
AcDbLine
 10
3606.0
 20
1510.392304845413
 30
0.0
 11
3594.0
 21
1510.392304845413
 31
0.0
  0
LINE
  5
28B5
330
1F
100
AcDbEntity
  8
3C1
100
AcDbLine
 10
3594.0
 20
1510.392304845413
 30
0.0
 11
3588.0
 21
1500.0
 31
0.0
  0
LINE
  5
28B6
330
1F
100
AcDbEntity
  8
3C1
100
AcDbLine
 10
3588.0
 20
1500.0
 30
0.0
 11
3594.0
 21
1489.607695154586
 31
0.0
  0
LINE
  5
28B7
330
1F
100
AcDbEntity
  8
3C1
100
AcDbLine
 10
3594.0
 20
1489.607695154586
 30
0.0
 11
3606.0
 21
1489.607695154586
 31
0.0
  0
LINE
  5
28B8
330
1F
100
AcDbEntity
  8
3C1
100
AcDbLine
 10
3606.0
 20
1489.607695154586
 30
0.0
 11
3612.0
 21
1500.0
 31
0.0
  0
LINE
  5
28B9
330
1F
100
AcDbEntity
  8
SUNPO
 62
   144
100
AcDbLine
 10
3530.0
 20
1755.0
 30
0.0
 11
3340.0
 21
1755.0
 31
0.0
  0
LINE
  5
28BA
330
1F
100
AcDbEntity
  8
SUNPO
 62
   144
100
AcDbLine
 10
3530.0
 20
1245.0
 30
0.0
 11
3340.0
 21
1245.0
 31
0.0
  0
LINE
  5
28BB
330
1F
100
AcDbEntity
  8
SUNPO
 62
   144
100
AcDbLine
 10
3350.0
 20
1727.0
 30
0.0
 11
3350.0
 21
1273.0
 31
0.0
  0
SOLID
  5
28BC
330
1F
100
AcDbEntity
  8
SUNPO
 62
   144
100
AcDbTrace
 10
3345.333333333333
 20
1727.0
 30
0.0
 11
3354.666666666666
 21
1727.0
 31
0.0
 12
3350.0
 22
1755.0
 32
0.0
 13
3350.0
 23
1755.0
 33
0.0
  0
SOLID
  5
28BD
330
1F
100
AcDbEntity
  8
SUNPO
 62
   144
100
AcDbTrace
 10
3345.333333333333
 20
1273.0
 30
0.0
 11
3354.666666666666
 21
1273.0
 31
0.0
 12
3350.0
 22
1245.0
 32
0.0
 13
3350.0
 23
1245.0
 33
0.0
  0
LINE
  5
28BF
330
1F
100
AcDbEntity
  8
SUNPO
 62
   144
100
AcDbLine
 10
3530.0
 20
1350.0
 30
0.0
 11
3440.0
 21
1350.0
 31
0.0
  0
LINE
  5
28C0
330
1F
100
AcDbEntity
  8
SUNPO
 62
   144
100
AcDbLine
 10
3530.0
 20
1245.0
 30
0.0
 11
3440.0
 21
1245.0
 31
0.0
  0
LINE
  5
28C1
330
1F
100
AcDbEntity
  8
SUNPO
 62
   144
100
AcDbLine
 10
3450.0
 20
1378.0
 30
0.0
 11
3450.0
 21
1406.0
 31
0.0
  0
LINE
  5
28C2
330
1F
100
AcDbEntity
  8
SUNPO
 62
   144
100
AcDbLine
 10
3450.0
 20
1217.0
 30
0.0
 11
3450.0
 21
1189.0
 31
0.0
  0
LINE
  5
28C3
330
1F
100
AcDbEntity
  8
SUNPO
 62
   144
100
AcDbLine
 10
3450.0
 20
1350.0
 30
0.0
 11
3450.0
 21
1245.0
 31
0.0
  0
SOLID
  5
28C4
330
1F
100
AcDbEntity
  8
SUNPO
 62
   144
100
AcDbTrace
 10
3445.333333333333
 20
1378.0
 30
0.0
 11
3454.666666666666
 21
1378.0
 31
0.0
 12
3450.0
 22
1350.0
 32
0.0
 13
3450.0
 23
1350.0
 33
0.0
  0
SOLID
  5
28C5
330
1F
100
AcDbEntity
  8
SUNPO
 62
   144
100
AcDbTrace
 10
3445.333333333333
 20
1217.0
 30
0.0
 11
3454.666666666666
 21
1217.0
 31
0.0
 12
3450.0
 22
1245.0
 32
0.0
 13
3450.0
 23
1245.0
 33
0.0
  0
LINE
  5
28C7
330
1F
100
AcDbEntity
  8
SUNPO
 62
   144
100
AcDbLine
 10
3530.0
 20
1650.0
 30
0.0
 11
3440.0
 21
1650.0
 31
0.0
  0
LINE
  5
28C8
330
1F
100
AcDbEntity
  8
SUNPO
 62
   144
100
AcDbLine
 10
3530.0
 20
1350.0
 30
0.0
 11
3440.0
 21
1350.0
 31
0.0
  0
LINE
  5
28C9
330
1F
100
AcDbEntity
  8
SUNPO
 62
   144
100
AcDbLine
 10
3450.0
 20
1622.0
 30
0.0
 11
3450.0
 21
1378.0
 31
0.0
  0
SOLID
  5
28CA
330
1F
100
AcDbEntity
  8
SUNPO
 62
   144
100
AcDbTrace
 10
3445.333333333333
 20
1622.0
 30
0.0
 11
3454.666666666666
 21
1622.0
 31
0.0
 12
3450.0
 22
1650.0
 32
0.0
 13
3450.0
 23
1650.0
 33
0.0
  0
SOLID
  5
28CB
330
1F
100
AcDbEntity
  8
SUNPO
 62
   144
100
AcDbTrace
 10
3445.333333333333
 20
1378.0
 30
0.0
 11
3454.666666666666
 21
1378.0
 31
0.0
 12
3450.0
 22
1350.0
 32
0.0
 13
3450.0
 23
1350.0
 33
0.0
  0
LINE
  5
28CD
330
1F
100
AcDbEntity
  8
SUNPO
 62
   144
100
AcDbLine
 10
3530.0
 20
1755.0
 30
0.0
 11
3440.0
 21
1755.0
 31
0.0
  0
LINE
  5
28CE
330
1F
100
AcDbEntity
  8
SUNPO
 62
   144
100
AcDbLine
 10
3530.0
 20
1650.0
 30
0.0
 11
3440.0
 21
1650.0
 31
0.0
  0
LINE
  5
28CF
330
1F
100
AcDbEntity
  8
SUNPO
 62
   144
100
AcDbLine
 10
3450.0
 20
1783.0
 30
0.0
 11
3450.0
 21
1811.0
 31
0.0
  0
LINE
  5
28D0
330
1F
100
AcDbEntity
  8
SUNPO
 62
   144
100
AcDbLine
 10
3450.0
 20
1622.0
 30
0.0
 11
3450.0
 21
1594.0
 31
0.0
  0
LINE
  5
28D1
330
1F
100
AcDbEntity
  8
SUNPO
 62
   144
100
AcDbLine
 10
3450.0
 20
1755.0
 30
0.0
 11
3450.0
 21
1650.0
 31
0.0
  0
SOLID
  5
28D2
330
1F
100
AcDbEntity
  8
SUNPO
 62
   144
100
AcDbTrace
 10
3445.333333333333
 20
1783.0
 30
0.0
 11
3454.666666666666
 21
1783.0
 31
0.0
 12
3450.0
 22
1755.0
 32
0.0
 13
3450.0
 23
1755.0
 33
0.0
  0
SOLID
  5
28D3
330
1F
100
AcDbEntity
  8
SUNPO
 62
   144
100
AcDbTrace
 10
3445.333333333333
 20
1622.0
 30
0.0
 11
3454.666666666666
 21
1622.0
 31
0.0
 12
3450.0
 22
1650.0
 32
0.0
 13
3450.0
 23
1650.0
 33
0.0
  0
LINE
  5
28D5
330
1F
100
AcDbEntity
  8
SUNPO
 62
   144
100
AcDbLine
 10
3699.999999999999
 20
1225.0
 30
0.0
 11
3699.999999999999
 21
1090.0
 31
0.0
  0
LINE
  5
28D6
330
1F
100
AcDbEntity
  8
SUNPO
 62
   144
100
AcDbLine
 10
4100.0
 20
1225.0
 30
0.0
 11
4100.0
 21
1090.0
 31
0.0
  0
LINE
  5
28D7
330
1F
100
AcDbEntity
  8
SUNPO
 62
   144
100
AcDbLine
 10
3727.999999999999
 20
1100.0
 30
0.0
 11
4072.0
 21
1100.0
 31
0.0
  0
SOLID
  5
28D8
330
1F
100
AcDbEntity
  8
SUNPO
 62
   144
100
AcDbTrace
 10
3727.999999999999
 20
1104.666666666666
 30
0.0
 11
3727.999999999999
 21
1095.333333333333
 31
0.0
 12
3699.999999999999
 22
1100.0
 32
0.0
 13
3699.999999999999
 23
1100.0
 33
0.0
  0
SOLID
  5
28D9
330
1F
100
AcDbEntity
  8
SUNPO
 62
   144
100
AcDbTrace
 10
4072.0
 20
1104.666666666666
 30
0.0
 11
4072.0
 21
1095.333333333333
 31
0.0
 12
4100.0
 22
1100.0
 32
0.0
 13
4100.0
 23
1100.0
 33
0.0
  0
LINE
  5
28DB
330
1F
100
AcDbEntity
  8
SUNPO
 62
   144
100
AcDbLine
 10
4100.0
 20
1225.0
 30
0.0
 11
4100.0
 21
1090.0
 31
0.0
  0
LINE
  5
28DC
330
1F
100
AcDbEntity
  8
SUNPO
 62
   144
100
AcDbLine
 10
4250.0
 20
1225.0
 30
0.0
 11
4250.0
 21
1090.0
 31
0.0
  0
LINE
  5
28DD
330
1F
100
AcDbEntity
  8
SUNPO
 62
   144
100
AcDbLine
 10
4128.0
 20
1100.0
 30
0.0
 11
4222.0
 21
1100.0
 31
0.0
  0
SOLID
  5
28DE
330
1F
100
AcDbEntity
  8
SUNPO
 62
   144
100
AcDbTrace
 10
4128.0
 20
1104.666666666666
 30
0.0
 11
4128.0
 21
1095.333333333333
 31
0.0
 12
4100.0
 22
1100.0
 32
0.0
 13
4100.0
 23
1100.0
 33
0.0
  0
SOLID
  5
28DF
330
1F
100
AcDbEntity
  8
SUNPO
 62
   144
100
AcDbTrace
 10
4222.0
 20
1104.666666666666
 30
0.0
 11
4222.0
 21
1095.333333333333
 31
0.0
 12
4250.0
 22
1100.0
 32
0.0
 13
4250.0
 23
1100.0
 33
0.0
  0
LINE
  5
28E1
330
1F
100
AcDbEntity
  8
SUNPO
 62
   144
100
AcDbLine
 10
3550.0
 20
1225.0
 30
0.0
 11
3550.0
 21
1090.0
 31
0.0
  0
LINE
  5
28E2
330
1F
100
AcDbEntity
  8
SUNPO
 62
   144
100
AcDbLine
 10
3699.999999999999
 20
1225.0
 30
0.0
 11
3699.999999999999
 21
1090.0
 31
0.0
  0
LINE
  5
28E3
330
1F
100
AcDbEntity
  8
SUNPO
 62
   144
100
AcDbLine
 10
3578.0
 20
1100.0
 30
0.0
 11
3672.0
 21
1100.0
 31
0.0
  0
SOLID
  5
28E4
330
1F
100
AcDbEntity
  8
SUNPO
 62
   144
100
AcDbTrace
 10
3578.0
 20
1104.666666666666
 30
0.0
 11
3578.0
 21
1095.333333333333
 31
0.0
 12
3550.0
 22
1100.0
 32
0.0
 13
3550.0
 23
1100.0
 33
0.0
  0
SOLID
  5
28E5
330
1F
100
AcDbEntity
  8
SUNPO
 62
   144
100
AcDbTrace
 10
3672.0
 20
1104.666666666666
 30
0.0
 11
3672.0
 21
1095.333333333333
 31
0.0
 12
3699.999999999999
 22
1100.0
 32
0.0
 13
3699.999999999999
 23
1100.0
 33
0.0
  0
LINE
  5
28E7
330
1F
100
AcDbEntity
  8
SUNPO
 62
   144
100
AcDbLine
 10
2275.0
 20
3209.0
 30
0.0
 11
2510.0
 21
3209.0
 31
0.0
  0
LINE
  5
28E8
330
1F
100
AcDbEntity
  8
SUNPO
 62
   144
100
AcDbLine
 10
2275.0
 20
2409.0
 30
0.0
 11
2510.0
 21
2409.0
 31
0.0
  0
LINE
  5
28E9
330
1F
100
AcDbEntity
  8
SUNPO
 62
   144
100
AcDbLine
 10
2500.0
 20
3181.0
 30
0.0
 11
2500.0
 21
2437.0
 31
0.0
  0
SOLID
  5
28EA
330
1F
100
AcDbEntity
  8
SUNPO
 62
   144
100
AcDbTrace
 10
2495.333333333334
 20
3181.0
 30
0.0
 11
2504.666666666667
 21
3181.0
 31
0.0
 12
2500.0
 22
3209.0
 32
0.0
 13
2500.0
 23
3209.0
 33
0.0
  0
SOLID
  5
28EB
330
1F
100
AcDbEntity
  8
SUNPO
 62
   144
100
AcDbTrace
 10
2495.333333333333
 20
2437.0
 30
0.0
 11
2504.666666666667
 21
2437.0
 31
0.0
 12
2500.0
 22
2409.0
 32
0.0
 13
2500.0
 23
2409.0
 33
0.0
  0
LINE
  5
28ED
330
1F
100
AcDbEntity
  8
SUNPO
 62
   144
100
AcDbLine
 10
2275.0
 20
3209.0
 30
0.0
 11
2410.0
 21
3209.0
 31
0.0
  0
LINE
  5
28EE
330
1F
100
AcDbEntity
  8
SUNPO
 62
   144
100
AcDbLine
 10
2275.0
 20
3109.0
 30
0.0
 11
2410.0
 21
3109.0
 31
0.0
  0
LINE
  5
28EF
330
1F
100
AcDbEntity
  8
SUNPO
 62
   144
100
AcDbLine
 10
2400.0
 20
3237.0
 30
0.0
 11
2400.0
 21
3265.0
 31
0.0
  0
LINE
  5
28F0
330
1F
100
AcDbEntity
  8
SUNPO
 62
   144
100
AcDbLine
 10
2400.0
 20
3081.0
 30
0.0
 11
2400.0
 21
3053.0
 31
0.0
  0
LINE
  5
28F1
330
1F
100
AcDbEntity
  8
SUNPO
 62
   144
100
AcDbLine
 10
2400.0
 20
3209.0
 30
0.0
 11
2400.0
 21
3109.0
 31
0.0
  0
SOLID
  5
28F2
330
1F
100
AcDbEntity
  8
SUNPO
 62
   144
100
AcDbTrace
 10
2395.333333333334
 20
3237.0
 30
0.0
 11
2404.666666666667
 21
3237.0
 31
0.0
 12
2400.0
 22
3209.0
 32
0.0
 13
2400.0
 23
3209.0
 33
0.0
  0
SOLID
  5
28F3
330
1F
100
AcDbEntity
  8
SUNPO
 62
   144
100
AcDbTrace
 10
2395.333333333334
 20
3081.0
 30
0.0
 11
2404.666666666667
 21
3081.0
 31
0.0
 12
2400.0
 22
3109.0
 32
0.0
 13
2400.0
 23
3109.0
 33
0.0
  0
LINE
  5
28F5
330
1F
100
AcDbEntity
  8
SUNPO
 62
   144
100
AcDbLine
 10
2275.0
 20
3109.0
 30
0.0
 11
2410.0
 21
3109.0
 31
0.0
  0
LINE
  5
28F6
330
1F
100
AcDbEntity
  8
SUNPO
 62
   144
100
AcDbLine
 10
2275.0
 20
2709.0
 30
0.0
 11
2410.0
 21
2709.0
 31
0.0
  0
LINE
  5
28F7
330
1F
100
AcDbEntity
  8
SUNPO
 62
   144
100
AcDbLine
 10
2400.0
 20
3081.0
 30
0.0
 11
2400.0
 21
2737.0
 31
0.0
  0
SOLID
  5
28F8
330
1F
100
AcDbEntity
  8
SUNPO
 62
   144
100
AcDbTrace
 10
2395.333333333334
 20
3081.0
 30
0.0
 11
2404.666666666667
 21
3081.0
 31
0.0
 12
2400.0
 22
3109.0
 32
0.0
 13
2400.0
 23
3109.0
 33
0.0
  0
SOLID
  5
28F9
330
1F
100
AcDbEntity
  8
SUNPO
 62
   144
100
AcDbTrace
 10
2395.333333333333
 20
2737.0
 30
0.0
 11
2404.666666666666
 21
2737.0
 31
0.0
 12
2400.0
 22
2709.0
 32
0.0
 13
2400.0
 23
2709.0
 33
0.0
  0
LINE
  5
28FB
330
1F
100
AcDbEntity
  8
SUNPO
 62
   144
100
AcDbLine
 10
2275.0
 20
2709.0
 30
0.0
 11
2410.0
 21
2709.0
 31
0.0
  0
LINE
  5
28FC
330
1F
100
AcDbEntity
  8
SUNPO
 62
   144
100
AcDbLine
 10
2275.0
 20
2559.0
 30
0.0
 11
2410.0
 21
2559.0
 31
0.0
  0
LINE
  5
28FD
330
1F
100
AcDbEntity
  8
SUNPO
 62
   144
100
AcDbLine
 10
2400.0
 20
2681.0
 30
0.0
 11
2400.0
 21
2587.0
 31
0.0
  0
SOLID
  5
28FE
330
1F
100
AcDbEntity
  8
SUNPO
 62
   144
100
AcDbTrace
 10
2395.333333333333
 20
2681.0
 30
0.0
 11
2404.666666666666
 21
2681.0
 31
0.0
 12
2400.0
 22
2709.0
 32
0.0
 13
2400.0
 23
2709.0
 33
0.0
  0
SOLID
  5
28FF
330
1F
100
AcDbEntity
  8
SUNPO
 62
   144
100
AcDbTrace
 10
2395.333333333333
 20
2587.0
 30
0.0
 11
2404.666666666666
 21
2587.0
 31
0.0
 12
2400.0
 22
2559.0
 32
0.0
 13
2400.0
 23
2559.0
 33
0.0
  0
LINE
  5
2901
330
1F
100
AcDbEntity
  8
SUNPO
 62
   144
100
AcDbLine
 10
2275.0
 20
2409.0
 30
0.0
 11
2410.0
 21
2409.0
 31
0.0
  0
LINE
  5
2902
330
1F
100
AcDbEntity
  8
SUNPO
 62
   144
100
AcDbLine
 10
2275.0
 20
2559.0
 30
0.0
 11
2410.0
 21
2559.0
 31
0.0
  0
LINE
  5
2903
330
1F
100
AcDbEntity
  8
SUNPO
 62
   144
100
AcDbLine
 10
2400.0
 20
2437.0
 30
0.0
 11
2400.0
 21
2531.0
 31
0.0
  0
SOLID
  5
2904
330
1F
100
AcDbEntity
  8
SUNPO
 62
   144
100
AcDbTrace
 10
2395.333333333333
 20
2437.0
 30
0.0
 11
2404.666666666666
 21
2437.0
 31
0.0
 12
2400.0
 22
2409.0
 32
0.0
 13
2400.0
 23
2409.0
 33
0.0
  0
SOLID
  5
2905
330
1F
100
AcDbEntity
  8
SUNPO
 62
   144
100
AcDbTrace
 10
2395.333333333333
 20
2531.0
 30
0.0
 11
2404.666666666666
 21
2531.0
 31
0.0
 12
2400.0
 22
2559.0
 32
0.0
 13
2400.0
 23
2559.0
 33
0.0
  0
LINE
  5
2907
330
1F
100
AcDbEntity
  8
SUNPO
 62
   144
100
AcDbLine
 10
2149.999999999999
 20
2389.0
 30
0.0
 11
2149.999999999999
 21
2240.0
 31
0.0
  0
LINE
  5
2908
330
1F
100
AcDbEntity
  8
SUNPO
 62
   144
100
AcDbLine
 10
2255.0
 20
2389.0
 30
0.0
 11
2255.0
 21
2240.0
 31
0.0
  0
LINE
  5
2909
330
1F
100
AcDbEntity
  8
SUNPO
 62
   144
100
AcDbLine
 10
2121.999999999999
 20
2250.0
 30
0.0
 11
2093.999999999999
 21
2250.0
 31
0.0
  0
LINE
  5
290A
330
1F
100
AcDbEntity
  8
SUNPO
 62
   144
100
AcDbLine
 10
2283.0
 20
2250.0
 30
0.0
 11
2311.0
 21
2250.0
 31
0.0
  0
LINE
  5
290B
330
1F
100
AcDbEntity
  8
SUNPO
 62
   144
100
AcDbLine
 10
2149.999999999999
 20
2250.0
 30
0.0
 11
2255.0
 21
2250.0
 31
0.0
  0
SOLID
  5
290C
330
1F
100
AcDbEntity
  8
SUNPO
 62
   144
100
AcDbTrace
 10
2121.999999999999
 20
2254.666666666666
 30
0.0
 11
2121.999999999999
 21
2245.333333333333
 31
0.0
 12
2149.999999999999
 22
2250.0
 32
0.0
 13
2149.999999999999
 23
2250.0
 33
0.0
  0
SOLID
  5
290D
330
1F
100
AcDbEntity
  8
SUNPO
 62
   144
100
AcDbTrace
 10
2283.0
 20
2254.666666666666
 30
0.0
 11
2283.0
 21
2245.333333333333
 31
0.0
 12
2255.0
 22
2250.0
 32
0.0
 13
2255.0
 23
2250.0
 33
0.0
  0
LINE
  5
290F
330
1F
100
AcDbEntity
  8
SUNPO
 62
   144
100
AcDbLine
 10
1849.999999999999
 20
2389.0
 30
0.0
 11
1849.999999999999
 21
2240.0
 31
0.0
  0
LINE
  5
2910
330
1F
100
AcDbEntity
  8
SUNPO
 62
   144
100
AcDbLine
 10
2149.999999999999
 20
2389.0
 30
0.0
 11
2149.999999999999
 21
2240.0
 31
0.0
  0
LINE
  5
2911
330
1F
100
AcDbEntity
  8
SUNPO
 62
   144
100
AcDbLine
 10
1877.999999999999
 20
2250.0
 30
0.0
 11
2121.999999999999
 21
2250.0
 31
0.0
  0
SOLID
  5
2912
330
1F
100
AcDbEntity
  8
SUNPO
 62
   144
100
AcDbTrace
 10
1877.999999999999
 20
2254.666666666666
 30
0.0
 11
1877.999999999999
 21
2245.333333333333
 31
0.0
 12
1849.999999999999
 22
2250.0
 32
0.0
 13
1849.999999999999
 23
2250.0
 33
0.0
  0
SOLID
  5
2913
330
1F
100
AcDbEntity
  8
SUNPO
 62
   144
100
AcDbTrace
 10
2121.999999999999
 20
2254.666666666666
 30
0.0
 11
2121.999999999999
 21
2245.333333333333
 31
0.0
 12
2149.999999999999
 22
2250.0
 32
0.0
 13
2149.999999999999
 23
2250.0
 33
0.0
  0
LINE
  5
2915
330
1F
100
AcDbEntity
  8
SUNPO
 62
   144
100
AcDbLine
 10
1745.0
 20
2389.0
 30
0.0
 11
1745.0
 21
2240.0
 31
0.0
  0
LINE
  5
2916
330
1F
100
AcDbEntity
  8
SUNPO
 62
   144
100
AcDbLine
 10
1849.999999999999
 20
2389.0
 30
0.0
 11
1849.999999999999
 21
2240.0
 31
0.0
  0
LINE
  5
2917
330
1F
100
AcDbEntity
  8
SUNPO
 62
   144
100
AcDbLine
 10
1716.999999999999
 20
2250.0
 30
0.0
 11
1688.999999999999
 21
2250.0
 31
0.0
  0
LINE
  5
2918
330
1F
100
AcDbEntity
  8
SUNPO
 62
   144
100
AcDbLine
 10
1877.999999999999
 20
2250.0
 30
0.0
 11
1905.999999999999
 21
2250.0
 31
0.0
  0
LINE
  5
2919
330
1F
100
AcDbEntity
  8
SUNPO
 62
   144
100
AcDbLine
 10
1745.0
 20
2250.0
 30
0.0
 11
1849.999999999999
 21
2250.0
 31
0.0
  0
SOLID
  5
291A
330
1F
100
AcDbEntity
  8
SUNPO
 62
   144
100
AcDbTrace
 10
1716.999999999999
 20
2254.666666666666
 30
0.0
 11
1716.999999999999
 21
2245.333333333333
 31
0.0
 12
1745.0
 22
2250.0
 32
0.0
 13
1745.0
 23
2250.0
 33
0.0
  0
SOLID
  5
291B
330
1F
100
AcDbEntity
  8
SUNPO
 62
   144
100
AcDbTrace
 10
1877.999999999999
 20
2254.666666666666
 30
0.0
 11
1877.999999999999
 21
2245.333333333333
 31
0.0
 12
1849.999999999999
 22
2250.0
 32
0.0
 13
1849.999999999999
 23
2250.0
 33
0.0
  0
LINE
  5
291D
330
1F
100
AcDbEntity
  8
SUNPO
 62
   144
100
AcDbLine
 10
4100.0
 20
2389.0
 30
0.0
 11
4100.0
 21
2240.0
 31
0.0
  0
LINE
  5
291E
330
1F
100
AcDbEntity
  8
SUNPO
 62
   144
100
AcDbLine
 10
4250.0
 20
2389.0
 30
0.0
 11
4250.0
 21
2240.0
 31
0.0
  0
LINE
  5
291F
330
1F
100
AcDbEntity
  8
SUNPO
 62
   144
100
AcDbLine
 10
4128.0
 20
2250.0
 30
0.0
 11
4222.0
 21
2250.0
 31
0.0
  0
SOLID
  5
2920
330
1F
100
AcDbEntity
  8
SUNPO
 62
   144
100
AcDbTrace
 10
4128.0
 20
2254.666666666666
 30
0.0
 11
4128.0
 21
2245.333333333333
 31
0.0
 12
4100.0
 22
2250.0
 32
0.0
 13
4100.0
 23
2250.0
 33
0.0
  0
SOLID
  5
2921
330
1F
100
AcDbEntity
  8
SUNPO
 62
   144
100
AcDbTrace
 10
4222.0
 20
2254.666666666666
 30
0.0
 11
4222.0
 21
2245.333333333333
 31
0.0
 12
4250.0
 22
2250.0
 32
0.0
 13
4250.0
 23
2250.0
 33
0.0
  0
LINE
  5
2923
330
1F
100
AcDbEntity
  8
SUNPO
 62
   144
100
AcDbLine
 10
3699.999999999999
 20
2389.0
 30
0.0
 11
3699.999999999999
 21
2240.0
 31
0.0
  0
LINE
  5
2924
330
1F
100
AcDbEntity
  8
SUNPO
 62
   144
100
AcDbLine
 10
4100.0
 20
2389.0
 30
0.0
 11
4100.0
 21
2240.0
 31
0.0
  0
LINE
  5
2925
330
1F
100
AcDbEntity
  8
SUNPO
 62
   144
100
AcDbLine
 10
3727.999999999999
 20
2250.0
 30
0.0
 11
4072.0
 21
2250.0
 31
0.0
  0
SOLID
  5
2926
330
1F
100
AcDbEntity
  8
SUNPO
 62
   144
100
AcDbTrace
 10
3727.999999999999
 20
2254.666666666666
 30
0.0
 11
3727.999999999999
 21
2245.333333333333
 31
0.0
 12
3699.999999999999
 22
2250.0
 32
0.0
 13
3699.999999999999
 23
2250.0
 33
0.0
  0
SOLID
  5
2927
330
1F
100
AcDbEntity
  8
SUNPO
 62
   144
100
AcDbTrace
 10
4072.0
 20
2254.666666666666
 30
0.0
 11
4072.0
 21
2245.333333333333
 31
0.0
 12
4100.0
 22
2250.0
 32
0.0
 13
4100.0
 23
2250.0
 33
0.0
  0
LINE
  5
2929
330
1F
100
AcDbEntity
  8
SUNPO
 62
   144
100
AcDbLine
 10
3550.0
 20
2389.0
 30
0.0
 11
3550.0
 21
2240.0
 31
0.0
  0
LINE
  5
292A
330
1F
100
AcDbEntity
  8
SUNPO
 62
   144
100
AcDbLine
 10
3699.999999999999
 20
2389.0
 30
0.0
 11
3699.999999999999
 21
2240.0
 31
0.0
  0
LINE
  5
292B
330
1F
100
AcDbEntity
  8
SUNPO
 62
   144
100
AcDbLine
 10
3578.0
 20
2250.0
 30
0.0
 11
3672.0
 21
2250.0
 31
0.0
  0
SOLID
  5
292C
330
1F
100
AcDbEntity
  8
SUNPO
 62
   144
100
AcDbTrace
 10
3578.0
 20
2254.666666666666
 30
0.0
 11
3578.0
 21
2245.333333333333
 31
0.0
 12
3550.0
 22
2250.0
 32
0.0
 13
3550.0
 23
2250.0
 33
0.0
  0
SOLID
  5
292D
330
1F
100
AcDbEntity
  8
SUNPO
 62
   144
100
AcDbTrace
 10
3672.0
 20
2254.666666666666
 30
0.0
 11
3672.0
 21
2245.333333333333
 31
0.0
 12
3699.999999999999
 22
2250.0
 32
0.0
 13
3699.999999999999
 23
2250.0
 33
0.0
  0
TEXT
  5
292F
330
1F
100
AcDbEntity
  8
SUNPO
100
AcDbText
 10
2409.761904761904
 20
370.0
 30
0.0
 40
80.0
  1
BFLM30-40
  7
ADD
100
AcDbText
1001
ACAD
1000
MTEXTBEGIN
1070
    73
1070
     1
1070
    44
1040
1.0
1070
    74
1070
     0
1000
MTEXTEND
1000
MTEXTBEGIN
1070
    73
1070
     1
1070
    44
1040
1.0
1070
    74
1070
     0
1000
MTEXTEND
1000
MTEXTBEGIN
1070
    73
1070
     1
1070
    44
1040
1.0
1070
    74
1070
     0
1000
MTEXTEND
  0
TEXT
  5
2930
330
1F
100
AcDbEntity
  8
SUNPO
100
AcDbText
 10
734.7619047619048
 20
370.0
 30
0.0
 40
80.0
  1
BFL桝
  7
ADD
100
AcDbText
1001
ACAD
1000
MTEXTBEGIN
1070
    73
1070
     1
1070
    44
1040
1.0
1070
    74
1070
     0
1000
MTEXTEND
1000
MTEXTBEGIN
1070
    73
1070
     1
1070
    44
1040
1.0
1070
    74
1070
     0
1000
MTEXTEND
1000
MTEXTBEGIN
1070
    73
1070
     1
1070
    44
1040
1.0
1070
    74
1070
     0
1000
MTEXTEND
  0
TEXT
  5
2931
330
1F
100
AcDbEntity
  8
SUNPO
100
AcDbText
 10
3246.680311730542
 20
359.2274732162223
 30
0.0
 40
70.0
  1
１／２０
  7
ADD
100
AcDbText
1001
ACAD
1000
MTEXTBEGIN
1070
    73
1070
     1
1070
    44
1040
1.0
1070
    74
1070
     0
1000
MTEXTEND
1000
MTEXTBEGIN
1070
    73
1070
     1
1070
    44
1040
1.0
1070
    74
1070
     0
1000
MTEXTEND
1000
MTEXTBEGIN
1070
    73
1070
     1
1070
    44
1040
1.0
1070
    74
1070
     0
1000
MTEXTEND
  0
TEXT
  5
2932
330
1F
100
AcDbEntity
  8
SUNPO
100
AcDbText
 10
381.8862574011546
 20
488.6918916770627
 30
0.0
 40
50.0
  1
製品名
  7
ADD
100
AcDbText
1001
ACAD
1000
MTEXTBEGIN
1070
    73
1070
     1
1070
    44
1040
1.0
1070
    74
1070
     0
1000
MTEXTEND
1000
MTEXTBEGIN
1070
    73
1070
     1
1070
    44
1040
1.0
1070
    74
1070
     0
1000
MTEXTEND
1000
MTEXTBEGIN
1070
    73
1070
     1
1070
    44
1040
1.0
1070
    74
1070
     0
1000
MTEXTEND
  0
TEXT
  5
2933
330
1F
100
AcDbEntity
  8
SUNPO
100
AcDbText
 10
2376.290169028722
 20
494.4531736811823
 30
0.0
 40
50.0
  1
型式
  7
ADD
100
AcDbText
1001
ACAD
1000
MTEXTBEGIN
1070
    73
1070
     1
1070
    44
1040
1.0
1070
    74
1070
     0
1000
MTEXTEND
1000
MTEXTBEGIN
1070
    73
1070
     1
1070
    44
1040
1.0
1070
    74
1070
     0
1000
MTEXTEND
1000
MTEXTBEGIN
1070
    73
1070
     1
1070
    44
1040
1.0
1070
    74
1070
     0
1000
MTEXTEND
  0
TEXT
  5
2934
330
1F
100
AcDbEntity
  8
SUNPO
100
AcDbText
 10
3177.510249231658
 20
488.6918916770627
 30
0.0
 40
50.0
  1
縮尺
  7
ADD
100
AcDbText
1001
ACAD
1000
MTEXTBEGIN
1070
    73
1070
     1
1070
    44
1040
1.0
1070
    74
1070
     0
1000
MTEXTEND
1000
MTEXTBEGIN
1070
    73
1070
     1
1070
    44
1040
1.0
1070
    74
1070
     0
1000
MTEXTEND
1000
MTEXTBEGIN
1070
    73
1070
     1
1070
    44
1040
1.0
1070
    74
1070
     0
1000
MTEXTEND
  0
TEXT
  5
2935
330
1F
100
AcDbEntity
  8
SUNPO
100
AcDbText
 10
3730.870883051572
 20
352.2726133092145
 30
0.0
 40
100.0
  1
千葉県コンクリート製品協同組合
  7
ADD
100
AcDbText
1001
ACAD
1000
MTEXTBEGIN
1070
    73
1070
     1
1070
    44
1040
1.0
1070
    74
1070
     0
1000
MTEXTEND
1000
MTEXTBEGIN
1070
    73
1070
     1
1070
    44
1040
1.0
1070
    74
1070
     0
1000
MTEXTEND
1000
MTEXTBEGIN
1070
    73
1070
     1
1070
    44
1040
1.0
1070
    74
1070
     0
1000
MTEXTEND
  0
LINE
  5
2936
330
1F
100
AcDbEntity
  8
3C1
100
AcDbLine
 10
360.0
 20
260.0
 30
0.0
 11
5580.0
 21
260.0
 31
0.0
  0
LINE
  5
2937
330
1F
100
AcDbEntity
  8
3C1
100
AcDbLine
 10
5580.0
 20
260.0
 30
0.0
 11
5580.0
 21
3940.0
 31
0.0
  0
LINE
  5
2938
330
1F
100
AcDbEntity
  8
3C1
100
AcDbLine
 10
5580.0
 20
3940.0
 30
0.0
 11
360.0
 21
3940.0
 31
0.0
  0
LINE
  5
2939
330
1F
100
AcDbEntity
  8
3C1
100
AcDbLine
 10
360.0
 20
3940.0
 30
0.0
 11
360.0
 21
260.0
 31
0.0
  0
LINE
  5
293A
330
1F
100
AcDbEntity
  8
HOJO
100
AcDbLine
 10
0.0
 20
0.0
 30
0.0
 11
5940.0
 21
0.0
 31
0.0
  0
LINE
  5
293B
330
1F
100
AcDbEntity
  8
HOJO
100
AcDbLine
 10
5940.0
 20
0.0
 30
0.0
 11
5940.0
 21
4200.0
 31
0.0
  0
LINE
  5
293C
330
1F
100
AcDbEntity
  8
HOJO
100
AcDbLine
 10
5940.0
 20
4200.0
 30
0.0
 11
0.0
 21
4200.0
 31
0.0
  0
LINE
  5
293D
330
1F
100
AcDbEntity
  8
HOJO
100
AcDbLine
 10
0.0
 20
4200.0
 30
0.0
 11
0.0
 21
0.0
 31
0.0
  0
TEXT
  5
293E
330
1F
100
AcDbEntity
  8
SUNPO
 62
     7
100
AcDbText
 10
3571.0
 20
2262.5
 30
0.0
 40
36.0
  1
150
  7
ADD
100
AcDbText
1001
ACAD
1000
MTEXTBEGIN
1070
    73
1070
     1
1070
    44
1040
1.0
1070
    74
1070
     0
1000
MTEXTEND
1000
MTEXTBEGIN
1070
    73
1070
     1
1070
    44
1040
1.0
1070
    74
1070
     0
1000
MTEXTEND
1000
MTEXTBEGIN
1070
    73
1070
     1
1070
    44
1040
1.0
1070
    74
1070
     0
1000
MTEXTEND
  0
TEXT
  5
293F
330
1F
100
AcDbEntity
  8
SUNPO
 62
     7
100
AcDbText
 10
3848.571428571428
 20
2262.5
 30
0.0
 40
36.0
  1
400
  7
ADD
100
AcDbText
1001
ACAD
1000
MTEXTBEGIN
1070
    73
1070
     1
1070
    44
1040
1.0
1070
    74
1070
     0
1000
MTEXTEND
1000
MTEXTBEGIN
1070
    73
1070
     1
1070
    44
1040
1.0
1070
    74
1070
     0
1000
MTEXTEND
1000
MTEXTBEGIN
1070
    73
1070
     1
1070
    44
1040
1.0
1070
    74
1070
     0
1000
MTEXTEND
  0
TEXT
  5
2940
330
1F
100
AcDbEntity
  8
SUNPO
 62
     7
100
AcDbText
 10
4121.0
 20
2262.5
 30
0.0
 40
36.0
  1
150
  7
ADD
100
AcDbText
1001
ACAD
1000
MTEXTBEGIN
1070
    73
1070
     1
1070
    44
1040
1.0
1070
    74
1070
     0
1000
MTEXTEND
1000
MTEXTBEGIN
1070
    73
1070
     1
1070
    44
1040
1.0
1070
    74
1070
     0
1000
MTEXTEND
1000
MTEXTBEGIN
1070
    73
1070
     1
1070
    44
1040
1.0
1070
    74
1070
     0
1000
MTEXTEND
  0
TEXT
  5
2941
330
1F
100
AcDbEntity
  8
SUNPO
 62
     7
100
AcDbText
 10
1743.499999999999
 20
2262.5
 30
0.0
 40
36.0
  1
105
  7
ADD
100
AcDbText
1001
ACAD
1000
MTEXTBEGIN
1070
    73
1070
     1
1070
    44
1040
1.0
1070
    74
1070
     0
1000
MTEXTEND
1000
MTEXTBEGIN
1070
    73
1070
     1
1070
    44
1040
1.0
1070
    74
1070
     0
1000
MTEXTEND
1000
MTEXTBEGIN
1070
    73
1070
     1
1070
    44
1040
1.0
1070
    74
1070
     0
1000
MTEXTEND
  0
TEXT
  5
2942
330
1F
100
AcDbEntity
  8
SUNPO
 62
     7
100
AcDbText
 10
1948.571428571428
 20
2262.5
 30
0.0
 40
36.0
  1
300
  7
ADD
100
AcDbText
1001
ACAD
1000
MTEXTBEGIN
1070
    73
1070
     1
1070
    44
1040
1.0
1070
    74
1070
     0
1000
MTEXTEND
1000
MTEXTBEGIN
1070
    73
1070
     1
1070
    44
1040
1.0
1070
    74
1070
     0
1000
MTEXTEND
1000
MTEXTBEGIN
1070
    73
1070
     1
1070
    44
1040
1.0
1070
    74
1070
     0
1000
MTEXTEND
  0
TEXT
  5
2943
330
1F
100
AcDbEntity
  8
SUNPO
 62
     7
100
AcDbText
 10
2148.499999999999
 20
2262.5
 30
0.0
 40
36.0
  1
105
  7
ADD
100
AcDbText
1001
ACAD
1000
MTEXTBEGIN
1070
    73
1070
     1
1070
    44
1040
1.0
1070
    74
1070
     0
1000
MTEXTEND
1000
MTEXTBEGIN
1070
    73
1070
     1
1070
    44
1040
1.0
1070
    74
1070
     0
1000
MTEXTEND
1000
MTEXTBEGIN
1070
    73
1070
     1
1070
    44
1040
1.0
1070
    74
1070
     0
1000
MTEXTEND
  0
TEXT
  5
2944
330
1F
100
AcDbEntity
  8
SUNPO
 62
     7
100
AcDbText
 10
2387.499999999999
 20
2430.0
 30
0.0
 40
36.0
  1
150
 50
90.0
  7
ADD
100
AcDbText
1001
ACAD
1000
MTEXTBEGIN
1070
    73
1070
     1
1070
    44
1040
1.0
1070
    74
1070
     0
1000
MTEXTEND
1000
MTEXTBEGIN
1070
    73
1070
     1
1070
    44
1040
1.0
1070
    74
1070
     0
1000
MTEXTEND
1000
MTEXTBEGIN
1070
    73
1070
     1
1070
    44
1040
1.0
1070
    74
1070
     0
1000
MTEXTEND
  0
TEXT
  5
2945
330
1F
100
AcDbEntity
  8
SUNPO
 62
     7
100
AcDbText
 10
2387.499999999999
 20
2580.0
 30
0.0
 40
36.0
  1
150
 50
90.0
  7
ADD
100
AcDbText
1001
ACAD
1000
MTEXTBEGIN
1070
    73
1070
     1
1070
    44
1040
1.0
1070
    74
1070
     0
1000
MTEXTEND
1000
MTEXTBEGIN
1070
    73
1070
     1
1070
    44
1040
1.0
1070
    74
1070
     0
1000
MTEXTEND
1000
MTEXTBEGIN
1070
    73
1070
     1
1070
    44
1040
1.0
1070
    74
1070
     0
1000
MTEXTEND
  0
TEXT
  5
2946
330
1F
100
AcDbEntity
  8
SUNPO
 62
     7
100
AcDbText
 10
2387.499999999999
 20
2857.571428571429
 30
0.0
 40
36.0
  1
400
 50
90.0
  7
ADD
100
AcDbText
1001
ACAD
1000
MTEXTBEGIN
1070
    73
1070
     1
1070
    44
1040
1.0
1070
    74
1070
     0
1000
MTEXTEND
1000
MTEXTBEGIN
1070
    73
1070
     1
1070
    44
1040
1.0
1070
    74
1070
     0
1000
MTEXTEND
1000
MTEXTBEGIN
1070
    73
1070
     1
1070
    44
1040
1.0
1070
    74
1070
     0
1000
MTEXTEND
  0
TEXT
  5
2947
330
1F
100
AcDbEntity
  8
SUNPO
 62
     7
100
AcDbText
 10
2387.499999999999
 20
3105.0
 30
0.0
 40
36.0
  1
100
 50
90.0
  7
ADD
100
AcDbText
1001
ACAD
1000
MTEXTBEGIN
1070
    73
1070
     1
1070
    44
1040
1.0
1070
    74
1070
     0
1000
MTEXTEND
1000
MTEXTBEGIN
1070
    73
1070
     1
1070
    44
1040
1.0
1070
    74
1070
     0
1000
MTEXTEND
1000
MTEXTBEGIN
1070
    73
1070
     1
1070
    44
1040
1.0
1070
    74
1070
     0
1000
MTEXTEND
  0
TEXT
  5
2948
330
1F
100
AcDbEntity
  8
SUNPO
 62
     7
100
AcDbText
 10
2487.499999999999
 20
2757.571428571429
 30
0.0
 40
36.0
  1
800
 50
90.0
  7
ADD
100
AcDbText
1001
ACAD
1000
MTEXTBEGIN
1070
    73
1070
     1
1070
    44
1040
1.0
1070
    74
1070
     0
1000
MTEXTEND
1000
MTEXTBEGIN
1070
    73
1070
     1
1070
    44
1040
1.0
1070
    74
1070
     0
1000
MTEXTEND
1000
MTEXTBEGIN
1070
    73
1070
     1
1070
    44
1040
1.0
1070
    74
1070
     0
1000
MTEXTEND
  0
TEXT
  5
2949
330
1F
100
AcDbEntity
  8
SUNPO
 62
     7
100
AcDbText
 10
3571.0
 20
1112.5
 30
0.0
 40
36.0
  1
150
  7
ADD
100
AcDbText
1001
ACAD
1000
MTEXTBEGIN
1070
    73
1070
     1
1070
    44
1040
1.0
1070
    74
1070
     0
1000
MTEXTEND
1000
MTEXTBEGIN
1070
    73
1070
     1
1070
    44
1040
1.0
1070
    74
1070
     0
1000
MTEXTEND
1000
MTEXTBEGIN
1070
    73
1070
     1
1070
    44
1040
1.0
1070
    74
1070
     0
1000
MTEXTEND
  0
TEXT
  5
294A
330
1F
100
AcDbEntity
  8
SUNPO
 62
     7
100
AcDbText
 10
4121.0
 20
1112.5
 30
0.0
 40
36.0
  1
150
  7
ADD
100
AcDbText
1001
ACAD
1000
MTEXTBEGIN
1070
    73
1070
     1
1070
    44
1040
1.0
1070
    74
1070
     0
1000
MTEXTEND
1000
MTEXTBEGIN
1070
    73
1070
     1
1070
    44
1040
1.0
1070
    74
1070
     0
1000
MTEXTEND
1000
MTEXTBEGIN
1070
    73
1070
     1
1070
    44
1040
1.0
1070
    74
1070
     0
1000
MTEXTEND
  0
TEXT
  5
294B
330
1F
100
AcDbEntity
  8
SUNPO
 62
     7
100
AcDbText
 10
3848.571428571428
 20
1112.5
 30
0.0
 40
36.0
  1
400
  7
ADD
100
AcDbText
1001
ACAD
1000
MTEXTBEGIN
1070
    73
1070
     1
1070
    44
1040
1.0
1070
    74
1070
     0
1000
MTEXTEND
1000
MTEXTBEGIN
1070
    73
1070
     1
1070
    44
1040
1.0
1070
    74
1070
     0
1000
MTEXTEND
1000
MTEXTBEGIN
1070
    73
1070
     1
1070
    44
1040
1.0
1070
    74
1070
     0
1000
MTEXTEND
  0
TEXT
  5
294C
330
1F
100
AcDbEntity
  8
SUNPO
 62
     7
100
AcDbText
 10
3437.499999999999
 20
1648.5
 30
0.0
 40
36.0
  1
105
 50
90.0
  7
ADD
100
AcDbText
1001
ACAD
1000
MTEXTBEGIN
1070
    73
1070
     1
1070
    44
1040
1.0
1070
    74
1070
     0
1000
MTEXTEND
1000
MTEXTBEGIN
1070
    73
1070
     1
1070
    44
1040
1.0
1070
    74
1070
     0
1000
MTEXTEND
1000
MTEXTBEGIN
1070
    73
1070
     1
1070
    44
1040
1.0
1070
    74
1070
     0
1000
MTEXTEND
  0
TEXT
  5
294D
330
1F
100
AcDbEntity
  8
SUNPO
 62
     7
100
AcDbText
 10
3437.499999999999
 20
1448.571428571429
 30
0.0
 40
36.0
  1
300
 50
90.0
  7
ADD
100
AcDbText
1001
ACAD
1000
MTEXTBEGIN
1070
    73
1070
     1
1070
    44
1040
1.0
1070
    74
1070
     0
1000
MTEXTEND
1000
MTEXTBEGIN
1070
    73
1070
     1
1070
    44
1040
1.0
1070
    74
1070
     0
1000
MTEXTEND
1000
MTEXTBEGIN
1070
    73
1070
     1
1070
    44
1040
1.0
1070
    74
1070
     0
1000
MTEXTEND
  0
TEXT
  5
294E
330
1F
100
AcDbEntity
  8
SUNPO
 62
     7
100
AcDbText
 10
3437.499999999999
 20
1243.5
 30
0.0
 40
36.0
  1
105
 50
90.0
  7
ADD
100
AcDbText
1001
ACAD
1000
MTEXTBEGIN
1070
    73
1070
     1
1070
    44
1040
1.0
1070
    74
1070
     0
1000
MTEXTEND
1000
MTEXTBEGIN
1070
    73
1070
     1
1070
    44
1040
1.0
1070
    74
1070
     0
1000
MTEXTEND
1000
MTEXTBEGIN
1070
    73
1070
     1
1070
    44
1040
1.0
1070
    74
1070
     0
1000
MTEXTEND
  0
TEXT
  5
294F
330
1F
100
AcDbEntity
  8
SUNPO
 62
     7
100
AcDbText
 10
3337.499999999999
 20
1448.571428571429
 30
0.0
 40
36.0
  1
510
 50
90.0
  7
ADD
100
AcDbText
1001
ACAD
1000
MTEXTBEGIN
1070
    73
1070
     1
1070
    44
1040
1.0
1070
    74
1070
     0
1000
MTEXTEND
1000
MTEXTBEGIN
1070
    73
1070
     1
1070
    44
1040
1.0
1070
    74
1070
     0
1000
MTEXTEND
1000
MTEXTBEGIN
1070
    73
1070
     1
1070
    44
1040
1.0
1070
    74
1070
     0
1000
MTEXTEND
  0
TEXT
  5
2950
330
1F
100
AcDbEntity
  8
SUNPO
 62
     7
100
AcDbText
 10
1948.571428571428
 20
3512.5
 30
0.0
 40
36.0
  1
510
  7
ADD
100
AcDbText
1001
ACAD
1000
MTEXTBEGIN
1070
    73
1070
     1
1070
    44
1040
1.0
1070
    74
1070
     0
1000
MTEXTEND
1000
MTEXTBEGIN
1070
    73
1070
     1
1070
    44
1040
1.0
1070
    74
1070
     0
1000
MTEXTEND
1000
MTEXTBEGIN
1070
    73
1070
     1
1070
    44
1040
1.0
1070
    74
1070
     0
1000
MTEXTEND
  0
TEXT
  5
2951
330
1F
100
AcDbEntity
  8
SUNPO
 62
     7
100
AcDbText
 10
4387.499999999999
 20
3105.0
 30
0.0
 40
36.0
  1
100
 50
90.0
  7
ADD
100
AcDbText
1001
ACAD
1000
MTEXTBEGIN
1070
    73
1070
     1
1070
    44
1040
1.0
1070
    74
1070
     0
1000
MTEXTEND
1000
MTEXTBEGIN
1070
    73
1070
     1
1070
    44
1040
1.0
1070
    74
1070
     0
1000
MTEXTEND
1000
MTEXTBEGIN
1070
    73
1070
     1
1070
    44
1040
1.0
1070
    74
1070
     0
1000
MTEXTEND
  0
TEXT
  5
2952
330
1F
100
AcDbEntity
  8
SUNPO
 62
     7
100
AcDbText
 10
4387.499999999999
 20
2857.571428571429
 30
0.0
 40
36.0
  1
400
 50
90.0
  7
ADD
100
AcDbText
1001
ACAD
1000
MTEXTBEGIN
1070
    73
1070
     1
1070
    44
1040
1.0
1070
    74
1070
     0
1000
MTEXTEND
1000
MTEXTBEGIN
1070
    73
1070
     1
1070
    44
1040
1.0
1070
    74
1070
     0
1000
MTEXTEND
1000
MTEXTBEGIN
1070
    73
1070
     1
1070
    44
1040
1.0
1070
    74
1070
     0
1000
MTEXTEND
  0
TEXT
  5
2953
330
1F
100
AcDbEntity
  8
SUNPO
 62
     7
100
AcDbText
 10
4387.499999999999
 20
2580.0
 30
0.0
 40
36.0
  1
150
 50
90.0
  7
ADD
100
AcDbText
1001
ACAD
1000
MTEXTBEGIN
1070
    73
1070
     1
1070
    44
1040
1.0
1070
    74
1070
     0
1000
MTEXTEND
1000
MTEXTBEGIN
1070
    73
1070
     1
1070
    44
1040
1.0
1070
    74
1070
     0
1000
MTEXTEND
1000
MTEXTBEGIN
1070
    73
1070
     1
1070
    44
1040
1.0
1070
    74
1070
     0
1000
MTEXTEND
  0
TEXT
  5
2954
330
1F
100
AcDbEntity
  8
SUNPO
 62
     7
100
AcDbText
 10
4387.499999999999
 20
2430.0
 30
0.0
 40
36.0
  1
150
 50
90.0
  7
ADD
100
AcDbText
1001
ACAD
1000
MTEXTBEGIN
1070
    73
1070
     1
1070
    44
1040
1.0
1070
    74
1070
     0
1000
MTEXTEND
1000
MTEXTBEGIN
1070
    73
1070
     1
1070
    44
1040
1.0
1070
    74
1070
     0
1000
MTEXTEND
1000
MTEXTBEGIN
1070
    73
1070
     1
1070
    44
1040
1.0
1070
    74
1070
     0
1000
MTEXTEND
  0
TEXT
  5
2955
330
1F
100
AcDbEntity
  8
SUNPO
 62
     7
100
AcDbText
 10
4487.499999999999
 20
2757.571428571429
 30
0.0
 40
36.0
  1
800
 50
90.0
  7
ADD
100
AcDbText
1001
ACAD
1000
MTEXTBEGIN
1070
    73
1070
     1
1070
    44
1040
1.0
1070
    74
1070
     0
1000
MTEXTEND
1000
MTEXTBEGIN
1070
    73
1070
     1
1070
    44
1040
1.0
1070
    74
1070
     0
1000
MTEXTEND
1000
MTEXTBEGIN
1070
    73
1070
     1
1070
    44
1040
1.0
1070
    74
1070
     0
1000
MTEXTEND
  0
TEXT
  5
2956
330
1F
100
AcDbEntity
  8
SUNPO
 62
     7
100
AcDbText
 10
3848.571428571428
 20
1012.499999999999
 30
0.0
 40
36.0
  1
700
  7
ADD
100
AcDbText
1001
ACAD
1000
MTEXTBEGIN
1070
    73
1070
     1
1070
    44
1040
1.0
1070
    74
1070
     0
1000
MTEXTEND
1000
MTEXTBEGIN
1070
    73
1070
     1
1070
    44
1040
1.0
1070
    74
1070
     0
1000
MTEXTEND
1000
MTEXTBEGIN
1070
    73
1070
     1
1070
    44
1040
1.0
1070
    74
1070
     0
1000
MTEXTEND
  0
VIEWPORT
  5
72
330
1B
100
AcDbEntity
 67
     1
  8
0
100
AcDbViewport
 10
645.8325449029127
 20
277.0
 30
0.0
 40
1380.967339805825
 41
628.4520000000001
 68
     2
 69
     1
1001
ACAD
1000
MVIEW
1002
{
1070
    16
1010
0.0
1020
0.0
1030
0.0
1010
0.0
1020
0.0
1030
1.0
1040
0.0
1040
628.4520000000001
1040
645.8325449029127
1040
277.0
1040
50.0
1040
0.0
1040
0.0
1070
     0
1070
   100
1070
     1
1070
     1
1070
     0
1070
     0
1070
     0
1070
     0
1040
0.0
1040
0.0
1040
0.0
1040
10.0
1040
10.0
1040
10.0
1040
10.0
1070
     0
1002
{
1002
}
1002
}
  0
VIEWPORT
  5
74
330
1B
100
AcDbEntity
 67
     1
  8
VIEWPORT
100
AcDbViewport
 10
414.3779638919211
 20
277.3177265058034
 30
0.0
 40
840.0353682728887
 41
567.2285469943826
 68
     1
 69
     2
1001
ACAD
1000
MVIEW
1002
{
1070
    16
1010
0.0
1020
0.0
1030
0.0
1010
0.0
1020
0.0
1030
1.0
1040
0.0
1040
579.5583043546323
1040
424.4938908624541
1040
286.1973242720074
1040
50.0
1040
0.0
1040
0.0
1070
     0
1070
   100
1070
     1
1070
     1
1070
     0
1070
     0
1070
     0
1070
     0
1040
0.0
1040
0.0
1040
0.0
1040
10.0
1040
10.0
1040
10.0
1040
10.0
1070
     0
1002
{
1002
}
1002
}
  0
ENDSEC
  0
SECTION
  2
OBJECTS
  0
DICTIONARY
  5
C
330
0
100
AcDbDictionary
  3
ACAD_GROUP
350
D
  3
ACAD_LAYOUT
350
1A
  3
ACAD_MLINESTYLE
350
17
  3
ACAD_PLOTSETTINGS
350
19
  3
ACADDIM
350
1390
  3
DWGPROPS
350
4C7
1001
ACAD
1000
TREAT_AS_HARD
1070
     0
  0
DICTIONARY
  5
2669
330
1F
100
AcDbDictionary
  3
ACAD_LAYOUTSELFREF
350
2959
1001
ACAD
1000
TREAT_AS_HARD
1070
     1
  0
DICTIONARY
  5
266B
330
1B
100
AcDbDictionary
  3
ACAD_LAYOUTSELFREF
350
2958
1001
ACAD
1000
TREAT_AS_HARD
1070
     1
  0
DICTIONARY
  5
D
102
{ACAD_REACTORS
330
C
102
}
330
C
100
AcDbDictionary
1001
ACAD
1000
TREAT_AS_HARD
1070
     0
  0
DICTIONARY
  5
1A
102
{ACAD_REACTORS
330
C
102
}
330
C
100
AcDbDictionary
1001
ACAD
1000
TREAT_AS_HARD
1070
     0
  0
DICTIONARY
  5
17
102
{ACAD_REACTORS
330
C
102
}
330
C
100
AcDbDictionary
  3
STANDARD
350
18
1001
ACAD
1000
TREAT_AS_HARD
1070
     0
  0
DICTIONARY
  5
19
102
{ACAD_REACTORS
330
C
102
}
330
C
100
AcDbDictionary
1001
ACAD
1000
TREAT_AS_HARD
1070
     0
  0
XRECORD
  5
1390
102
{ACAD_REACTORS
330
C
102
}
330
C
100
AcDbXrecord
 90
   990106
  3

 60
     0
 61
     0
 62
     1
 63
     3
 64
     0
 65
     0
 66
     0
 67
     3
 68
     1
 69
     0
 70
     0
 71
     0
 72
     0
 40
0.0
170
     0
  0
XRECORD
  5
4C7
102
{ACAD_REACTORS
330
C
102
}
330
C
100
AcDbXrecord
  1
DWGPROPS COOKIE
  2
印刷用テスト
  3
AutoCAD2000による建築設計
  4
鈴木 裕二
  6

  7

  8
U2
  9

300
=
301
=
302
=
303
=
304
=
305
=
306
=
307
=
308
=
309
=
 40
0.7653446875
 41
2451285.4846114
 42
2451333.689743032
  1

 90
        0
  0
XRECORD
  5
2959
102
{ACAD_REACTORS
330
2669
102
}
330
2669
100
AcDbXrecord
340
1F
  0
XRECORD
  5
2958
102
{ACAD_REACTORS
330
266B
102
}
330
266B
100
AcDbXrecord
340
1B
  0
MLINESTYLE
  5
18
102
{ACAD_REACTORS
330
17
102
}
330
17
100
AcDbMlineStyle
  2
STANDARD
 70
     0
  3

 62
   256
 51
90.0
 52
90.0
 71
     2
 49
0.5
 62
   256
  6
BYLAYER
 49
-0.5
 62
   256
  6
BYLAYER
  0
ENDSEC
  0
EOF
