  0
SECTION
  2
HEADER
  9
$ACADVER
  1
AC1012
  9
$DWGCODEPAGE
  3
dos932
  9
$INSBASE
 10
0.0
 20
0.0
 30
0.0
  9
$EXTMIN
 10
0.0
 20
0.0
 30
0.0
  9
$EXTMAX
 10
5940.0
 20
4200.0
 30
0.0
  9
$LIMMIN
 10
0.0
 20
0.0
  9
$LIMMAX
 10
5940.0
 20
4200.0
  9
$ORTHOMODE
 70
     1
  9
$REGENMODE
 70
     1
  9
$FILLMODE
 70
     1
  9
$QTEXTMODE
 70
     0
  9
$MIRRTEXT
 70
     0
  9
$DRAGMODE
 70
     2
  9
$LTSCALE
 40
10.0
  9
$OSMODE
 70
    39
  9
$ATTMODE
 70
     1
  9
$TEXTSIZE
 40
50.0
  9
$TRACEWID
 40
1.0
  9
$TEXTSTYLE
  7
ADD
  9
$CLAYER
  8
SUNPO
  9
$CELTYPE
  6
BYLAYER
  9
$CECOLOR
 62
   256
  9
$CELTSCALE
 40
1.0
  9
$DELOBJ
 70
     1
  9
$DISPSILH
 70
     0
  9
$DIMSCALE
 40
20.0
  9
$DIMASZ
 40
1.399999999999999
  9
$DIMEXO
 40
1.0
  9
$DIMDLI
 40
7.0
  9
$DIMRND
 40
0.0
  9
$DIMDLE
 40
0.0
  9
$DIMEXE
 40
0.5
  9
$DIMTP
 40
0.0
  9
$DIMTM
 40
0.0
  9
$DIMTXT
 40
1.8
  9
$DIMCEN
 40
1.399999999999999
  9
$DIMTSZ
 40
0.0
  9
$DIMTOL
 70
     0
  9
$DIMLIM
 70
     0
  9
$DIMTIH
 70
     0
  9
$DIMTOH
 70
     0
  9
$DIMSE1
 70
     0
  9
$DIMSE2
 70
     0
  9
$DIMTAD
 70
     1
  9
$DIMZIN
 70
     8
  9
$DIMBLK
  1

  9
$DIMASO
 70
     1
  9
$DIMSHO
 70
     1
  9
$DIMPOST
  1

  9
$DIMAPOST
  1

  9
$DIMALT
 70
     0
  9
$DIMALTD
 70
     3
  9
$DIMALTF
 40
0.03937007874016
  9
$DIMLFAC
 40
1.0
  9
$DIMTOFL
 70
     1
  9
$DIMTVP
 40
0.7
  9
$DIMTIX
 70
     1
  9
$DIMSOXD
 70
     0
  9
$DIMSAH
 70
     0
  9
$DIMBLK1
  1

  9
$DIMBLK2
  1

  9
$DIMSTYLE
  2
ADD
  9
$DIMCLRD
 70
   144
  9
$DIMCLRE
 70
   144
  9
$DIMCLRT
 70
     7
  9
$DIMTFAC
 40
1.0
  9
$DIMGAP
 40
0.625
  9
$DIMJUST
 70
     0
  9
$DIMSD1
 70
     0
  9
$DIMSD2
 70
     0
  9
$DIMTOLJ
 70
     2
  9
$DIMTZIN
 70
     8
  9
$DIMALTZ
 70
     0
  9
$DIMALTTZ
 70
     0
  9
$DIMFIT
 70
     5
  9
$DIMUPT
 70
     0
  9
$DIMUNIT
 70
     2
  9
$DIMDEC
 70
     1
  9
$DIMTDEC
 70
     1
  9
$DIMALTU
 70
     2
  9
$DIMALTTD
 70
     3
  9
$DIMTXSTY
  7
ADD
  9
$DIMAUNIT
 70
     0
  9
$LUNITS
 70
     2
  9
$LUPREC
 70
     4
  9
$SKETCHINC
 40
1.0
  9
$FILLETRAD
 40
30.0
  9
$AUNITS
 70
     0
  9
$AUPREC
 70
     1
  9
$MENU
  1
.
  9
$ELEVATION
 40
0.0
  9
$PELEVATION
 40
0.0
  9
$THICKNESS
 40
0.0
  9
$LIMCHECK
 70
     0
  9
$BLIPMODE
 70
     0
  9
$CHAMFERA
 40
30.0
  9
$CHAMFERB
 40
30.0
  9
$CHAMFERC
 40
20.0
  9
$CHAMFERD
 40
0.0
  9
$SKPOLY
 70
     0
  9
$TDCREATE
 40
2451801.142532870
  9
$TDUPDATE
 40
2451857.781910764
  9
$TDINDWG
 40
0.7881667708
  9
$TDUSRTIMER
 40
0.7881667708
  9
$USRTIMER
 70
     1
  9
$ANGBASE
 50
0.0
  9
$ANGDIR
 70
     0
  9
$PDMODE
 70
     0
  9
$PDSIZE
 40
0.0
  9
$PLINEWID
 40
0.0
  9
$COORDS
 70
     2
  9
$SPLFRAME
 70
     0
  9
$SPLINETYPE
 70
     6
  9
$SPLINESEGS
 70
     8
  9
$ATTDIA
 70
     0
  9
$ATTREQ
 70
     1
  9
$HANDLING
 70
 10241
  9
$HANDSEED
  5
283B
  9
$SURFTAB1
 70
     6
  9
$SURFTAB2
 70
     6
  9
$SURFTYPE
 70
     6
  9
$SURFU
 70
     6
  9
$SURFV
 70
     6
  9
$UCSNAME
  2

  9
$UCSORG
 10
0.0
 20
0.0
 30
0.0
  9
$UCSXDIR
 10
1.0
 20
0.0
 30
0.0
  9
$UCSYDIR
 10
0.0
 20
1.0
 30
0.0
  9
$PUCSNAME
  2

  9
$PUCSORG
 10
0.0
 20
0.0
 30
0.0
  9
$PUCSXDIR
 10
1.0
 20
0.0
 30
0.0
  9
$PUCSYDIR
 10
0.0
 20
1.0
 30
0.0
  9
$USERI1
 70
     0
  9
$USERI2
 70
     0
  9
$USERI3
 70
     0
  9
$USERI4
 70
     0
  9
$USERI5
 70
     0
  9
$USERR1
 40
841.0
  9
$USERR2
 40
594.0
  9
$USERR3
 40
1.0
  9
$USERR4
 40
0.0
  9
$USERR5
 40
0.0
  9
$WORLDVIEW
 70
     1
  9
$SHADEDGE
 70
     3
  9
$SHADEDIF
 70
    70
  9
$TILEMODE
 70
     1
  9
$MAXACTVP
 70
    48
  9
$PINSBASE
 10
0.0
 20
0.0
 30
0.0
  9
$PLIMCHECK
 70
     0
  9
$PEXTMIN
 10
-5.639720244523232
 20
-6.296546991387913
 30
0.0
  9
$PEXTMAX
 10
834.3956480283654
 20
560.9320000029947
 30
0.0
  9
$PLIMMIN
 10
-7.500000000000001
 20
-20.0
  9
$PLIMMAX
 10
833.5000000000002
 20
574.0000000000001
  9
$UNITMODE
 70
     0
  9
$VISRETAIN
 70
     1
  9
$PLINEGEN
 70
     0
  9
$PSLTSCALE
 70
     1
  9
$TREEDEPTH
 70
  3020
  9
$PICKSTYLE
 70
     1
  9
$CMLSTYLE
  2
STANDARD
  9
$CMLJUST
 70
     0
  9
$CMLSCALE
 40
20.0
  9
$SAVEIMAGES
 70
     1
  0
ENDSEC
  0
SECTION
  2
CLASSES
  0
CLASS
  1
ACDBDICTIONARYWDFLT
  2
AcDbDictionaryWithDefault
  3
AutoCAD 2000
 90
    32768
280
     0
281
     0
  0
CLASS
  1
ACDBPLACEHOLDER
  2
AcDbPlaceHolder
  3
AutoCAD 2000
 90
    32768
280
     0
281
     0
  0
CLASS
  1
LAYOUT
  2
AcDbLayout
  3
AutoCAD 2000
 90
    32768
280
     0
281
     0
  0
CLASS
  1
RTEXT
  2
RText
  3
RText|AutoCAD Express Tool|expresstools@autodesk.com
 90
    32768
280
     0
281
     1
  0
CLASS
  1
DICTIONARYVAR
  2
AcDbDictionaryVar
  3
AutoCAD 2000
 90
    32768
280
     0
281
     0
  0
CLASS
  1
LONG_TRANSACTION
  2
AcDbLongTransaction
  3
AutoCAD 2000
 90
    32768
280
     0
281
     0
  0
CLASS
  1
LWPOLYLINE
  2
AcDbPolyline
  3
AutoCAD 2000
 90
    32768
280
     0
281
     1
  0
CLASS
  1
HATCH
  2
AcDbHatch
  3
AutoCAD 2000
 90
    32768
280
     0
281
     1
  0
CLASS
  1
XRECORD
  2
AcDbXrecord
  3
AutoCAD 2000
 90
    32768
280
     0
281
     0
  0
CLASS
  1
LONG_TRANSACTION
  2
AcDbLongTransaction
  3
AutoCAD 2000
 90
    32768
280
     0
281
     0
  0
CLASS
  1
LWPOLYLINE
  2
AcDbPolyline
  3
AutoCAD 2000
 90
    32768
280
     0
281
     1
  0
CLASS
  1
HATCH
  2
AcDbHatch
  3
AutoCAD 2000
 90
    32768
280
     0
281
     1
  0
CLASS
  1
XRECORD
  2
AcDbXrecord
  3
AutoCAD 2000
 90
    32768
280
     0
281
     0
  0
CLASS
  1
LONG_TRANSACTION
  2
AcDbLongTransaction
  3
AutoCAD 2000
 90
    32768
280
     0
281
     0
  0
CLASS
  1
LWPOLYLINE
  2
AcDbPolyline
  3
AutoCAD 2000
 90
    32768
280
     0
281
     1
  0
CLASS
  1
HATCH
  2
AcDbHatch
  3
AutoCAD 2000
 90
    32768
280
     0
281
     1
  0
CLASS
  1
XRECORD
  2
AcDbXrecord
  3
AutoCAD 2000
 90
    32768
280
     0
281
     0
  0
CLASS
  1
LONG_TRANSACTION
  2
AcDbLongTransaction
  3
AutoCAD 2000
 90
    32768
280
     0
281
     0
  0
CLASS
  1
LWPOLYLINE
  2
AcDbPolyline
  3
AutoCAD 2000
 90
    32768
280
     0
281
     1
  0
CLASS
  1
HATCH
  2
AcDbHatch
  3
AutoCAD 2000
 90
    32768
280
     0
281
     1
  0
CLASS
  1
XRECORD
  2
AcDbXrecord
  3
AutoCAD 2000
 90
    32768
280
     0
281
     0
  0
CLASS
  1
LONG_TRANSACTION
  2
AcDbLongTransaction
  3
AutoCAD 2000
 90
    32768
280
     0
281
     0
  0
CLASS
  1
LWPOLYLINE
  2
AcDbPolyline
  3
AutoCAD 2000
 90
    32768
280
     0
281
     1
  0
CLASS
  1
HATCH
  2
AcDbHatch
  3
AutoCAD 2000
 90
    32768
280
     0
281
     1
  0
CLASS
  1
XRECORD
  2
AcDbXrecord
  3
AutoCAD 2000
 90
    32768
280
     0
281
     0
  0
CLASS
  1
LONG_TRANSACTION
  2
AcDbLongTransaction
  3
AutoCAD 2000
 90
    32768
280
     0
281
     0
  0
CLASS
  1
LWPOLYLINE
  2
AcDbPolyline
  3
AutoCAD 2000
 90
    32768
280
     0
281
     1
  0
CLASS
  1
HATCH
  2
AcDbHatch
  3
AutoCAD 2000
 90
    32768
280
     0
281
     1
  0
CLASS
  1
XRECORD
  2
AcDbXrecord
  3
AutoCAD 2000
 90
    32768
280
     0
281
     0
  0
ENDSEC
  0
SECTION
  2
TABLES
  0
TABLE
  2
VPORT
  5
8
330
0
100
AcDbSymbolTable
 70
     2
  0
VPORT
  5
282B
330
8
100
AcDbSymbolTableRecord
100
AcDbViewportTableRecord
  2
*ACTIVE
 70
     0
 10
0.0
 20
0.0
 11
1.0
 21
1.0
 12
2970.000013830139
 22
2315.861655865738
 13
0.0
 23
0.0
 14
50.0
 24
50.0
 15
10.0
 25
10.0
 16
0.0
 26
0.0
 36
1.0
 17
0.0
 27
0.0
 37
0.0
 40
4719.182193760837
 41
2.198738170347003
 42
50.0
 43
0.0
 44
0.0
 50
0.0
 51
0.0
 71
     0
 72
   100
 73
     1
 74
     1
 75
     0
 76
     0
 77
     0
 78
     0
  0
ENDTAB
  0
TABLE
  2
LTYPE
  5
5
330
0
100
AcDbSymbolTable
 70
     5
  0
LTYPE
  5
14
330
5
100
AcDbSymbolTableRecord
100
AcDbLinetypeTableRecord
  2
BYBLOCK
 70
     0
  3

 72
    65
 73
     0
 40
0.0
  0
LTYPE
  5
15
330
5
100
AcDbSymbolTableRecord
100
AcDbLinetypeTableRecord
  2
BYLAYER
 70
     0
  3

 72
    65
 73
     0
 40
0.0
  0
LTYPE
  5
16
330
5
100
AcDbSymbolTableRecord
100
AcDbLinetypeTableRecord
  2
CONTINUOUS
 70
     0
  3
Solid line
 72
    65
 73
     0
 40
0.0
  0
LTYPE
  5
555
330
5
100
AcDbSymbolTableRecord
100
AcDbLinetypeTableRecord
  2
CENTER
 70
     0
  3
Center ____ _ ____ _ ____ _ ____ _ ____ _ ____
 72
    65
 73
     4
 40
50.8
 49
31.75
 74
     0
 49
-6.349999999999999
 74
     0
 49
6.349999999999999
 74
     0
 49
-6.349999999999999
 74
     0
  0
LTYPE
  5
556
330
5
100
AcDbSymbolTableRecord
100
AcDbLinetypeTableRecord
  2
HIDDEN
 70
     0
  3
Hidden __ __ __ __ __ __ __ __ __ __ __ __ __ _
 72
    65
 73
     2
 40
9.524999999999998
 49
6.349999999999999
 74
     0
 49
-3.174999999999999
 74
     0
  0
LTYPE
  5
557
330
5
100
AcDbSymbolTableRecord
100
AcDbLinetypeTableRecord
  2
HIDDEN2
 70
     0
  3
Hidden (.5x) _ _ _ _ _ _ _ _ _ _ _ _ _ _ _ _ _
 72
    65
 73
     2
 40
4.762499999999999
 49
3.174999999999999
 74
     0
 49
-1.587499999999999
 74
     0
  0
LTYPE
  5
558
330
5
100
AcDbSymbolTableRecord
100
AcDbLinetypeTableRecord
  2
PHANTOM
 70
     0
  3
Phantom ______  __  __  ______  __  __  ______
 72
    65
 73
     6
 40
63.5
 49
31.75
 74
     0
 49
-6.349999999999999
 74
     0
 49
6.349999999999999
 74
     0
 49
-6.349999999999999
 74
     0
 49
6.349999999999999
 74
     0
 49
-6.349999999999999
 74
     0
  0
ENDTAB
  0
TABLE
  2
LAYER
  5
2
330
0
100
AcDbSymbolTable
 70
    22
  0
LAYER
  5
10
330
2
100
AcDbSymbolTableRecord
100
AcDbLayerTableRecord
  2
0
 70
     0
 62
     7
  6
CONTINUOUS
  0
LAYER
  5
75
330
2
100
AcDbSymbolTableRecord
100
AcDbLayerTableRecord
  2
VIEWPORT
 70
     0
 62
     1
  6
CONTINUOUS
  0
LAYER
  5
504
330
2
100
AcDbSymbolTableRecord
100
AcDbLayerTableRecord
  2
DEFPOINTS
 70
     0
 62
     7
  6
CONTINUOUS
  0
LAYER
  5
505
330
2
100
AcDbSymbolTableRecord
100
AcDbLayerTableRecord
  2
1C1
 70
     0
 62
   254
  6
CONTINUOUS
  0
LAYER
  5
506
330
2
100
AcDbSymbolTableRecord
100
AcDbLayerTableRecord
  2
1C2
 70
     0
 62
   254
  6
CONTINUOUS
  0
LAYER
  5
507
330
2
100
AcDbSymbolTableRecord
100
AcDbLayerTableRecord
  2
2C1
 70
     0
 62
   144
  6
CONTINUOUS
  0
LAYER
  5
508
330
2
100
AcDbSymbolTableRecord
100
AcDbLayerTableRecord
  2
2C2
 70
     0
 62
   144
  6
CONTINUOUS
  0
LAYER
  5
509
330
2
100
AcDbSymbolTableRecord
100
AcDbLayerTableRecord
  2
2H1
 70
     0
 62
   144
  6
HIDDEN
  0
LAYER
  5
50A
330
2
100
AcDbSymbolTableRecord
100
AcDbLayerTableRecord
  2
2H2
 70
     0
 62
   144
  6
HIDDEN2
  0
LAYER
  5
50B
330
2
100
AcDbSymbolTableRecord
100
AcDbLayerTableRecord
  2
2P1
 70
     0
 62
   144
  6
PHANTOM
  0
LAYER
  5
50C
330
2
100
AcDbSymbolTableRecord
100
AcDbLayerTableRecord
  2
3C1
 70
     0
 62
     7
  6
CONTINUOUS
  0
LAYER
  5
50D
330
2
100
AcDbSymbolTableRecord
100
AcDbLayerTableRecord
  2
3C2
 70
     0
 62
     7
  6
CONTINUOUS
  0
LAYER
  5
50E
330
2
100
AcDbSymbolTableRecord
100
AcDbLayerTableRecord
  2
3C3
 70
     0
 62
     7
  6
CONTINUOUS
  0
LAYER
  5
50F
330
2
100
AcDbSymbolTableRecord
100
AcDbLayerTableRecord
  2
4H1
 70
     0
 62
     6
  6
HIDDEN
  0
LAYER
  5
510
330
2
100
AcDbSymbolTableRecord
100
AcDbLayerTableRecord
  2
4H2
 70
     0
 62
     6
  6
HIDDEN2
  0
LAYER
  5
511
330
2
100
AcDbSymbolTableRecord
100
AcDbLayerTableRecord
  2
5C1
 70
     0
 62
    55
  6
CONTINUOUS
  0
LAYER
  5
512
330
2
100
AcDbSymbolTableRecord
100
AcDbLayerTableRecord
  2
5C2
 70
     0
 62
    55
  6
CONTINUOUS
  0
LAYER
  5
513
330
2
100
AcDbSymbolTableRecord
100
AcDbLayerTableRecord
  2
8C1
 70
     0
 62
    92
  6
CONTINUOUS
  0
LAYER
  5
514
330
2
100
AcDbSymbolTableRecord
100
AcDbLayerTableRecord
  2
HOJO
 70
     0
 62
     5
  6
CONTINUOUS
  0
LAYER
  5
515
330
2
100
AcDbSymbolTableRecord
100
AcDbLayerTableRecord
  2
KIJUN
 70
     0
 62
     1
  6
CENTER
  0
LAYER
  5
516
330
2
100
AcDbSymbolTableRecord
100
AcDbLayerTableRecord
  2
MOJI
 70
     0
 62
     7
  6
CONTINUOUS
  0
LAYER
  5
517
330
2
100
AcDbSymbolTableRecord
100
AcDbLayerTableRecord
  2
SUNPO
 70
     0
 62
   144
  6
CONTINUOUS
  0
ENDTAB
  0
TABLE
  2
STYLE
  5
3
330
0
100
AcDbSymbolTable
 70
     6
  0
STYLE
  5
11
330
3
100
AcDbSymbolTableRecord
100
AcDbTextStyleTableRecord
  2
STANDARD
 70
     0
 40
0.0
 41
1.0
 50
0.0
 71
     0
 42
2.5
  3
txt
  4

  0
STYLE
  5
2C
330
3
100
AcDbSymbolTableRecord
100
AcDbTextStyleTableRecord
  2

 70
     1
 40
0.0
 41
1.0
 50
0.0
 71
     0
 42
2.5
  3
ltypeshp.shx
  4

  0
STYLE
  5
18E
330
3
100
AcDbSymbolTableRecord
100
AcDbTextStyleTableRecord
  2
ADD
 70
     0
 40
0.0
 41
1.0
 50
0.0
 71
     0
 42
50.0
  3
romans.shx
  4
bigfont.shx
  0
STYLE
  5
191
330
3
100
AcDbSymbolTableRecord
100
AcDbTextStyleTableRecord
  2
MSG
 70
     0
 40
0.0
 41
1.0
 50
0.0
 71
     0
 42
2.5
  3
MS Gothic.ttf
  4

1001
ACAD
1000
MS Gothic
1071
    32817
  0
STYLE
  5
5C8
330
3
100
AcDbSymbolTableRecord
100
AcDbTextStyleTableRecord
  2
STANDARD15
 70
     0
 40
0.0
 41
1.0
 50
15.0
 71
     0
 42
2.5
  3
ROMANS
  4
bigfont
  0
STYLE
  5
5C9
330
3
100
AcDbSymbolTableRecord
100
AcDbTextStyleTableRecord
  2
ROMANS15
 70
     0
 40
0.0
 41
1.0
 50
15.0
 71
     0
 42
2.5
  3
romans
  4

  0
ENDTAB
  0
TABLE
  2
VIEW
  5
6
330
0
100
AcDbSymbolTable
 70
     1
  0
VIEW
  5
54D
330
6
100
AcDbSymbolTableRecord
100
AcDbViewTableRecord
  2
ALL
 70
     0
 40
594.0
 10
420.5
 20
297.0
 41
865.125
 11
0.0
 21
0.0
 31
1.0
 12
0.0
 22
0.0
 32
0.0
 42
50.0
 43
0.0
 44
0.0
 50
0.0
 71
     0
  0
ENDTAB
  0
TABLE
  2
UCS
  5
7
330
0
100
AcDbSymbolTable
 70
     0
  0
ENDTAB
  0
TABLE
  2
APPID
  5
9
330
0
100
AcDbSymbolTable
 70
     4
  0
APPID
  5
12
330
9
100
AcDbSymbolTableRecord
100
AcDbRegAppTableRecord
  2
ACAD
 70
     0
  0
APPID
  5
5CB
330
9
100
AcDbSymbolTableRecord
100
AcDbRegAppTableRecord
  2
ARAIGUMI_YOHEKI
 70
     0
  0
APPID
  5
5CC
330
9
100
AcDbSymbolTableRecord
100
AcDbRegAppTableRecord
  2
CONTENTTABDATA
 70
     0
  0
APPID
  5
5CD
330
9
100
AcDbSymbolTableRecord
100
AcDbRegAppTableRecord
  2
CONTENTCURRENTTAB
 70
     0
  0
ENDTAB
  0
TABLE
  2
DIMSTYLE
  5
A
330
0
100
AcDbSymbolTable
 70
    10
  0
DIMSTYLE
105
27
330
A
100
AcDbSymbolTableRecord
100
AcDbDimStyleTableRecord
  2
ISO-25
 70
     0
  3

  4

  5

  6

  7

 40
1.0
 41
2.5
 42
0.625
 43
3.75
 44
1.25
 45
0.0
 46
0.0
 47
0.0
 48
0.0
140
2.5
141
2.5
142
0.0
143
0.03937007874016
144
1.0
145
0.0
146
1.0
147
0.625
 71
     0
 72
     0
 73
     0
 74
     0
 75
     0
 76
     0
 77
     1
 78
     8
170
     0
171
     3
172
     1
173
     0
174
     0
175
     0
176
     0
177
     0
178
     0
270
     2
271
     2
272
     2
273
     2
274
     3
340
11
275
     0
280
     0
281
     0
282
     0
283
     0
284
     8
285
     0
286
     0
287
     3
288
     0
  0
DIMSTYLE
105
197
330
A
100
AcDbSymbolTableRecord
100
AcDbDimStyleTableRecord
  2
ADD
 70
     0
  3

  4

  5

  6

  7

 40
1.0
 41
2.5
 42
1.0
 43
7.0
 44
0.5
 45
0.0
 46
0.0
 47
0.0
 48
0.0
140
2.5
141
2.5
142
0.0
143
0.03937007874016
144
1.0
145
0.7
146
1.0
147
0.625
 71
     0
 72
     0
 73
     0
 74
     0
 75
     0
 76
     0
 77
     1
 78
     8
170
     0
171
     3
172
     1
173
     0
174
     1
175
     0
176
   144
177
   144
178
     7
270
     2
271
     1
272
     1
273
     2
274
     3
340
18E
275
     0
280
     0
281
     0
282
     0
283
     2
284
     8
285
     0
286
     0
287
     5
288
     0
  0
DIMSTYLE
105
3E6
330
A
100
AcDbSymbolTableRecord
100
AcDbDimStyleTableRecord
  2
ADD$2
 70
     0
  3

  4

  5

  6

  7

 40
1.0
 41
2.5
 42
1.0
 43
7.0
 44
0.5
 45
0.0
 46
0.0
 47
0.0
 48
0.0
140
2.5
141
2.5
142
0.0
143
0.03937007874016
144
1.0
145
0.7
146
1.0
147
0.625
 71
     0
 72
     0
 73
     0
 74
     0
 75
     0
 76
     0
 77
     1
 78
     8
170
     0
171
     3
172
     1
173
     0
174
     1
175
     0
176
   144
177
   144
178
     7
270
     2
271
     1
272
     1
273
     2
274
     3
340
18E
275
     0
280
     0
281
     0
282
     0
283
     2
284
     8
285
     0
286
     0
287
     5
288
     0
  0
DIMSTYLE
105
3E7
330
A
100
AcDbSymbolTableRecord
100
AcDbDimStyleTableRecord
  2
ADD$4
 70
     0
  3

  4

  5

  6

  7

 40
1.0
 41
2.5
 42
1.0
 43
7.0
 44
0.5
 45
0.0
 46
0.0
 47
0.0
 48
0.0
140
2.5
141
2.5
142
0.0
143
0.03937007874016
144
1.0
145
0.0
146
1.0
147
0.625
 71
     0
 72
     0
 73
     0
 74
     0
 75
     0
 76
     0
 77
     1
 78
     8
170
     0
171
     3
172
     1
173
     0
174
     1
175
     0
176
   144
177
   144
178
     7
270
     2
271
     1
272
     1
273
     2
274
     3
340
18E
275
     0
280
     0
281
     0
282
     0
283
     2
284
     8
285
     0
286
     0
287
     5
288
     0
  0
DIMSTYLE
105
3E8
330
A
100
AcDbSymbolTableRecord
100
AcDbDimStyleTableRecord
  2
ADD$3
 70
     0
  3

  4

  5

  6

  7

 40
1.0
 41
2.5
 42
1.0
 43
7.0
 44
0.5
 45
0.0
 46
0.0
 47
0.0
 48
0.0
140
2.5
141
2.5
142
0.0
143
0.03937007874016
144
1.0
145
0.0
146
1.0
147
0.625
 71
     0
 72
     0
 73
     0
 74
     0
 75
     0
 76
     0
 77
     1
 78
     8
170
     0
171
     3
172
     1
173
     0
174
     1
175
     0
176
   144
177
   144
178
     7
270
     2
271
     1
272
     1
273
     2
274
     3
340
18E
275
     0
280
     0
281
     0
282
     0
283
     2
284
     8
285
     0
286
     0
287
     5
288
     0
  0
DIMSTYLE
105
3E9
330
A
100
AcDbSymbolTableRecord
100
AcDbDimStyleTableRecord
  2
ADD$6
 70
     0
  3

  4

  5

  6

  7

 40
1.0
 41
2.5
 42
1.0
 43
7.0
 44
0.5
 45
0.0
 46
0.0
 47
0.0
 48
0.0
140
2.5
141
2.5
142
0.0
143
0.03937007874016
144
1.0
145
0.0
146
1.0
147
0.625
 71
     0
 72
     0
 73
     0
 74
     0
 75
     0
 76
     0
 77
     1
 78
     8
170
     0
171
     3
172
     1
173
     0
174
     1
175
     0
176
   144
177
   144
178
     7
270
     2
271
     1
272
     1
273
     2
274
     3
340
18E
275
     0
280
     0
281
     0
282
     0
283
     2
284
     8
285
     0
286
     0
287
     5
288
     0
  0
DIMSTYLE
105
3EA
330
A
100
AcDbSymbolTableRecord
100
AcDbDimStyleTableRecord
  2
ADD$7
 70
     0
  3

  4

  5

  6

  7

 40
1.0
 41
2.5
 42
1.0
 43
7.0
 44
0.5
 45
0.0
 46
0.0
 47
0.0
 48
0.0
140
2.5
141
2.5
142
0.0
143
0.03937007874016
144
1.0
145
0.0
146
1.0
147
0.625
 71
     0
 72
     0
 73
     0
 74
     0
 75
     0
 76
     0
 77
     0
 78
     8
170
     0
171
     3
172
     1
173
     0
174
     1
175
     0
176
   144
177
   144
178
     7
270
     2
271
     1
272
     1
273
     2
274
     3
340
18E
275
     0
280
     0
281
     0
282
     0
283
     2
284
     8
285
     0
286
     0
287
     5
288
     0
  0
DIMSTYLE
105
518
330
A
100
AcDbSymbolTableRecord
100
AcDbDimStyleTableRecord
  2
STANDARD
 70
     0
  3

  4

  5

  6

  7

 40
1.0
 41
0.18
 42
0.0625
 43
0.38
 44
0.18
 45
0.0
 46
0.0
 47
0.0
 48
0.0
140
0.18
141
0.09
142
0.0
143
25.4
144
1.0
145
0.0
146
1.0
147
0.09
 71
     0
 72
     0
 73
     1
 74
     1
 75
     0
 76
     0
 77
     0
 78
     0
170
     0
171
     2
172
     0
173
     0
174
     0
175
     0
176
     0
177
     0
178
     0
270
     2
271
     4
272
     4
273
     2
274
     2
340
11
275
     0
280
     0
281
     0
282
     0
283
     1
284
     0
285
     0
286
     0
287
     3
288
     0
  0
DIMSTYLE
105
550
102
{ACAD_REACTORS
330
2531
330
2348
330
233B
330
232E
330
2321
330
2312
330
2301
330
2192
330
2183
330
2176
330
2167
330
215A
330
214D
330
2140
330
2126
330
2119
330
210C
330
20FD
330
20F0
330
20E3
330
20D6
330
20BA
330
20AD
330
209E
330
2088
102
}
330
A
100
AcDbSymbolTableRecord
100
AcDbDimStyleTableRecord
  2
ADD$0
 70
     0
  3

  4

  5

  6

  7

 40
1.0
 41
2.2
 42
1.0
 43
7.0
 44
0.5
 45
0.0
 46
0.0
 47
0.0
 48
0.0
140
2.5
141
2.5
142
0.0
143
0.03937007874016
144
1.0
145
0.7
146
1.0
147
0.625
 71
     0
 72
     0
 73
     0
 74
     0
 75
     0
 76
     0
 77
     1
 78
     8
170
     0
171
     3
172
     1
173
     0
174
     1
175
     0
176
   144
177
   144
178
     7
270
     2
271
     1
272
     1
273
     2
274
     3
340
18E
275
     0
280
     0
281
     0
282
     0
283
     2
284
     8
285
     0
286
     0
287
     5
288
     0
  0
DIMSTYLE
105
59B
330
A
100
AcDbSymbolTableRecord
100
AcDbDimStyleTableRecord
  2
ADD_M
 70
     0
  3

  4

  5

  6

  7

 40
1.0
 41
2.5
 42
1.0
 43
7.0
 44
0.5
 45
0.0
 46
0.0
 47
0.0
 48
0.0
140
2.5
141
2.5
142
0.0
143
0.03937007874016
144
1.0
145
0.7
146
1.0
147
0.625
 71
     0
 72
     0
 73
     0
 74
     0
 75
     0
 76
     0
 77
     1
 78
     8
170
     0
171
     3
172
     1
173
     0
174
     1
175
     0
176
   144
177
   144
178
     7
270
     2
271
     1
272
     1
273
     2
274
     3
340
18E
275
     0
280
     0
281
     0
282
     0
283
     2
284
     8
285
     0
286
     0
287
     5
288
     0
  0
ENDTAB
  0
TABLE
  2
BLOCK_RECORD
  5
1
330
0
100
AcDbSymbolTable
 70
    30
  0
BLOCK_RECORD
  5
1F
102
{ACAD_XDICTIONARY
360
241E
102
}
330
1
100
AcDbSymbolTableRecord
100
AcDbBlockTableRecord
  2
*MODEL_SPACE
  0
BLOCK_RECORD
  5
1B
102
{ACAD_XDICTIONARY
360
2420
102
}
330
1
100
AcDbSymbolTableRecord
100
AcDbBlockTableRecord
  2
*PAPER_SPACE
  0
BLOCK_RECORD
  5
192
330
1
100
AcDbSymbolTableRecord
100
AcDbBlockTableRecord
  2
_DOT
  0
BLOCK_RECORD
  5
5CE
330
1
100
AcDbSymbolTableRecord
100
AcDbBlockTableRecord
  2
A4
  0
BLOCK_RECORD
  5
636
330
1
100
AcDbSymbolTableRecord
100
AcDbBlockTableRecord
  2
_OPEN90
  0
BLOCK_RECORD
  5
63C
330
1
100
AcDbSymbolTableRecord
100
AcDbBlockTableRecord
  2
_OPEN30
  0
BLOCK_RECORD
  5
FDC
330
1
100
AcDbSymbolTableRecord
100
AcDbBlockTableRecord
  2
_DATUMFILLED
  0
BLOCK_RECORD
  5
2089
330
1
100
AcDbSymbolTableRecord
100
AcDbBlockTableRecord
  2
*D5
  0
BLOCK_RECORD
  5
209F
330
1
100
AcDbSymbolTableRecord
100
AcDbBlockTableRecord
  2
*D6
  0
BLOCK_RECORD
  5
20AE
330
1
100
AcDbSymbolTableRecord
100
AcDbBlockTableRecord
  2
*D7
  0
BLOCK_RECORD
  5
20BB
330
1
100
AcDbSymbolTableRecord
100
AcDbBlockTableRecord
  2
*D8
  0
BLOCK_RECORD
  5
20D7
330
1
100
AcDbSymbolTableRecord
100
AcDbBlockTableRecord
  2
*D9
  0
BLOCK_RECORD
  5
20E4
330
1
100
AcDbSymbolTableRecord
100
AcDbBlockTableRecord
  2
*D10
  0
BLOCK_RECORD
  5
20F1
330
1
100
AcDbSymbolTableRecord
100
AcDbBlockTableRecord
  2
*D11
  0
BLOCK_RECORD
  5
20FE
330
1
100
AcDbSymbolTableRecord
100
AcDbBlockTableRecord
  2
*D12
  0
BLOCK_RECORD
  5
210D
330
1
100
AcDbSymbolTableRecord
100
AcDbBlockTableRecord
  2
*D13
  0
BLOCK_RECORD
  5
211A
330
1
100
AcDbSymbolTableRecord
100
AcDbBlockTableRecord
  2
*D14
  0
BLOCK_RECORD
  5
2127
330
1
100
AcDbSymbolTableRecord
100
AcDbBlockTableRecord
  2
*D15
  0
BLOCK_RECORD
  5
2141
330
1
100
AcDbSymbolTableRecord
100
AcDbBlockTableRecord
  2
*D16
  0
BLOCK_RECORD
  5
214E
330
1
100
AcDbSymbolTableRecord
100
AcDbBlockTableRecord
  2
*D17
  0
BLOCK_RECORD
  5
215B
330
1
100
AcDbSymbolTableRecord
100
AcDbBlockTableRecord
  2
*D18
  0
BLOCK_RECORD
  5
2168
330
1
100
AcDbSymbolTableRecord
100
AcDbBlockTableRecord
  2
*D19
  0
BLOCK_RECORD
  5
2177
330
1
100
AcDbSymbolTableRecord
100
AcDbBlockTableRecord
  2
*D20
  0
BLOCK_RECORD
  5
2184
330
1
100
AcDbSymbolTableRecord
100
AcDbBlockTableRecord
  2
*D21
  0
BLOCK_RECORD
  5
2193
330
1
100
AcDbSymbolTableRecord
100
AcDbBlockTableRecord
  2
*D22
  0
BLOCK_RECORD
  5
2302
330
1
100
AcDbSymbolTableRecord
100
AcDbBlockTableRecord
  2
*D23
  0
BLOCK_RECORD
  5
2313
330
1
100
AcDbSymbolTableRecord
100
AcDbBlockTableRecord
  2
*D24
  0
BLOCK_RECORD
  5
2322
330
1
100
AcDbSymbolTableRecord
100
AcDbBlockTableRecord
  2
*D25
  0
BLOCK_RECORD
  5
232F
330
1
100
AcDbSymbolTableRecord
100
AcDbBlockTableRecord
  2
*D26
  0
BLOCK_RECORD
  5
233C
330
1
100
AcDbSymbolTableRecord
100
AcDbBlockTableRecord
  2
*D27
  0
BLOCK_RECORD
  5
2349
330
1
100
AcDbSymbolTableRecord
100
AcDbBlockTableRecord
  2
*D28
  0
BLOCK_RECORD
  5
2532
330
1
100
AcDbSymbolTableRecord
100
AcDbBlockTableRecord
  2
*D29
  0
ENDTAB
  0
ENDSEC
  0
SECTION
  2
BLOCKS
  0
BLOCK
  5
20
330
1F
100
AcDbEntity
  8
0
100
AcDbBlockBegin
  2
*MODEL_SPACE
 70
     0
 10
0.0
 20
0.0
 30
0.0
  3
*MODEL_SPACE
  1

  0
ENDBLK
  5
21
330
1F
100
AcDbEntity
  8
0
100
AcDbBlockEnd
  0
BLOCK
  5
1C
330
1B
100
AcDbEntity
 67
     1
  8
0
100
AcDbBlockBegin
  2
*PAPER_SPACE
 70
     0
 10
0.0
 20
0.0
 30
0.0
  3
*PAPER_SPACE
  1

  0
ENDBLK
  5
1D
330
1B
100
AcDbEntity
 67
     1
  8
0
100
AcDbBlockEnd
  0
BLOCK
  5
195
330
192
100
AcDbEntity
  8
0
100
AcDbBlockBegin
  2
_DOT
 70
     0
 10
0.0
 20
0.0
 30
0.0
  3
_DOT
  1

  0
POLYLINE
  5
193
330
192
100
AcDbEntity
  8
0
 62
     0
100
AcDb2dPolyline
 66
     1
 10
0.0
 20
0.0
 30
0.0
 70
     1
 40
0.5
 41
0.5
  0
VERTEX
  5
282E
330
193
100
AcDbEntity
  8
0
 62
     0
100
AcDbVertex
100
AcDb2dVertex
 10
-0.25
 20
0.0
 30
0.0
 42
1.0
  0
VERTEX
  5
282F
330
193
100
AcDbEntity
  8
0
 62
     0
100
AcDbVertex
100
AcDb2dVertex
 10
0.25
 20
0.0
 30
0.0
 42
1.0
  0
SEQEND
  5
2830
330
193
100
AcDbEntity
  8
0
 62
     0
  0
LINE
  5
194
330
192
100
AcDbEntity
  8
0
 62
     0
100
AcDbLine
 10
-0.5
 20
0.0
 30
0.0
 11
-1.0
 21
0.0
 31
0.0
  0
ENDBLK
  5
196
330
192
100
AcDbEntity
  8
0
100
AcDbBlockEnd
  0
BLOCK
  5
5D1
330
5CE
100
AcDbEntity
  8
0
100
AcDbBlockBegin
  2
A4
 70
     0
 10
0.0
 20
0.0
 30
0.0
  3
A4
  1

  0
POLYLINE
  5
5CF
330
5CE
100
AcDbEntity
  8
HOJO
100
AcDb2dPolyline
 66
     1
 10
0.0
 20
0.0
 30
0.0
 70
     1
  0
VERTEX
  5
2831
330
5CF
100
AcDbEntity
  8
HOJO
100
AcDbVertex
100
AcDb2dVertex
 10
0.0
 20
0.0
 30
0.0
  0
VERTEX
  5
2832
330
5CF
100
AcDbEntity
  8
HOJO
100
AcDbVertex
100
AcDb2dVertex
 10
297.0
 20
0.0
 30
0.0
  0
VERTEX
  5
2833
330
5CF
100
AcDbEntity
  8
HOJO
100
AcDbVertex
100
AcDb2dVertex
 10
297.0
 20
210.0
 30
0.0
  0
VERTEX
  5
2834
330
5CF
100
AcDbEntity
  8
HOJO
100
AcDbVertex
100
AcDb2dVertex
 10
0.0
 20
210.0
 30
0.0
  0
SEQEND
  5
2835
330
5CF
100
AcDbEntity
  8
HOJO
  0
POLYLINE
  5
5D0
330
5CE
100
AcDbEntity
  8
HOJO
100
AcDb2dPolyline
 66
     1
 10
0.0
 20
0.0
 30
0.0
 70
     1
  0
VERTEX
  5
2836
330
5D0
100
AcDbEntity
  8
HOJO
100
AcDbVertex
100
AcDb2dVertex
 10
18.0
 20
13.0
 30
0.0
  0
VERTEX
  5
2837
330
5D0
100
AcDbEntity
  8
HOJO
100
AcDbVertex
100
AcDb2dVertex
 10
279.0
 20
13.0
 30
0.0
  0
VERTEX
  5
2838
330
5D0
100
AcDbEntity
  8
HOJO
100
AcDbVertex
100
AcDb2dVertex
 10
279.0
 20
197.0
 30
0.0
  0
VERTEX
  5
2839
330
5D0
100
AcDbEntity
  8
HOJO
100
AcDbVertex
100
AcDb2dVertex
 10
18.0
 20
197.0
 30
0.0
  0
SEQEND
  5
283A
330
5D0
100
AcDbEntity
  8
HOJO
  0
ENDBLK
  5
5D2
330
5CE
100
AcDbEntity
  8
0
100
AcDbBlockEnd
  0
BLOCK
  5
63A
330
636
100
AcDbEntity
  8
0
100
AcDbBlockBegin
  2
_OPEN90
 70
     0
 10
0.0
 20
0.0
 30
0.0
  3
_OPEN90
  1

  0
LINE
  5
637
330
636
100
AcDbEntity
  8
SUNPO
 62
     0
100
AcDbLine
 10
-0.5
 20
0.5
 30
0.0
 11
0.0
 21
0.0
 31
0.0
  0
LINE
  5
638
330
636
100
AcDbEntity
  8
SUNPO
 62
     0
100
AcDbLine
 10
0.0
 20
0.0
 30
0.0
 11
-0.5
 21
-0.5
 31
0.0
  0
LINE
  5
639
330
636
100
AcDbEntity
  8
SUNPO
 62
     0
100
AcDbLine
 10
0.0
 20
0.0
 30
0.0
 11
-1.0
 21
0.0
 31
0.0
  0
ENDBLK
  5
63B
330
636
100
AcDbEntity
  8
0
100
AcDbBlockEnd
  0
BLOCK
  5
640
330
63C
100
AcDbEntity
  8
0
100
AcDbBlockBegin
  2
_OPEN30
 70
     0
 10
0.0
 20
0.0
 30
0.0
  3
_OPEN30
  1

  0
LINE
  5
63D
330
63C
100
AcDbEntity
  8
SUNPO
 62
     0
100
AcDbLine
 10
-1.0
 20
0.26794919
 30
0.0
 11
0.0
 21
0.0
 31
0.0
  0
LINE
  5
63E
330
63C
100
AcDbEntity
  8
SUNPO
 62
     0
100
AcDbLine
 10
0.0
 20
0.0
 30
0.0
 11
-1.0
 21
-0.26794919
 31
0.0
  0
LINE
  5
63F
330
63C
100
AcDbEntity
  8
SUNPO
 62
     0
100
AcDbLine
 10
0.0
 20
0.0
 30
0.0
 11
-1.0
 21
0.0
 31
0.0
  0
ENDBLK
  5
641
330
63C
100
AcDbEntity
  8
0
100
AcDbBlockEnd
  0
BLOCK
  5
FDE
330
FDC
100
AcDbEntity
  8
0
100
AcDbBlockBegin
  2
_DATUMFILLED
 70
     0
 10
0.0
 20
0.0
 30
0.0
  3
_DATUMFILLED
  1

  0
SOLID
  5
FDD
330
FDC
100
AcDbEntity
  8
MOJI
 62
     0
100
AcDbTrace
 10
0.0
 20
0.5773502700000001
 30
0.0
 11
-1.0
 21
0.0
 31
0.0
 12
0.0
 22
-0.5773502700000001
 32
0.0
 13
0.0
 23
-0.5773502700000001
 33
0.0
  0
ENDBLK
  5
FDF
330
FDC
100
AcDbEntity
  8
0
100
AcDbBlockEnd
  0
BLOCK
  5
2093
330
2089
100
AcDbEntity
  8
0
100
AcDbBlockBegin
  2
*D5
 70
     1
 10
0.0
 20
0.0
 30
0.0
  3
*D5
  1

  0
LINE
  5
22F8
330
2089
100
AcDbEntity
  8
SUNPO
 62
   144
100
AcDbLine
 10
1690.0
 20
3229.0
 30
0.0
 11
1690.0
 21
3510.0
 31
0.0
  0
LINE
  5
22F9
330
2089
100
AcDbEntity
  8
SUNPO
 62
   144
100
AcDbLine
 10
2310.0
 20
3229.0
 30
0.0
 11
2310.0
 21
3510.0
 31
0.0
  0
LINE
  5
22FA
330
2089
100
AcDbEntity
  8
SUNPO
 62
   144
100
AcDbLine
 10
1718.0
 20
3500.0
 30
0.0
 11
2282.0
 21
3500.0
 31
0.0
  0
SOLID
  5
22FB
330
2089
100
AcDbEntity
  8
SUNPO
 62
   144
100
AcDbTrace
 10
1718.0
 20
3504.666666666667
 30
0.0
 11
1718.0
 21
3495.333333333333
 31
0.0
 12
1690.0
 22
3500.0
 32
0.0
 13
1690.0
 23
3500.0
 33
0.0
  0
SOLID
  5
22FC
330
2089
100
AcDbEntity
  8
SUNPO
 62
   144
100
AcDbTrace
 10
2282.0
 20
3504.666666666667
 30
0.0
 11
2282.0
 21
3495.333333333333
 31
0.0
 12
2310.0
 22
3500.0
 32
0.0
 13
2310.0
 23
3500.0
 33
0.0
  0
MTEXT
  5
22FD
330
2089
100
AcDbEntity
  8
SUNPO
 62
     7
100
AcDbMText
 10
2000.0
 20
3530.499999999999
 30
0.0
 40
36.0
 41
0.0
 71
     5
 72
     1
  1
\A2;620
  7
ADD
1001
ACAD
1000
MTEXTBEGIN
1070
    73
1070
     1
1070
    44
1040
1.0
1070
    74
1070
     0
1000
MTEXTEND
1000
MTEXTBEGIN
1070
    73
1070
     1
1070
    44
1040
1.0
1070
    74
1070
     0
1000
MTEXTEND
1000
MTEXTBEGIN
1070
    73
1070
     1
1070
    44
1040
1.0
1070
    74
1070
     0
1000
MTEXTEND
1000
MTEXTBEGIN
1070
    73
1070
     1
1070
    44
1040
1.0
1070
    74
1070
     0
1000
MTEXTEND
1000
MTEXTBEGIN
1070
    73
1070
     1
1070
    44
1040
1.0
1070
    74
1070
     0
1000
MTEXTEND
1000
MTEXTBEGIN
1070
    73
1070
     1
1070
    44
1040
1.0
1070
    74
1070
     0
1000
MTEXTEND
  0
POINT
  5
22FE
330
2089
100
AcDbEntity
  8
DEFPOINTS
 62
     0
100
AcDbPoint
 10
1690.0
 20
3209.0
 30
0.0
  0
POINT
  5
22FF
330
2089
100
AcDbEntity
  8
DEFPOINTS
 62
     0
100
AcDbPoint
 10
2310.0
 20
3208.999999999999
 30
0.0
  0
POINT
  5
2300
330
2089
100
AcDbEntity
  8
DEFPOINTS
 62
     0
100
AcDbPoint
 10
2310.0
 20
3500.0
 30
0.0
  0
ENDBLK
  5
2094
330
2089
100
AcDbEntity
  8
0
100
AcDbBlockEnd
  0
BLOCK
  5
20AB
330
209F
100
AcDbEntity
  8
0
100
AcDbBlockBegin
  2
*D6
 70
     1
 10
0.0
 20
0.0
 30
0.0
  3
*D6
  1

  0
LINE
  5
23C3
330
209F
100
AcDbEntity
  8
SUNPO
 62
   144
100
AcDbLine
 10
1689.999999999999
 20
2289.0
 30
0.0
 11
1689.999999999999
 21
2140.0
 31
0.0
  0
LINE
  5
23C4
330
209F
100
AcDbEntity
  8
SUNPO
 62
   144
100
AcDbLine
 10
1799.999999999999
 20
2289.0
 30
0.0
 11
1799.999999999999
 21
2140.0
 31
0.0
  0
LINE
  5
23C5
330
209F
100
AcDbEntity
  8
SUNPO
 62
   144
100
AcDbLine
 10
1661.999999999999
 20
2150.0
 30
0.0
 11
1633.999999999999
 21
2150.0
 31
0.0
  0
LINE
  5
23C6
330
209F
100
AcDbEntity
  8
SUNPO
 62
   144
100
AcDbLine
 10
1827.999999999999
 20
2150.0
 30
0.0
 11
1855.999999999999
 21
2150.0
 31
0.0
  0
LINE
  5
23C7
330
209F
100
AcDbEntity
  8
SUNPO
 62
   144
100
AcDbLine
 10
1689.999999999999
 20
2150.0
 30
0.0
 11
1799.999999999999
 21
2150.0
 31
0.0
  0
SOLID
  5
23C8
330
209F
100
AcDbEntity
  8
SUNPO
 62
   144
100
AcDbTrace
 10
1661.999999999999
 20
2154.666666666666
 30
0.0
 11
1661.999999999999
 21
2145.333333333333
 31
0.0
 12
1689.999999999999
 22
2150.0
 32
0.0
 13
1689.999999999999
 23
2150.0
 33
0.0
  0
SOLID
  5
23C9
330
209F
100
AcDbEntity
  8
SUNPO
 62
   144
100
AcDbTrace
 10
1827.999999999999
 20
2154.666666666666
 30
0.0
 11
1827.999999999999
 21
2145.333333333333
 31
0.0
 12
1799.999999999999
 22
2150.0
 32
0.0
 13
1799.999999999999
 23
2150.0
 33
0.0
  0
MTEXT
  5
23CA
330
209F
100
AcDbEntity
  8
SUNPO
 62
     7
100
AcDbMText
 10
1745.0
 20
2180.499999999999
 30
0.0
 40
36.0
 41
0.0
 71
     5
 72
     1
  1
\A2;110
  7
ADD
1001
ACAD
1000
MTEXTBEGIN
1070
    73
1070
     1
1070
    44
1040
1.0
1070
    74
1070
     0
1000
MTEXTEND
1000
MTEXTBEGIN
1070
    73
1070
     1
1070
    44
1040
1.0
1070
    74
1070
     0
1000
MTEXTEND
1000
MTEXTBEGIN
1070
    73
1070
     1
1070
    44
1040
1.0
1070
    74
1070
     0
1000
MTEXTEND
1000
MTEXTBEGIN
1070
    73
1070
     1
1070
    44
1040
1.0
1070
    74
1070
     0
1000
MTEXTEND
1000
MTEXTBEGIN
1070
    73
1070
     1
1070
    44
1040
1.0
1070
    74
1070
     0
1000
MTEXTEND
1000
MTEXTBEGIN
1070
    73
1070
     1
1070
    44
1040
1.0
1070
    74
1070
     0
1000
MTEXTEND
  0
POINT
  5
23CB
330
209F
100
AcDbEntity
  8
DEFPOINTS
 62
     0
100
AcDbPoint
 10
1689.999999999999
 20
2309.0
 30
0.0
  0
POINT
  5
23CC
330
209F
100
AcDbEntity
  8
DEFPOINTS
 62
     0
100
AcDbPoint
 10
1799.999999999999
 20
2309.0
 30
0.0
  0
POINT
  5
23CD
330
209F
100
AcDbEntity
  8
DEFPOINTS
 62
     0
100
AcDbPoint
 10
1799.999999999999
 20
2150.0
 30
0.0
  0
ENDBLK
  5
20AC
330
209F
100
AcDbEntity
  8
0
100
AcDbBlockEnd
  0
BLOCK
  5
20B8
330
20AE
100
AcDbEntity
  8
0
100
AcDbBlockBegin
  2
*D7
 70
     1
 10
0.0
 20
0.0
 30
0.0
  3
*D7
  1

  0
LINE
  5
23BA
330
20AE
100
AcDbEntity
  8
SUNPO
 62
   144
100
AcDbLine
 10
1799.999999999999
 20
2289.0
 30
0.0
 11
1799.999999999999
 21
2140.0
 31
0.0
  0
LINE
  5
23BB
330
20AE
100
AcDbEntity
  8
SUNPO
 62
   144
100
AcDbLine
 10
2200.0
 20
2289.0
 30
0.0
 11
2200.0
 21
2140.0
 31
0.0
  0
LINE
  5
23BC
330
20AE
100
AcDbEntity
  8
SUNPO
 62
   144
100
AcDbLine
 10
1827.999999999999
 20
2150.0
 30
0.0
 11
2172.0
 21
2150.0
 31
0.0
  0
SOLID
  5
23BD
330
20AE
100
AcDbEntity
  8
SUNPO
 62
   144
100
AcDbTrace
 10
1827.999999999999
 20
2154.666666666666
 30
0.0
 11
1827.999999999999
 21
2145.333333333333
 31
0.0
 12
1799.999999999999
 22
2150.0
 32
0.0
 13
1799.999999999999
 23
2150.0
 33
0.0
  0
SOLID
  5
23BE
330
20AE
100
AcDbEntity
  8
SUNPO
 62
   144
100
AcDbTrace
 10
2172.0
 20
2154.666666666666
 30
0.0
 11
2172.0
 21
2145.333333333333
 31
0.0
 12
2200.0
 22
2150.0
 32
0.0
 13
2200.0
 23
2150.0
 33
0.0
  0
MTEXT
  5
23BF
330
20AE
100
AcDbEntity
  8
SUNPO
 62
     7
100
AcDbMText
 10
2000.0
 20
2180.499999999999
 30
0.0
 40
36.0
 41
0.0
 71
     5
 72
     1
  1
\A2;400
  7
ADD
1001
ACAD
1000
MTEXTBEGIN
1070
    73
1070
     1
1070
    44
1040
1.0
1070
    74
1070
     0
1000
MTEXTEND
1000
MTEXTBEGIN
1070
    73
1070
     1
1070
    44
1040
1.0
1070
    74
1070
     0
1000
MTEXTEND
1000
MTEXTBEGIN
1070
    73
1070
     1
1070
    44
1040
1.0
1070
    74
1070
     0
1000
MTEXTEND
1000
MTEXTBEGIN
1070
    73
1070
     1
1070
    44
1040
1.0
1070
    74
1070
     0
1000
MTEXTEND
1000
MTEXTBEGIN
1070
    73
1070
     1
1070
    44
1040
1.0
1070
    74
1070
     0
1000
MTEXTEND
1000
MTEXTBEGIN
1070
    73
1070
     1
1070
    44
1040
1.0
1070
    74
1070
     0
1000
MTEXTEND
  0
POINT
  5
23C0
330
20AE
100
AcDbEntity
  8
DEFPOINTS
 62
     0
100
AcDbPoint
 10
1799.999999999999
 20
2309.0
 30
0.0
  0
POINT
  5
23C1
330
20AE
100
AcDbEntity
  8
DEFPOINTS
 62
     0
100
AcDbPoint
 10
2200.0
 20
2309.0
 30
0.0
  0
POINT
  5
23C2
330
20AE
100
AcDbEntity
  8
DEFPOINTS
 62
     0
100
AcDbPoint
 10
2200.0
 20
2150.0
 30
0.0
  0
ENDBLK
  5
20B9
330
20AE
100
AcDbEntity
  8
0
100
AcDbBlockEnd
  0
BLOCK
  5
20C7
330
20BB
100
AcDbEntity
  8
0
100
AcDbBlockBegin
  2
*D8
 70
     1
 10
0.0
 20
0.0
 30
0.0
  3
*D8
  1

  0
LINE
  5
23AF
330
20BB
100
AcDbEntity
  8
SUNPO
 62
   144
100
AcDbLine
 10
2200.0
 20
2289.0
 30
0.0
 11
2200.0
 21
2140.0
 31
0.0
  0
LINE
  5
23B0
330
20BB
100
AcDbEntity
  8
SUNPO
 62
   144
100
AcDbLine
 10
2310.0
 20
2289.0
 30
0.0
 11
2310.0
 21
2140.0
 31
0.0
  0
LINE
  5
23B1
330
20BB
100
AcDbEntity
  8
SUNPO
 62
   144
100
AcDbLine
 10
2172.0
 20
2150.0
 30
0.0
 11
2144.0
 21
2150.0
 31
0.0
  0
LINE
  5
23B2
330
20BB
100
AcDbEntity
  8
SUNPO
 62
   144
100
AcDbLine
 10
2338.0
 20
2150.0
 30
0.0
 11
2366.0
 21
2150.0
 31
0.0
  0
LINE
  5
23B3
330
20BB
100
AcDbEntity
  8
SUNPO
 62
   144
100
AcDbLine
 10
2200.0
 20
2150.0
 30
0.0
 11
2310.0
 21
2150.0
 31
0.0
  0
SOLID
  5
23B4
330
20BB
100
AcDbEntity
  8
SUNPO
 62
   144
100
AcDbTrace
 10
2172.0
 20
2154.666666666666
 30
0.0
 11
2172.0
 21
2145.333333333333
 31
0.0
 12
2200.0
 22
2150.0
 32
0.0
 13
2200.0
 23
2150.0
 33
0.0
  0
SOLID
  5
23B5
330
20BB
100
AcDbEntity
  8
SUNPO
 62
   144
100
AcDbTrace
 10
2338.0
 20
2154.666666666666
 30
0.0
 11
2338.0
 21
2145.333333333333
 31
0.0
 12
2310.0
 22
2150.0
 32
0.0
 13
2310.0
 23
2150.0
 33
0.0
  0
MTEXT
  5
23B6
330
20BB
100
AcDbEntity
  8
SUNPO
 62
     7
100
AcDbMText
 10
2255.0
 20
2180.499999999999
 30
0.0
 40
36.0
 41
0.0
 71
     5
 72
     1
  1
\A2;110
  7
ADD
1001
ACAD
1000
MTEXTBEGIN
1070
    73
1070
     1
1070
    44
1040
1.0
1070
    74
1070
     0
1000
MTEXTEND
1000
MTEXTBEGIN
1070
    73
1070
     1
1070
    44
1040
1.0
1070
    74
1070
     0
1000
MTEXTEND
1000
MTEXTBEGIN
1070
    73
1070
     1
1070
    44
1040
1.0
1070
    74
1070
     0
1000
MTEXTEND
1000
MTEXTBEGIN
1070
    73
1070
     1
1070
    44
1040
1.0
1070
    74
1070
     0
1000
MTEXTEND
1000
MTEXTBEGIN
1070
    73
1070
     1
1070
    44
1040
1.0
1070
    74
1070
     0
1000
MTEXTEND
1000
MTEXTBEGIN
1070
    73
1070
     1
1070
    44
1040
1.0
1070
    74
1070
     0
1000
MTEXTEND
  0
POINT
  5
23B7
330
20BB
100
AcDbEntity
  8
DEFPOINTS
 62
     0
100
AcDbPoint
 10
2200.0
 20
2309.0
 30
0.0
  0
POINT
  5
23B8
330
20BB
100
AcDbEntity
  8
DEFPOINTS
 62
     0
100
AcDbPoint
 10
2310.0
 20
2309.0
 30
0.0
  0
POINT
  5
23B9
330
20BB
100
AcDbEntity
  8
DEFPOINTS
 62
     0
100
AcDbPoint
 10
2310.0
 20
2150.0
 30
0.0
  0
ENDBLK
  5
20C8
330
20BB
100
AcDbEntity
  8
0
100
AcDbBlockEnd
  0
BLOCK
  5
20E1
330
20D7
100
AcDbEntity
  8
0
100
AcDbBlockBegin
  2
*D9
 70
     1
 10
0.0
 20
0.0
 30
0.0
  3
*D9
  1

  0
LINE
  5
23A6
330
20D7
100
AcDbEntity
  8
SUNPO
 62
   144
100
AcDbLine
 10
2330.0
 20
2309.0
 30
0.0
 11
2460.0
 21
2309.0
 31
0.0
  0
LINE
  5
23A7
330
20D7
100
AcDbEntity
  8
SUNPO
 62
   144
100
AcDbLine
 10
2330.0
 20
2459.0
 30
0.0
 11
2460.0
 21
2459.0
 31
0.0
  0
LINE
  5
23A8
330
20D7
100
AcDbEntity
  8
SUNPO
 62
   144
100
AcDbLine
 10
2450.0
 20
2337.0
 30
0.0
 11
2450.0
 21
2431.0
 31
0.0
  0
SOLID
  5
23A9
330
20D7
100
AcDbEntity
  8
SUNPO
 62
   144
100
AcDbTrace
 10
2445.333333333334
 20
2337.0
 30
0.0
 11
2454.666666666666
 21
2337.0
 31
0.0
 12
2450.0
 22
2309.0
 32
0.0
 13
2450.0
 23
2309.0
 33
0.0
  0
SOLID
  5
23AA
330
20D7
100
AcDbEntity
  8
SUNPO
 62
   144
100
AcDbTrace
 10
2445.333333333334
 20
2431.0
 30
0.0
 11
2454.666666666666
 21
2431.0
 31
0.0
 12
2450.0
 22
2459.0
 32
0.0
 13
2450.0
 23
2459.0
 33
0.0
  0
MTEXT
  5
23AB
330
20D7
100
AcDbEntity
  8
SUNPO
 62
     7
100
AcDbMText
 10
2419.499999999999
 20
2384.0
 30
0.0
 40
36.0
 41
0.0
 71
     5
 72
     1
  1
\A2;150
  7
ADD
 11
0.0000000000000001
 21
1.0
 31
0.0
1001
ACAD
1000
MTEXTBEGIN
1070
    73
1070
     1
1070
    44
1040
1.0
1070
    74
1070
     0
1000
MTEXTEND
1000
MTEXTBEGIN
1070
    73
1070
     1
1070
    44
1040
1.0
1070
    74
1070
     0
1000
MTEXTEND
1000
MTEXTBEGIN
1070
    73
1070
     1
1070
    44
1040
1.0
1070
    74
1070
     0
1000
MTEXTEND
1000
MTEXTBEGIN
1070
    73
1070
     1
1070
    44
1040
1.0
1070
    74
1070
     0
1000
MTEXTEND
1000
MTEXTBEGIN
1070
    73
1070
     1
1070
    44
1040
1.0
1070
    74
1070
     0
1000
MTEXTEND
1000
MTEXTBEGIN
1070
    73
1070
     1
1070
    44
1040
1.0
1070
    74
1070
     0
1000
MTEXTEND
  0
POINT
  5
23AC
330
20D7
100
AcDbEntity
  8
DEFPOINTS
 62
     0
100
AcDbPoint
 10
2310.0
 20
2309.0
 30
0.0
  0
POINT
  5
23AD
330
20D7
100
AcDbEntity
  8
DEFPOINTS
 62
     0
100
AcDbPoint
 10
2310.0
 20
2459.0
 30
0.0
  0
POINT
  5
23AE
330
20D7
100
AcDbEntity
  8
DEFPOINTS
 62
     0
100
AcDbPoint
 10
2450.0
 20
2459.0
 30
0.0
  0
ENDBLK
  5
20E2
330
20D7
100
AcDbEntity
  8
0
100
AcDbBlockEnd
  0
BLOCK
  5
20EE
330
20E4
100
AcDbEntity
  8
0
100
AcDbBlockBegin
  2
*D10
 70
     1
 10
0.0
 20
0.0
 30
0.0
  3
*D10
  1

  0
LINE
  5
239D
330
20E4
100
AcDbEntity
  8
SUNPO
 62
   144
100
AcDbLine
 10
2330.0
 20
2459.0
 30
0.0
 11
2460.0
 21
2459.0
 31
0.0
  0
LINE
  5
239E
330
20E4
100
AcDbEntity
  8
SUNPO
 62
   144
100
AcDbLine
 10
2330.0
 20
2609.0
 30
0.0
 11
2460.0
 21
2609.0
 31
0.0
  0
LINE
  5
239F
330
20E4
100
AcDbEntity
  8
SUNPO
 62
   144
100
AcDbLine
 10
2450.0
 20
2487.0
 30
0.0
 11
2450.0
 21
2581.0
 31
0.0
  0
SOLID
  5
23A0
330
20E4
100
AcDbEntity
  8
SUNPO
 62
   144
100
AcDbTrace
 10
2445.333333333334
 20
2487.0
 30
0.0
 11
2454.666666666666
 21
2487.0
 31
0.0
 12
2450.0
 22
2459.0
 32
0.0
 13
2450.0
 23
2459.0
 33
0.0
  0
SOLID
  5
23A1
330
20E4
100
AcDbEntity
  8
SUNPO
 62
   144
100
AcDbTrace
 10
2445.333333333334
 20
2581.0
 30
0.0
 11
2454.666666666666
 21
2581.0
 31
0.0
 12
2450.0
 22
2609.0
 32
0.0
 13
2450.0
 23
2609.0
 33
0.0
  0
MTEXT
  5
23A2
330
20E4
100
AcDbEntity
  8
SUNPO
 62
     7
100
AcDbMText
 10
2419.499999999999
 20
2534.0
 30
0.0
 40
36.0
 41
0.0
 71
     5
 72
     1
  1
\A2;150
  7
ADD
 11
0.0000000000000001
 21
1.0
 31
0.0
1001
ACAD
1000
MTEXTBEGIN
1070
    73
1070
     1
1070
    44
1040
1.0
1070
    74
1070
     0
1000
MTEXTEND
1000
MTEXTBEGIN
1070
    73
1070
     1
1070
    44
1040
1.0
1070
    74
1070
     0
1000
MTEXTEND
1000
MTEXTBEGIN
1070
    73
1070
     1
1070
    44
1040
1.0
1070
    74
1070
     0
1000
MTEXTEND
1000
MTEXTBEGIN
1070
    73
1070
     1
1070
    44
1040
1.0
1070
    74
1070
     0
1000
MTEXTEND
1000
MTEXTBEGIN
1070
    73
1070
     1
1070
    44
1040
1.0
1070
    74
1070
     0
1000
MTEXTEND
1000
MTEXTBEGIN
1070
    73
1070
     1
1070
    44
1040
1.0
1070
    74
1070
     0
1000
MTEXTEND
  0
POINT
  5
23A3
330
20E4
100
AcDbEntity
  8
DEFPOINTS
 62
     0
100
AcDbPoint
 10
2310.0
 20
2459.0
 30
0.0
  0
POINT
  5
23A4
330
20E4
100
AcDbEntity
  8
DEFPOINTS
 62
     0
100
AcDbPoint
 10
2310.0
 20
2609.0
 30
0.0
  0
POINT
  5
23A5
330
20E4
100
AcDbEntity
  8
DEFPOINTS
 62
     0
100
AcDbPoint
 10
2450.0
 20
2609.0
 30
0.0
  0
ENDBLK
  5
20EF
330
20E4
100
AcDbEntity
  8
0
100
AcDbBlockEnd
  0
BLOCK
  5
20FB
330
20F1
100
AcDbEntity
  8
0
100
AcDbBlockBegin
  2
*D11
 70
     1
 10
0.0
 20
0.0
 30
0.0
  3
*D11
  1

  0
LINE
  5
2394
330
20F1
100
AcDbEntity
  8
SUNPO
 62
   144
100
AcDbLine
 10
2330.0
 20
2609.0
 30
0.0
 11
2460.0
 21
2609.0
 31
0.0
  0
LINE
  5
2395
330
20F1
100
AcDbEntity
  8
SUNPO
 62
   144
100
AcDbLine
 10
2330.0
 20
3109.0
 30
0.0
 11
2460.0
 21
3109.0
 31
0.0
  0
LINE
  5
2396
330
20F1
100
AcDbEntity
  8
SUNPO
 62
   144
100
AcDbLine
 10
2450.0
 20
2637.0
 30
0.0
 11
2450.0
 21
3081.0
 31
0.0
  0
SOLID
  5
2397
330
20F1
100
AcDbEntity
  8
SUNPO
 62
   144
100
AcDbTrace
 10
2445.333333333334
 20
2637.0
 30
0.0
 11
2454.666666666666
 21
2637.0
 31
0.0
 12
2450.0
 22
2609.0
 32
0.0
 13
2450.0
 23
2609.0
 33
0.0
  0
SOLID
  5
2398
330
20F1
100
AcDbEntity
  8
SUNPO
 62
   144
100
AcDbTrace
 10
2445.333333333334
 20
3081.0
 30
0.0
 11
2454.666666666667
 21
3081.0
 31
0.0
 12
2450.0
 22
3109.0
 32
0.0
 13
2450.0
 23
3109.0
 33
0.0
  0
MTEXT
  5
2399
330
20F1
100
AcDbEntity
  8
SUNPO
 62
     7
100
AcDbMText
 10
2419.499999999999
 20
2859.0
 30
0.0
 40
36.0
 41
0.0
 71
     5
 72
     1
  1
\A2;500
  7
ADD
 11
0.0000000000000001
 21
1.0
 31
0.0
1001
ACAD
1000
MTEXTBEGIN
1070
    73
1070
     1
1070
    44
1040
1.0
1070
    74
1070
     0
1000
MTEXTEND
1000
MTEXTBEGIN
1070
    73
1070
     1
1070
    44
1040
1.0
1070
    74
1070
     0
1000
MTEXTEND
1000
MTEXTBEGIN
1070
    73
1070
     1
1070
    44
1040
1.0
1070
    74
1070
     0
1000
MTEXTEND
1000
MTEXTBEGIN
1070
    73
1070
     1
1070
    44
1040
1.0
1070
    74
1070
     0
1000
MTEXTEND
1000
MTEXTBEGIN
1070
    73
1070
     1
1070
    44
1040
1.0
1070
    74
1070
     0
1000
MTEXTEND
1000
MTEXTBEGIN
1070
    73
1070
     1
1070
    44
1040
1.0
1070
    74
1070
     0
1000
MTEXTEND
  0
POINT
  5
239A
330
20F1
100
AcDbEntity
  8
DEFPOINTS
 62
     0
100
AcDbPoint
 10
2310.0
 20
2609.0
 30
0.0
  0
POINT
  5
239B
330
20F1
100
AcDbEntity
  8
DEFPOINTS
 62
     0
100
AcDbPoint
 10
2310.0
 20
3109.0
 30
0.0
  0
POINT
  5
239C
330
20F1
100
AcDbEntity
  8
DEFPOINTS
 62
     0
100
AcDbPoint
 10
2450.0
 20
3109.0
 30
0.0
  0
ENDBLK
  5
20FC
330
20F1
100
AcDbEntity
  8
0
100
AcDbBlockEnd
  0
BLOCK
  5
210A
330
20FE
100
AcDbEntity
  8
0
100
AcDbBlockBegin
  2
*D12
 70
     1
 10
0.0
 20
0.0
 30
0.0
  3
*D12
  1

  0
LINE
  5
22ED
330
20FE
100
AcDbEntity
  8
SUNPO
 62
   144
100
AcDbLine
 10
2330.0
 20
3109.0
 30
0.0
 11
2460.0
 21
3109.0
 31
0.0
  0
LINE
  5
22EE
330
20FE
100
AcDbEntity
  8
SUNPO
 62
   144
100
AcDbLine
 10
2330.0
 20
3209.0
 30
0.0
 11
2460.0
 21
3209.0
 31
0.0
  0
LINE
  5
22EF
330
20FE
100
AcDbEntity
  8
SUNPO
 62
   144
100
AcDbLine
 10
2450.0
 20
3081.0
 30
0.0
 11
2449.999999999999
 21
3053.0
 31
0.0
  0
LINE
  5
22F0
330
20FE
100
AcDbEntity
  8
SUNPO
 62
   144
100
AcDbLine
 10
2450.0
 20
3237.0
 30
0.0
 11
2450.0
 21
3265.0
 31
0.0
  0
LINE
  5
22F1
330
20FE
100
AcDbEntity
  8
SUNPO
 62
   144
100
AcDbLine
 10
2450.0
 20
3109.0
 30
0.0
 11
2450.0
 21
3209.0
 31
0.0
  0
SOLID
  5
22F2
330
20FE
100
AcDbEntity
  8
SUNPO
 62
   144
100
AcDbTrace
 10
2445.333333333334
 20
3081.0
 30
0.0
 11
2454.666666666666
 21
3081.0
 31
0.0
 12
2450.0
 22
3109.0
 32
0.0
 13
2450.0
 23
3109.0
 33
0.0
  0
SOLID
  5
22F3
330
20FE
100
AcDbEntity
  8
SUNPO
 62
   144
100
AcDbTrace
 10
2445.333333333334
 20
3237.0
 30
0.0
 11
2454.666666666666
 21
3237.0
 31
0.0
 12
2450.0
 22
3209.0
 32
0.0
 13
2450.0
 23
3209.0
 33
0.0
  0
MTEXT
  5
22F4
330
20FE
100
AcDbEntity
  8
SUNPO
 62
     7
100
AcDbMText
 10
2419.499999999999
 20
3159.0
 30
0.0
 40
36.0
 41
0.0
 71
     5
 72
     1
  1
\A2;100
  7
ADD
 11
0.0000000000000001
 21
1.0
 31
0.0
1001
ACAD
1000
MTEXTBEGIN
1070
    73
1070
     1
1070
    44
1040
1.0
1070
    74
1070
     0
1000
MTEXTEND
1000
MTEXTBEGIN
1070
    73
1070
     1
1070
    44
1040
1.0
1070
    74
1070
     0
1000
MTEXTEND
1000
MTEXTBEGIN
1070
    73
1070
     1
1070
    44
1040
1.0
1070
    74
1070
     0
1000
MTEXTEND
1000
MTEXTBEGIN
1070
    73
1070
     1
1070
    44
1040
1.0
1070
    74
1070
     0
1000
MTEXTEND
1000
MTEXTBEGIN
1070
    73
1070
     1
1070
    44
1040
1.0
1070
    74
1070
     0
1000
MTEXTEND
1000
MTEXTBEGIN
1070
    73
1070
     1
1070
    44
1040
1.0
1070
    74
1070
     0
1000
MTEXTEND
  0
POINT
  5
22F5
330
20FE
100
AcDbEntity
  8
DEFPOINTS
 62
     0
100
AcDbPoint
 10
2310.0
 20
3109.0
 30
0.0
  0
POINT
  5
22F6
330
20FE
100
AcDbEntity
  8
DEFPOINTS
 62
     0
100
AcDbPoint
 10
2310.0
 20
3209.0
 30
0.0
  0
POINT
  5
22F7
330
20FE
100
AcDbEntity
  8
DEFPOINTS
 62
     0
100
AcDbPoint
 10
2450.0
 20
3209.0
 30
0.0
  0
ENDBLK
  5
210B
330
20FE
100
AcDbEntity
  8
0
100
AcDbBlockEnd
  0
BLOCK
  5
2117
330
210D
100
AcDbEntity
  8
0
100
AcDbBlockBegin
  2
*D13
 70
     1
 10
0.0
 20
0.0
 30
0.0
  3
*D13
  1

  0
LINE
  5
2404
330
210D
100
AcDbEntity
  8
SUNPO
 62
   144
100
AcDbLine
 10
3550.0
 20
2289.0
 30
0.0
 11
3550.0
 21
2140.0
 31
0.0
  0
LINE
  5
2405
330
210D
100
AcDbEntity
  8
SUNPO
 62
   144
100
AcDbLine
 10
3699.999999999999
 20
2289.0
 30
0.0
 11
3699.999999999999
 21
2140.0
 31
0.0
  0
LINE
  5
2406
330
210D
100
AcDbEntity
  8
SUNPO
 62
   144
100
AcDbLine
 10
3578.0
 20
2150.0
 30
0.0
 11
3672.0
 21
2150.0
 31
0.0
  0
SOLID
  5
2407
330
210D
100
AcDbEntity
  8
SUNPO
 62
   144
100
AcDbTrace
 10
3578.0
 20
2154.666666666666
 30
0.0
 11
3578.0
 21
2145.333333333333
 31
0.0
 12
3550.0
 22
2150.0
 32
0.0
 13
3550.0
 23
2150.0
 33
0.0
  0
SOLID
  5
2408
330
210D
100
AcDbEntity
  8
SUNPO
 62
   144
100
AcDbTrace
 10
3672.0
 20
2154.666666666666
 30
0.0
 11
3672.0
 21
2145.333333333333
 31
0.0
 12
3699.999999999999
 22
2150.0
 32
0.0
 13
3699.999999999999
 23
2150.0
 33
0.0
  0
MTEXT
  5
2409
330
210D
100
AcDbEntity
  8
SUNPO
 62
     7
100
AcDbMText
 10
3625.0
 20
2180.499999999999
 30
0.0
 40
36.0
 41
0.0
 71
     5
 72
     1
  1
\A2;150
  7
ADD
1001
ACAD
1000
MTEXTBEGIN
1070
    73
1070
     1
1070
    44
1040
1.0
1070
    74
1070
     0
1000
MTEXTEND
1000
MTEXTBEGIN
1070
    73
1070
     1
1070
    44
1040
1.0
1070
    74
1070
     0
1000
MTEXTEND
1000
MTEXTBEGIN
1070
    73
1070
     1
1070
    44
1040
1.0
1070
    74
1070
     0
1000
MTEXTEND
1000
MTEXTBEGIN
1070
    73
1070
     1
1070
    44
1040
1.0
1070
    74
1070
     0
1000
MTEXTEND
1000
MTEXTBEGIN
1070
    73
1070
     1
1070
    44
1040
1.0
1070
    74
1070
     0
1000
MTEXTEND
1000
MTEXTBEGIN
1070
    73
1070
     1
1070
    44
1040
1.0
1070
    74
1070
     0
1000
MTEXTEND
  0
POINT
  5
240A
330
210D
100
AcDbEntity
  8
DEFPOINTS
 62
     0
100
AcDbPoint
 10
3550.0
 20
2309.0
 30
0.0
  0
POINT
  5
240B
330
210D
100
AcDbEntity
  8
DEFPOINTS
 62
     0
100
AcDbPoint
 10
3699.999999999999
 20
2309.0
 30
0.0
  0
POINT
  5
240C
330
210D
100
AcDbEntity
  8
DEFPOINTS
 62
     0
100
AcDbPoint
 10
3699.999999999999
 20
2150.0
 30
0.0
  0
ENDBLK
  5
2118
330
210D
100
AcDbEntity
  8
0
100
AcDbBlockEnd
  0
BLOCK
  5
2124
330
211A
100
AcDbEntity
  8
0
100
AcDbBlockBegin
  2
*D14
 70
     1
 10
0.0
 20
0.0
 30
0.0
  3
*D14
  1

  0
LINE
  5
23FB
330
211A
100
AcDbEntity
  8
SUNPO
 62
   144
100
AcDbLine
 10
3699.999999999999
 20
2289.0
 30
0.0
 11
3699.999999999999
 21
2140.0
 31
0.0
  0
LINE
  5
23FC
330
211A
100
AcDbEntity
  8
SUNPO
 62
   144
100
AcDbLine
 10
4100.0
 20
2289.0
 30
0.0
 11
4100.0
 21
2140.0
 31
0.0
  0
LINE
  5
23FD
330
211A
100
AcDbEntity
  8
SUNPO
 62
   144
100
AcDbLine
 10
3727.999999999999
 20
2150.0
 30
0.0
 11
4072.0
 21
2150.0
 31
0.0
  0
SOLID
  5
23FE
330
211A
100
AcDbEntity
  8
SUNPO
 62
   144
100
AcDbTrace
 10
3727.999999999999
 20
2154.666666666666
 30
0.0
 11
3727.999999999999
 21
2145.333333333333
 31
0.0
 12
3699.999999999999
 22
2150.0
 32
0.0
 13
3699.999999999999
 23
2150.0
 33
0.0
  0
SOLID
  5
23FF
330
211A
100
AcDbEntity
  8
SUNPO
 62
   144
100
AcDbTrace
 10
4072.0
 20
2154.666666666666
 30
0.0
 11
4072.0
 21
2145.333333333333
 31
0.0
 12
4100.0
 22
2150.0
 32
0.0
 13
4100.0
 23
2150.0
 33
0.0
  0
MTEXT
  5
2400
330
211A
100
AcDbEntity
  8
SUNPO
 62
     7
100
AcDbMText
 10
3900.0
 20
2180.499999999999
 30
0.0
 40
36.0
 41
0.0
 71
     5
 72
     1
  1
\A2;400
  7
ADD
1001
ACAD
1000
MTEXTBEGIN
1070
    73
1070
     1
1070
    44
1040
1.0
1070
    74
1070
     0
1000
MTEXTEND
1000
MTEXTBEGIN
1070
    73
1070
     1
1070
    44
1040
1.0
1070
    74
1070
     0
1000
MTEXTEND
1000
MTEXTBEGIN
1070
    73
1070
     1
1070
    44
1040
1.0
1070
    74
1070
     0
1000
MTEXTEND
1000
MTEXTBEGIN
1070
    73
1070
     1
1070
    44
1040
1.0
1070
    74
1070
     0
1000
MTEXTEND
1000
MTEXTBEGIN
1070
    73
1070
     1
1070
    44
1040
1.0
1070
    74
1070
     0
1000
MTEXTEND
1000
MTEXTBEGIN
1070
    73
1070
     1
1070
    44
1040
1.0
1070
    74
1070
     0
1000
MTEXTEND
  0
POINT
  5
2401
330
211A
100
AcDbEntity
  8
DEFPOINTS
 62
     0
100
AcDbPoint
 10
3699.999999999999
 20
2309.0
 30
0.0
  0
POINT
  5
2402
330
211A
100
AcDbEntity
  8
DEFPOINTS
 62
     0
100
AcDbPoint
 10
4100.0
 20
2309.0
 30
0.0
  0
POINT
  5
2403
330
211A
100
AcDbEntity
  8
DEFPOINTS
 62
     0
100
AcDbPoint
 10
4100.0
 20
2150.0
 30
0.0
  0
ENDBLK
  5
2125
330
211A
100
AcDbEntity
  8
0
100
AcDbBlockEnd
  0
BLOCK
  5
2131
330
2127
100
AcDbEntity
  8
0
100
AcDbBlockBegin
  2
*D15
 70
     1
 10
0.0
 20
0.0
 30
0.0
  3
*D15
  1

  0
LINE
  5
23F2
330
2127
100
AcDbEntity
  8
SUNPO
 62
   144
100
AcDbLine
 10
4100.0
 20
2289.0
 30
0.0
 11
4100.0
 21
2140.0
 31
0.0
  0
LINE
  5
23F3
330
2127
100
AcDbEntity
  8
SUNPO
 62
   144
100
AcDbLine
 10
4250.0
 20
2289.0
 30
0.0
 11
4250.0
 21
2140.0
 31
0.0
  0
LINE
  5
23F4
330
2127
100
AcDbEntity
  8
SUNPO
 62
   144
100
AcDbLine
 10
4128.0
 20
2150.0
 30
0.0
 11
4222.0
 21
2150.0
 31
0.0
  0
SOLID
  5
23F5
330
2127
100
AcDbEntity
  8
SUNPO
 62
   144
100
AcDbTrace
 10
4128.0
 20
2154.666666666666
 30
0.0
 11
4128.0
 21
2145.333333333333
 31
0.0
 12
4100.0
 22
2150.0
 32
0.0
 13
4100.0
 23
2150.0
 33
0.0
  0
SOLID
  5
23F6
330
2127
100
AcDbEntity
  8
SUNPO
 62
   144
100
AcDbTrace
 10
4222.0
 20
2154.666666666666
 30
0.0
 11
4222.0
 21
2145.333333333333
 31
0.0
 12
4250.0
 22
2150.0
 32
0.0
 13
4250.0
 23
2150.0
 33
0.0
  0
MTEXT
  5
23F7
330
2127
100
AcDbEntity
  8
SUNPO
 62
     7
100
AcDbMText
 10
4175.0
 20
2180.499999999999
 30
0.0
 40
36.0
 41
0.0
 71
     5
 72
     1
  1
\A2;150
  7
ADD
1001
ACAD
1000
MTEXTBEGIN
1070
    73
1070
     1
1070
    44
1040
1.0
1070
    74
1070
     0
1000
MTEXTEND
1000
MTEXTBEGIN
1070
    73
1070
     1
1070
    44
1040
1.0
1070
    74
1070
     0
1000
MTEXTEND
1000
MTEXTBEGIN
1070
    73
1070
     1
1070
    44
1040
1.0
1070
    74
1070
     0
1000
MTEXTEND
1000
MTEXTBEGIN
1070
    73
1070
     1
1070
    44
1040
1.0
1070
    74
1070
     0
1000
MTEXTEND
1000
MTEXTBEGIN
1070
    73
1070
     1
1070
    44
1040
1.0
1070
    74
1070
     0
1000
MTEXTEND
1000
MTEXTBEGIN
1070
    73
1070
     1
1070
    44
1040
1.0
1070
    74
1070
     0
1000
MTEXTEND
  0
POINT
  5
23F8
330
2127
100
AcDbEntity
  8
DEFPOINTS
 62
     0
100
AcDbPoint
 10
4100.0
 20
2309.0
 30
0.0
  0
POINT
  5
23F9
330
2127
100
AcDbEntity
  8
DEFPOINTS
 62
     0
100
AcDbPoint
 10
4250.0
 20
2309.0
 30
0.0
  0
POINT
  5
23FA
330
2127
100
AcDbEntity
  8
DEFPOINTS
 62
     0
100
AcDbPoint
 10
4250.0
 20
2150.0
 30
0.0
  0
ENDBLK
  5
2132
330
2127
100
AcDbEntity
  8
0
100
AcDbBlockEnd
  0
BLOCK
  5
214B
330
2141
100
AcDbEntity
  8
0
100
AcDbBlockBegin
  2
*D16
 70
     1
 10
0.0
 20
0.0
 30
0.0
  3
*D16
  1

  0
LINE
  5
21C4
330
2141
100
AcDbEntity
  8
SUNPO
 62
   144
100
AcDbLine
 10
3550.0
 20
1170.0
 30
0.0
 11
3550.0
 21
1040.0
 31
0.0
  0
LINE
  5
21C5
330
2141
100
AcDbEntity
  8
SUNPO
 62
   144
100
AcDbLine
 10
3699.999999999999
 20
1170.0
 30
0.0
 11
3699.999999999999
 21
1040.0
 31
0.0
  0
LINE
  5
21C6
330
2141
100
AcDbEntity
  8
SUNPO
 62
   144
100
AcDbLine
 10
3578.0
 20
1050.0
 30
0.0
 11
3672.0
 21
1050.0
 31
0.0
  0
SOLID
  5
21C7
330
2141
100
AcDbEntity
  8
SUNPO
 62
   144
100
AcDbTrace
 10
3578.0
 20
1054.666666666666
 30
0.0
 11
3578.0
 21
1045.333333333333
 31
0.0
 12
3550.0
 22
1050.0
 32
0.0
 13
3550.0
 23
1050.0
 33
0.0
  0
SOLID
  5
21C8
330
2141
100
AcDbEntity
  8
SUNPO
 62
   144
100
AcDbTrace
 10
3672.0
 20
1054.666666666666
 30
0.0
 11
3672.0
 21
1045.333333333333
 31
0.0
 12
3699.999999999999
 22
1050.0
 32
0.0
 13
3699.999999999999
 23
1050.0
 33
0.0
  0
MTEXT
  5
21C9
330
2141
100
AcDbEntity
  8
SUNPO
 62
     7
100
AcDbMText
 10
3625.0
 20
1080.5
 30
0.0
 40
36.0
 41
0.0
 71
     5
 72
     1
  1
\A2;150
  7
ADD
1001
ACAD
1000
MTEXTBEGIN
1070
    73
1070
     1
1070
    44
1040
1.0
1070
    74
1070
     0
1000
MTEXTEND
1000
MTEXTBEGIN
1070
    73
1070
     1
1070
    44
1040
1.0
1070
    74
1070
     0
1000
MTEXTEND
1000
MTEXTBEGIN
1070
    73
1070
     1
1070
    44
1040
1.0
1070
    74
1070
     0
1000
MTEXTEND
1000
MTEXTBEGIN
1070
    73
1070
     1
1070
    44
1040
1.0
1070
    74
1070
     0
1000
MTEXTEND
1000
MTEXTBEGIN
1070
    73
1070
     1
1070
    44
1040
1.0
1070
    74
1070
     0
1000
MTEXTEND
1000
MTEXTBEGIN
1070
    73
1070
     1
1070
    44
1040
1.0
1070
    74
1070
     0
1000
MTEXTEND
  0
POINT
  5
21CA
330
2141
100
AcDbEntity
  8
DEFPOINTS
 62
     0
100
AcDbPoint
 10
3550.0
 20
1190.0
 30
0.0
  0
POINT
  5
21CB
330
2141
100
AcDbEntity
  8
DEFPOINTS
 62
     0
100
AcDbPoint
 10
3699.999999999999
 20
1190.0
 30
0.0
  0
POINT
  5
21CC
330
2141
100
AcDbEntity
  8
DEFPOINTS
 62
     0
100
AcDbPoint
 10
3699.999999999999
 20
1050.0
 30
0.0
  0
ENDBLK
  5
214C
330
2141
100
AcDbEntity
  8
0
100
AcDbBlockEnd
  0
BLOCK
  5
2158
330
214E
100
AcDbEntity
  8
0
100
AcDbBlockBegin
  2
*D17
 70
     1
 10
0.0
 20
0.0
 30
0.0
  3
*D17
  1

  0
LINE
  5
21CD
330
214E
100
AcDbEntity
  8
SUNPO
 62
   144
100
AcDbLine
 10
3699.999999999999
 20
1170.0
 30
0.0
 11
3699.999999999999
 21
1040.0
 31
0.0
  0
LINE
  5
21CE
330
214E
100
AcDbEntity
  8
SUNPO
 62
   144
100
AcDbLine
 10
4100.0
 20
1170.0
 30
0.0
 11
4100.0
 21
1040.0
 31
0.0
  0
LINE
  5
21CF
330
214E
100
AcDbEntity
  8
SUNPO
 62
   144
100
AcDbLine
 10
3727.999999999999
 20
1050.0
 30
0.0
 11
4072.0
 21
1050.0
 31
0.0
  0
SOLID
  5
21D0
330
214E
100
AcDbEntity
  8
SUNPO
 62
   144
100
AcDbTrace
 10
3727.999999999999
 20
1054.666666666666
 30
0.0
 11
3727.999999999999
 21
1045.333333333333
 31
0.0
 12
3699.999999999999
 22
1050.0
 32
0.0
 13
3699.999999999999
 23
1050.0
 33
0.0
  0
SOLID
  5
21D1
330
214E
100
AcDbEntity
  8
SUNPO
 62
   144
100
AcDbTrace
 10
4072.0
 20
1054.666666666666
 30
0.0
 11
4072.0
 21
1045.333333333333
 31
0.0
 12
4100.0
 22
1050.0
 32
0.0
 13
4100.0
 23
1050.0
 33
0.0
  0
MTEXT
  5
21D2
330
214E
100
AcDbEntity
  8
SUNPO
 62
     7
100
AcDbMText
 10
3900.0
 20
1080.5
 30
0.0
 40
36.0
 41
0.0
 71
     5
 72
     1
  1
\A2;400
  7
ADD
1001
ACAD
1000
MTEXTBEGIN
1070
    73
1070
     1
1070
    44
1040
1.0
1070
    74
1070
     0
1000
MTEXTEND
1000
MTEXTBEGIN
1070
    73
1070
     1
1070
    44
1040
1.0
1070
    74
1070
     0
1000
MTEXTEND
1000
MTEXTBEGIN
1070
    73
1070
     1
1070
    44
1040
1.0
1070
    74
1070
     0
1000
MTEXTEND
1000
MTEXTBEGIN
1070
    73
1070
     1
1070
    44
1040
1.0
1070
    74
1070
     0
1000
MTEXTEND
1000
MTEXTBEGIN
1070
    73
1070
     1
1070
    44
1040
1.0
1070
    74
1070
     0
1000
MTEXTEND
1000
MTEXTBEGIN
1070
    73
1070
     1
1070
    44
1040
1.0
1070
    74
1070
     0
1000
MTEXTEND
  0
POINT
  5
21D3
330
214E
100
AcDbEntity
  8
DEFPOINTS
 62
     0
100
AcDbPoint
 10
3699.999999999999
 20
1190.0
 30
0.0
  0
POINT
  5
21D4
330
214E
100
AcDbEntity
  8
DEFPOINTS
 62
     0
100
AcDbPoint
 10
4100.0
 20
1190.0
 30
0.0
  0
POINT
  5
21D5
330
214E
100
AcDbEntity
  8
DEFPOINTS
 62
     0
100
AcDbPoint
 10
4100.0
 20
1050.0
 30
0.0
  0
ENDBLK
  5
2159
330
214E
100
AcDbEntity
  8
0
100
AcDbBlockEnd
  0
BLOCK
  5
2165
330
215B
100
AcDbEntity
  8
0
100
AcDbBlockBegin
  2
*D18
 70
     1
 10
0.0
 20
0.0
 30
0.0
  3
*D18
  1

  0
LINE
  5
21D6
330
215B
100
AcDbEntity
  8
SUNPO
 62
   144
100
AcDbLine
 10
4100.0
 20
1170.0
 30
0.0
 11
4100.0
 21
1040.0
 31
0.0
  0
LINE
  5
21D7
330
215B
100
AcDbEntity
  8
SUNPO
 62
   144
100
AcDbLine
 10
4250.0
 20
1170.0
 30
0.0
 11
4250.0
 21
1040.0
 31
0.0
  0
LINE
  5
21D8
330
215B
100
AcDbEntity
  8
SUNPO
 62
   144
100
AcDbLine
 10
4128.0
 20
1050.0
 30
0.0
 11
4222.0
 21
1050.0
 31
0.0
  0
SOLID
  5
21D9
330
215B
100
AcDbEntity
  8
SUNPO
 62
   144
100
AcDbTrace
 10
4128.0
 20
1054.666666666666
 30
0.0
 11
4128.0
 21
1045.333333333333
 31
0.0
 12
4100.0
 22
1050.0
 32
0.0
 13
4100.0
 23
1050.0
 33
0.0
  0
SOLID
  5
21DA
330
215B
100
AcDbEntity
  8
SUNPO
 62
   144
100
AcDbTrace
 10
4222.0
 20
1054.666666666666
 30
0.0
 11
4222.0
 21
1045.333333333333
 31
0.0
 12
4250.0
 22
1050.0
 32
0.0
 13
4250.0
 23
1050.0
 33
0.0
  0
MTEXT
  5
21DB
330
215B
100
AcDbEntity
  8
SUNPO
 62
     7
100
AcDbMText
 10
4175.0
 20
1080.5
 30
0.0
 40
36.0
 41
0.0
 71
     5
 72
     1
  1
\A2;150
  7
ADD
1001
ACAD
1000
MTEXTBEGIN
1070
    73
1070
     1
1070
    44
1040
1.0
1070
    74
1070
     0
1000
MTEXTEND
1000
MTEXTBEGIN
1070
    73
1070
     1
1070
    44
1040
1.0
1070
    74
1070
     0
1000
MTEXTEND
1000
MTEXTBEGIN
1070
    73
1070
     1
1070
    44
1040
1.0
1070
    74
1070
     0
1000
MTEXTEND
1000
MTEXTBEGIN
1070
    73
1070
     1
1070
    44
1040
1.0
1070
    74
1070
     0
1000
MTEXTEND
1000
MTEXTBEGIN
1070
    73
1070
     1
1070
    44
1040
1.0
1070
    74
1070
     0
1000
MTEXTEND
1000
MTEXTBEGIN
1070
    73
1070
     1
1070
    44
1040
1.0
1070
    74
1070
     0
1000
MTEXTEND
  0
POINT
  5
21DC
330
215B
100
AcDbEntity
  8
DEFPOINTS
 62
     0
100
AcDbPoint
 10
4100.0
 20
1190.0
 30
0.0
  0
POINT
  5
21DD
330
215B
100
AcDbEntity
  8
DEFPOINTS
 62
     0
100
AcDbPoint
 10
4250.0
 20
1190.0
 30
0.0
  0
POINT
  5
21DE
330
215B
100
AcDbEntity
  8
DEFPOINTS
 62
     0
100
AcDbPoint
 10
4250.0
 20
1050.0
 30
0.0
  0
ENDBLK
  5
2166
330
215B
100
AcDbEntity
  8
0
100
AcDbBlockEnd
  0
BLOCK
  5
2174
330
2168
100
AcDbEntity
  8
0
100
AcDbBlockBegin
  2
*D19
 70
     1
 10
0.0
 20
0.0
 30
0.0
  3
*D19
  1

  0
LINE
  5
223F
330
2168
100
AcDbEntity
  8
SUNPO
 62
   144
100
AcDbLine
 10
3530.0
 20
1810.0
 30
0.0
 11
3440.0
 21
1810.0
 31
0.0
  0
LINE
  5
2240
330
2168
100
AcDbEntity
  8
SUNPO
 62
   144
100
AcDbLine
 10
3530.0
 20
1700.0
 30
0.0
 11
3440.0
 21
1700.0
 31
0.0
  0
LINE
  5
2241
330
2168
100
AcDbEntity
  8
SUNPO
 62
   144
100
AcDbLine
 10
3450.0
 20
1838.0
 30
0.0
 11
3450.0
 21
1866.0
 31
0.0
  0
LINE
  5
2242
330
2168
100
AcDbEntity
  8
SUNPO
 62
   144
100
AcDbLine
 10
3450.0
 20
1672.0
 30
0.0
 11
3450.0
 21
1644.0
 31
0.0
  0
LINE
  5
2243
330
2168
100
AcDbEntity
  8
SUNPO
 62
   144
100
AcDbLine
 10
3450.0
 20
1810.0
 30
0.0
 11
3450.0
 21
1700.0
 31
0.0
  0
SOLID
  5
2244
330
2168
100
AcDbEntity
  8
SUNPO
 62
   144
100
AcDbTrace
 10
3445.333333333333
 20
1838.0
 30
0.0
 11
3454.666666666666
 21
1838.0
 31
0.0
 12
3450.0
 22
1810.0
 32
0.0
 13
3450.0
 23
1810.0
 33
0.0
  0
SOLID
  5
2245
330
2168
100
AcDbEntity
  8
SUNPO
 62
   144
100
AcDbTrace
 10
3445.333333333333
 20
1672.0
 30
0.0
 11
3454.666666666666
 21
1672.0
 31
0.0
 12
3450.0
 22
1700.0
 32
0.0
 13
3450.0
 23
1700.0
 33
0.0
  0
MTEXT
  5
2246
330
2168
100
AcDbEntity
  8
SUNPO
 62
     7
100
AcDbMText
 10
3419.499999999999
 20
1755.0
 30
0.0
 40
36.0
 41
0.0
 71
     5
 72
     1
  1
\A2;110
  7
ADD
 11
0.0000000000000001
 21
1.0
 31
0.0
1001
ACAD
1000
MTEXTBEGIN
1070
    73
1070
     1
1070
    44
1040
1.0
1070
    74
1070
     0
1000
MTEXTEND
1000
MTEXTBEGIN
1070
    73
1070
     1
1070
    44
1040
1.0
1070
    74
1070
     0
1000
MTEXTEND
1000
MTEXTBEGIN
1070
    73
1070
     1
1070
    44
1040
1.0
1070
    74
1070
     0
1000
MTEXTEND
1000
MTEXTBEGIN
1070
    73
1070
     1
1070
    44
1040
1.0
1070
    74
1070
     0
1000
MTEXTEND
1000
MTEXTBEGIN
1070
    73
1070
     1
1070
    44
1040
1.0
1070
    74
1070
     0
1000
MTEXTEND
1000
MTEXTBEGIN
1070
    73
1070
     1
1070
    44
1040
1.0
1070
    74
1070
     0
1000
MTEXTEND
  0
POINT
  5
2247
330
2168
100
AcDbEntity
  8
DEFPOINTS
 62
     0
100
AcDbPoint
 10
3550.0
 20
1810.0
 30
0.0
  0
POINT
  5
2248
330
2168
100
AcDbEntity
  8
DEFPOINTS
 62
     0
100
AcDbPoint
 10
3550.0
 20
1700.0
 30
0.0
  0
POINT
  5
2249
330
2168
100
AcDbEntity
  8
DEFPOINTS
 62
     0
100
AcDbPoint
 10
3450.0
 20
1700.0
 30
0.0
  0
ENDBLK
  5
2175
330
2168
100
AcDbEntity
  8
0
100
AcDbBlockEnd
  0
BLOCK
  5
2181
330
2177
100
AcDbEntity
  8
0
100
AcDbBlockBegin
  2
*D20
 70
     1
 10
0.0
 20
0.0
 30
0.0
  3
*D20
  1

  0
LINE
  5
222D
330
2177
100
AcDbEntity
  8
SUNPO
 62
   144
100
AcDbLine
 10
3530.0
 20
1700.0
 30
0.0
 11
3440.0
 21
1700.0
 31
0.0
  0
LINE
  5
222E
330
2177
100
AcDbEntity
  8
SUNPO
 62
   144
100
AcDbLine
 10
3530.0
 20
1300.0
 30
0.0
 11
3440.0
 21
1300.0
 31
0.0
  0
LINE
  5
222F
330
2177
100
AcDbEntity
  8
SUNPO
 62
   144
100
AcDbLine
 10
3450.0
 20
1672.0
 30
0.0
 11
3450.0
 21
1328.0
 31
0.0
  0
SOLID
  5
2230
330
2177
100
AcDbEntity
  8
SUNPO
 62
   144
100
AcDbTrace
 10
3445.333333333333
 20
1672.0
 30
0.0
 11
3454.666666666666
 21
1672.0
 31
0.0
 12
3450.0
 22
1700.0
 32
0.0
 13
3450.0
 23
1700.0
 33
0.0
  0
SOLID
  5
2231
330
2177
100
AcDbEntity
  8
SUNPO
 62
   144
100
AcDbTrace
 10
3445.333333333333
 20
1328.0
 30
0.0
 11
3454.666666666666
 21
1328.0
 31
0.0
 12
3450.0
 22
1300.0
 32
0.0
 13
3450.0
 23
1300.0
 33
0.0
  0
MTEXT
  5
2232
330
2177
100
AcDbEntity
  8
SUNPO
 62
     7
100
AcDbMText
 10
3419.499999999999
 20
1500.0
 30
0.0
 40
36.0
 41
0.0
 71
     5
 72
     1
  1
\A2;400
  7
ADD
 11
0.0000000000000001
 21
1.0
 31
0.0
1001
ACAD
1000
MTEXTBEGIN
1070
    73
1070
     1
1070
    44
1040
1.0
1070
    74
1070
     0
1000
MTEXTEND
1000
MTEXTBEGIN
1070
    73
1070
     1
1070
    44
1040
1.0
1070
    74
1070
     0
1000
MTEXTEND
1000
MTEXTBEGIN
1070
    73
1070
     1
1070
    44
1040
1.0
1070
    74
1070
     0
1000
MTEXTEND
1000
MTEXTBEGIN
1070
    73
1070
     1
1070
    44
1040
1.0
1070
    74
1070
     0
1000
MTEXTEND
1000
MTEXTBEGIN
1070
    73
1070
     1
1070
    44
1040
1.0
1070
    74
1070
     0
1000
MTEXTEND
1000
MTEXTBEGIN
1070
    73
1070
     1
1070
    44
1040
1.0
1070
    74
1070
     0
1000
MTEXTEND
  0
POINT
  5
2233
330
2177
100
AcDbEntity
  8
DEFPOINTS
 62
     0
100
AcDbPoint
 10
3550.0
 20
1700.0
 30
0.0
  0
POINT
  5
2234
330
2177
100
AcDbEntity
  8
DEFPOINTS
 62
     0
100
AcDbPoint
 10
3550.0
 20
1300.0
 30
0.0
  0
POINT
  5
2235
330
2177
100
AcDbEntity
  8
DEFPOINTS
 62
     0
100
AcDbPoint
 10
3450.0
 20
1300.0
 30
0.0
  0
ENDBLK
  5
2182
330
2177
100
AcDbEntity
  8
0
100
AcDbBlockEnd
  0
BLOCK
  5
2190
330
2184
100
AcDbEntity
  8
0
100
AcDbBlockBegin
  2
*D21
 70
     1
 10
0.0
 20
0.0
 30
0.0
  3
*D21
  1

  0
LINE
  5
2222
330
2184
100
AcDbEntity
  8
SUNPO
 62
   144
100
AcDbLine
 10
3530.0
 20
1300.0
 30
0.0
 11
3440.0
 21
1300.0
 31
0.0
  0
LINE
  5
2223
330
2184
100
AcDbEntity
  8
SUNPO
 62
   144
100
AcDbLine
 10
3530.0
 20
1190.0
 30
0.0
 11
3440.0
 21
1190.0
 31
0.0
  0
LINE
  5
2224
330
2184
100
AcDbEntity
  8
SUNPO
 62
   144
100
AcDbLine
 10
3450.0
 20
1328.0
 30
0.0
 11
3450.0
 21
1356.0
 31
0.0
  0
LINE
  5
2225
330
2184
100
AcDbEntity
  8
SUNPO
 62
   144
100
AcDbLine
 10
3450.0
 20
1162.0
 30
0.0
 11
3450.0
 21
1134.0
 31
0.0
  0
LINE
  5
2226
330
2184
100
AcDbEntity
  8
SUNPO
 62
   144
100
AcDbLine
 10
3450.0
 20
1300.0
 30
0.0
 11
3450.0
 21
1190.0
 31
0.0
  0
SOLID
  5
2227
330
2184
100
AcDbEntity
  8
SUNPO
 62
   144
100
AcDbTrace
 10
3445.333333333333
 20
1328.0
 30
0.0
 11
3454.666666666666
 21
1328.0
 31
0.0
 12
3450.0
 22
1300.0
 32
0.0
 13
3450.0
 23
1300.0
 33
0.0
  0
SOLID
  5
2228
330
2184
100
AcDbEntity
  8
SUNPO
 62
   144
100
AcDbTrace
 10
3445.333333333333
 20
1162.0
 30
0.0
 11
3454.666666666666
 21
1162.0
 31
0.0
 12
3450.0
 22
1190.0
 32
0.0
 13
3450.0
 23
1190.0
 33
0.0
  0
MTEXT
  5
2229
330
2184
100
AcDbEntity
  8
SUNPO
 62
     7
100
AcDbMText
 10
3419.499999999999
 20
1245.0
 30
0.0
 40
36.0
 41
0.0
 71
     5
 72
     1
  1
\A2;110
  7
ADD
 11
0.0000000000000001
 21
1.0
 31
0.0
1001
ACAD
1000
MTEXTBEGIN
1070
    73
1070
     1
1070
    44
1040
1.0
1070
    74
1070
     0
1000
MTEXTEND
1000
MTEXTBEGIN
1070
    73
1070
     1
1070
    44
1040
1.0
1070
    74
1070
     0
1000
MTEXTEND
1000
MTEXTBEGIN
1070
    73
1070
     1
1070
    44
1040
1.0
1070
    74
1070
     0
1000
MTEXTEND
1000
MTEXTBEGIN
1070
    73
1070
     1
1070
    44
1040
1.0
1070
    74
1070
     0
1000
MTEXTEND
1000
MTEXTBEGIN
1070
    73
1070
     1
1070
    44
1040
1.0
1070
    74
1070
     0
1000
MTEXTEND
1000
MTEXTBEGIN
1070
    73
1070
     1
1070
    44
1040
1.0
1070
    74
1070
     0
1000
MTEXTEND
  0
POINT
  5
222A
330
2184
100
AcDbEntity
  8
DEFPOINTS
 62
     0
100
AcDbPoint
 10
3550.0
 20
1300.0
 30
0.0
  0
POINT
  5
222B
330
2184
100
AcDbEntity
  8
DEFPOINTS
 62
     0
100
AcDbPoint
 10
3550.0
 20
1190.0
 30
0.0
  0
POINT
  5
222C
330
2184
100
AcDbEntity
  8
DEFPOINTS
 62
     0
100
AcDbPoint
 10
3450.0
 20
1190.0
 30
0.0
  0
ENDBLK
  5
2191
330
2184
100
AcDbEntity
  8
0
100
AcDbBlockEnd
  0
BLOCK
  5
219D
330
2193
100
AcDbEntity
  8
0
100
AcDbBlockBegin
  2
*D22
 70
     1
 10
0.0
 20
0.0
 30
0.0
  3
*D22
  1

  0
LINE
  5
2236
330
2193
100
AcDbEntity
  8
SUNPO
 62
   144
100
AcDbLine
 10
3530.0
 20
1810.0
 30
0.0
 11
3340.0
 21
1810.0
 31
0.0
  0
LINE
  5
2237
330
2193
100
AcDbEntity
  8
SUNPO
 62
   144
100
AcDbLine
 10
3530.0
 20
1190.0
 30
0.0
 11
3340.0
 21
1190.0
 31
0.0
  0
LINE
  5
2238
330
2193
100
AcDbEntity
  8
SUNPO
 62
   144
100
AcDbLine
 10
3350.0
 20
1782.0
 30
0.0
 11
3350.0
 21
1218.0
 31
0.0
  0
SOLID
  5
2239
330
2193
100
AcDbEntity
  8
SUNPO
 62
   144
100
AcDbTrace
 10
3345.333333333333
 20
1782.0
 30
0.0
 11
3354.666666666666
 21
1782.0
 31
0.0
 12
3350.0
 22
1810.0
 32
0.0
 13
3350.0
 23
1810.0
 33
0.0
  0
SOLID
  5
223A
330
2193
100
AcDbEntity
  8
SUNPO
 62
   144
100
AcDbTrace
 10
3345.333333333333
 20
1218.0
 30
0.0
 11
3354.666666666666
 21
1218.0
 31
0.0
 12
3350.0
 22
1190.0
 32
0.0
 13
3350.0
 23
1190.0
 33
0.0
  0
MTEXT
  5
223B
330
2193
100
AcDbEntity
  8
SUNPO
 62
     7
100
AcDbMText
 10
3319.499999999999
 20
1500.0
 30
0.0
 40
36.0
 41
0.0
 71
     5
 72
     1
  1
\A2;620
  7
ADD
 11
0.0000000000000001
 21
1.0
 31
0.0
1001
ACAD
1000
MTEXTBEGIN
1070
    73
1070
     1
1070
    44
1040
1.0
1070
    74
1070
     0
1000
MTEXTEND
1000
MTEXTBEGIN
1070
    73
1070
     1
1070
    44
1040
1.0
1070
    74
1070
     0
1000
MTEXTEND
1000
MTEXTBEGIN
1070
    73
1070
     1
1070
    44
1040
1.0
1070
    74
1070
     0
1000
MTEXTEND
1000
MTEXTBEGIN
1070
    73
1070
     1
1070
    44
1040
1.0
1070
    74
1070
     0
1000
MTEXTEND
1000
MTEXTBEGIN
1070
    73
1070
     1
1070
    44
1040
1.0
1070
    74
1070
     0
1000
MTEXTEND
1000
MTEXTBEGIN
1070
    73
1070
     1
1070
    44
1040
1.0
1070
    74
1070
     0
1000
MTEXTEND
  0
POINT
  5
223C
330
2193
100
AcDbEntity
  8
DEFPOINTS
 62
     0
100
AcDbPoint
 10
3550.0
 20
1810.0
 30
0.0
  0
POINT
  5
223D
330
2193
100
AcDbEntity
  8
DEFPOINTS
 62
     0
100
AcDbPoint
 10
3550.0
 20
1190.0
 30
0.0
  0
POINT
  5
223E
330
2193
100
AcDbEntity
  8
DEFPOINTS
 62
     0
100
AcDbPoint
 10
3350.0
 20
1190.0
 30
0.0
  0
ENDBLK
  5
219E
330
2193
100
AcDbEntity
  8
0
100
AcDbBlockEnd
  0
BLOCK
  5
230C
330
2302
100
AcDbEntity
  8
0
100
AcDbBlockBegin
  2
*D23
 70
     1
 10
0.0
 20
0.0
 30
0.0
  3
*D23
  1

  0
LINE
  5
238B
330
2302
100
AcDbEntity
  8
SUNPO
 62
   144
100
AcDbLine
 10
2330.0
 20
3208.999999999999
 30
0.0
 11
2560.0
 21
3208.999999999999
 31
0.0
  0
LINE
  5
238C
330
2302
100
AcDbEntity
  8
SUNPO
 62
   144
100
AcDbLine
 10
2330.0
 20
2309.0
 30
0.0
 11
2560.0
 21
2309.0
 31
0.0
  0
LINE
  5
238D
330
2302
100
AcDbEntity
  8
SUNPO
 62
   144
100
AcDbLine
 10
2550.0
 20
3180.999999999999
 30
0.0
 11
2550.0
 21
2337.0
 31
0.0
  0
SOLID
  5
238E
330
2302
100
AcDbEntity
  8
SUNPO
 62
   144
100
AcDbTrace
 10
2545.333333333334
 20
3180.999999999999
 30
0.0
 11
2554.666666666667
 21
3180.999999999999
 31
0.0
 12
2550.0
 22
3208.999999999999
 32
0.0
 13
2550.0
 23
3208.999999999999
 33
0.0
  0
SOLID
  5
238F
330
2302
100
AcDbEntity
  8
SUNPO
 62
   144
100
AcDbTrace
 10
2545.333333333333
 20
2337.0
 30
0.0
 11
2554.666666666666
 21
2337.0
 31
0.0
 12
2550.0
 22
2309.0
 32
0.0
 13
2550.0
 23
2309.0
 33
0.0
  0
MTEXT
  5
2390
330
2302
100
AcDbEntity
  8
SUNPO
 62
     7
100
AcDbMText
 10
2519.499999999999
 20
2759.0
 30
0.0
 40
36.0
 41
0.0
 71
     5
 72
     1
  1
\A2;900
  7
ADD
 11
0.0000000000000001
 21
1.0
 31
0.0
1001
ACAD
1000
MTEXTBEGIN
1070
    73
1070
     1
1070
    44
1040
1.0
1070
    74
1070
     0
1000
MTEXTEND
1000
MTEXTBEGIN
1070
    73
1070
     1
1070
    44
1040
1.0
1070
    74
1070
     0
1000
MTEXTEND
1000
MTEXTBEGIN
1070
    73
1070
     1
1070
    44
1040
1.0
1070
    74
1070
     0
1000
MTEXTEND
1000
MTEXTBEGIN
1070
    73
1070
     1
1070
    44
1040
1.0
1070
    74
1070
     0
1000
MTEXTEND
1000
MTEXTBEGIN
1070
    73
1070
     1
1070
    44
1040
1.0
1070
    74
1070
     0
1000
MTEXTEND
1000
MTEXTBEGIN
1070
    73
1070
     1
1070
    44
1040
1.0
1070
    74
1070
     0
1000
MTEXTEND
  0
POINT
  5
2391
330
2302
100
AcDbEntity
  8
DEFPOINTS
 62
     0
100
AcDbPoint
 10
2310.0
 20
3208.999999999999
 30
0.0
  0
POINT
  5
2392
330
2302
100
AcDbEntity
  8
DEFPOINTS
 62
     0
100
AcDbPoint
 10
2310.0
 20
2309.0
 30
0.0
  0
POINT
  5
2393
330
2302
100
AcDbEntity
  8
DEFPOINTS
 62
     0
100
AcDbPoint
 10
2550.0
 20
2309.0
 30
0.0
  0
ENDBLK
  5
230D
330
2302
100
AcDbEntity
  8
0
100
AcDbBlockEnd
  0
BLOCK
  5
231F
330
2313
100
AcDbEntity
  8
0
100
AcDbBlockBegin
  2
*D24
 70
     1
 10
0.0
 20
0.0
 30
0.0
  3
*D24
  1

  0
LINE
  5
2314
330
2313
100
AcDbEntity
  8
SUNPO
 62
   144
100
AcDbLine
 10
4270.0
 20
3208.999999999999
 30
0.0
 11
4410.0
 21
3208.999999999999
 31
0.0
  0
LINE
  5
2315
330
2313
100
AcDbEntity
  8
SUNPO
 62
   144
100
AcDbLine
 10
4270.0
 20
3109.0
 30
0.0
 11
4410.0
 21
3109.0
 31
0.0
  0
LINE
  5
2316
330
2313
100
AcDbEntity
  8
SUNPO
 62
   144
100
AcDbLine
 10
4400.0
 20
3237.0
 30
0.0
 11
4400.0
 21
3265.0
 31
0.0
  0
LINE
  5
2317
330
2313
100
AcDbEntity
  8
SUNPO
 62
   144
100
AcDbLine
 10
4400.0
 20
3081.0
 30
0.0
 11
4400.0
 21
3053.0
 31
0.0
  0
LINE
  5
2318
330
2313
100
AcDbEntity
  8
SUNPO
 62
   144
100
AcDbLine
 10
4400.0
 20
3208.999999999999
 30
0.0
 11
4400.0
 21
3109.0
 31
0.0
  0
SOLID
  5
2319
330
2313
100
AcDbEntity
  8
SUNPO
 62
   144
100
AcDbTrace
 10
4395.333333333333
 20
3237.0
 30
0.0
 11
4404.666666666667
 21
3237.0
 31
0.0
 12
4400.0
 22
3208.999999999999
 32
0.0
 13
4400.0
 23
3208.999999999999
 33
0.0
  0
SOLID
  5
231A
330
2313
100
AcDbEntity
  8
SUNPO
 62
   144
100
AcDbTrace
 10
4395.333333333333
 20
3081.0
 30
0.0
 11
4404.666666666667
 21
3081.0
 31
0.0
 12
4400.0
 22
3109.0
 32
0.0
 13
4400.0
 23
3109.0
 33
0.0
  0
MTEXT
  5
231B
330
2313
100
AcDbEntity
  8
SUNPO
 62
     7
100
AcDbMText
 10
4369.499999999999
 20
3159.0
 30
0.0
 40
36.0
 41
0.0
 71
     5
 72
     1
  1
\A2;100
  7
ADD
 11
0.0000000000000001
 21
1.0
 31
0.0
1001
ACAD
1000
MTEXTBEGIN
1070
    73
1070
     1
1070
    44
1040
1.0
1070
    74
1070
     0
1000
MTEXTEND
1000
MTEXTBEGIN
1070
    73
1070
     1
1070
    44
1040
1.0
1070
    74
1070
     0
1000
MTEXTEND
1000
MTEXTBEGIN
1070
    73
1070
     1
1070
    44
1040
1.0
1070
    74
1070
     0
1000
MTEXTEND
1000
MTEXTBEGIN
1070
    73
1070
     1
1070
    44
1040
1.0
1070
    74
1070
     0
1000
MTEXTEND
1000
MTEXTBEGIN
1070
    73
1070
     1
1070
    44
1040
1.0
1070
    74
1070
     0
1000
MTEXTEND
1000
MTEXTBEGIN
1070
    73
1070
     1
1070
    44
1040
1.0
1070
    74
1070
     0
1000
MTEXTEND
  0
POINT
  5
231C
330
2313
100
AcDbEntity
  8
DEFPOINTS
 62
     0
100
AcDbPoint
 10
4250.0
 20
3208.999999999999
 30
0.0
  0
POINT
  5
231D
330
2313
100
AcDbEntity
  8
DEFPOINTS
 62
     0
100
AcDbPoint
 10
4250.0
 20
3109.0
 30
0.0
  0
POINT
  5
231E
330
2313
100
AcDbEntity
  8
DEFPOINTS
 62
     0
100
AcDbPoint
 10
4400.0
 20
3109.0
 30
0.0
  0
ENDBLK
  5
2320
330
2313
100
AcDbEntity
  8
0
100
AcDbBlockEnd
  0
BLOCK
  5
232C
330
2322
100
AcDbEntity
  8
0
100
AcDbBlockBegin
  2
*D25
 70
     1
 10
0.0
 20
0.0
 30
0.0
  3
*D25
  1

  0
LINE
  5
23E9
330
2322
100
AcDbEntity
  8
SUNPO
 62
   144
100
AcDbLine
 10
4270.0
 20
3109.0
 30
0.0
 11
4410.0
 21
3109.0
 31
0.0
  0
LINE
  5
23EA
330
2322
100
AcDbEntity
  8
SUNPO
 62
   144
100
AcDbLine
 10
4270.0
 20
2609.0
 30
0.0
 11
4410.0
 21
2609.0
 31
0.0
  0
LINE
  5
23EB
330
2322
100
AcDbEntity
  8
SUNPO
 62
   144
100
AcDbLine
 10
4400.0
 20
3081.0
 30
0.0
 11
4400.0
 21
2637.0
 31
0.0
  0
SOLID
  5
23EC
330
2322
100
AcDbEntity
  8
SUNPO
 62
   144
100
AcDbTrace
 10
4395.333333333333
 20
3081.0
 30
0.0
 11
4404.666666666667
 21
3081.0
 31
0.0
 12
4400.0
 22
3109.0
 32
0.0
 13
4400.0
 23
3109.0
 33
0.0
  0
SOLID
  5
23ED
330
2322
100
AcDbEntity
  8
SUNPO
 62
   144
100
AcDbTrace
 10
4395.333333333333
 20
2637.0
 30
0.0
 11
4404.666666666667
 21
2637.0
 31
0.0
 12
4400.0
 22
2609.0
 32
0.0
 13
4400.0
 23
2609.0
 33
0.0
  0
MTEXT
  5
23EE
330
2322
100
AcDbEntity
  8
SUNPO
 62
     7
100
AcDbMText
 10
4369.499999999999
 20
2859.0
 30
0.0
 40
36.0
 41
0.0
 71
     5
 72
     1
  1
\A2;500
  7
ADD
 11
0.0000000000000001
 21
1.0
 31
0.0
1001
ACAD
1000
MTEXTBEGIN
1070
    73
1070
     1
1070
    44
1040
1.0
1070
    74
1070
     0
1000
MTEXTEND
1000
MTEXTBEGIN
1070
    73
1070
     1
1070
    44
1040
1.0
1070
    74
1070
     0
1000
MTEXTEND
1000
MTEXTBEGIN
1070
    73
1070
     1
1070
    44
1040
1.0
1070
    74
1070
     0
1000
MTEXTEND
1000
MTEXTBEGIN
1070
    73
1070
     1
1070
    44
1040
1.0
1070
    74
1070
     0
1000
MTEXTEND
1000
MTEXTBEGIN
1070
    73
1070
     1
1070
    44
1040
1.0
1070
    74
1070
     0
1000
MTEXTEND
1000
MTEXTBEGIN
1070
    73
1070
     1
1070
    44
1040
1.0
1070
    74
1070
     0
1000
MTEXTEND
  0
POINT
  5
23EF
330
2322
100
AcDbEntity
  8
DEFPOINTS
 62
     0
100
AcDbPoint
 10
4250.0
 20
3109.0
 30
0.0
  0
POINT
  5
23F0
330
2322
100
AcDbEntity
  8
DEFPOINTS
 62
     0
100
AcDbPoint
 10
4250.0
 20
2609.0
 30
0.0
  0
POINT
  5
23F1
330
2322
100
AcDbEntity
  8
DEFPOINTS
 62
     0
100
AcDbPoint
 10
4400.0
 20
2609.0
 30
0.0
  0
ENDBLK
  5
232D
330
2322
100
AcDbEntity
  8
0
100
AcDbBlockEnd
  0
BLOCK
  5
2339
330
232F
100
AcDbEntity
  8
0
100
AcDbBlockBegin
  2
*D26
 70
     1
 10
0.0
 20
0.0
 30
0.0
  3
*D26
  1

  0
LINE
  5
23E0
330
232F
100
AcDbEntity
  8
SUNPO
 62
   144
100
AcDbLine
 10
4270.0
 20
2609.0
 30
0.0
 11
4410.0
 21
2609.0
 31
0.0
  0
LINE
  5
23E1
330
232F
100
AcDbEntity
  8
SUNPO
 62
   144
100
AcDbLine
 10
4270.0
 20
2459.0
 30
0.0
 11
4410.0
 21
2459.0
 31
0.0
  0
LINE
  5
23E2
330
232F
100
AcDbEntity
  8
SUNPO
 62
   144
100
AcDbLine
 10
4400.0
 20
2581.0
 30
0.0
 11
4400.0
 21
2487.0
 31
0.0
  0
SOLID
  5
23E3
330
232F
100
AcDbEntity
  8
SUNPO
 62
   144
100
AcDbTrace
 10
4395.333333333333
 20
2581.0
 30
0.0
 11
4404.666666666667
 21
2581.0
 31
0.0
 12
4400.0
 22
2609.0
 32
0.0
 13
4400.0
 23
2609.0
 33
0.0
  0
SOLID
  5
23E4
330
232F
100
AcDbEntity
  8
SUNPO
 62
   144
100
AcDbTrace
 10
4395.333333333333
 20
2487.0
 30
0.0
 11
4404.666666666667
 21
2487.0
 31
0.0
 12
4400.0
 22
2459.0
 32
0.0
 13
4400.0
 23
2459.0
 33
0.0
  0
MTEXT
  5
23E5
330
232F
100
AcDbEntity
  8
SUNPO
 62
     7
100
AcDbMText
 10
4369.499999999999
 20
2534.0
 30
0.0
 40
36.0
 41
0.0
 71
     5
 72
     1
  1
\A2;150
  7
ADD
 11
0.0000000000000001
 21
1.0
 31
0.0
1001
ACAD
1000
MTEXTBEGIN
1070
    73
1070
     1
1070
    44
1040
1.0
1070
    74
1070
     0
1000
MTEXTEND
1000
MTEXTBEGIN
1070
    73
1070
     1
1070
    44
1040
1.0
1070
    74
1070
     0
1000
MTEXTEND
1000
MTEXTBEGIN
1070
    73
1070
     1
1070
    44
1040
1.0
1070
    74
1070
     0
1000
MTEXTEND
1000
MTEXTBEGIN
1070
    73
1070
     1
1070
    44
1040
1.0
1070
    74
1070
     0
1000
MTEXTEND
1000
MTEXTBEGIN
1070
    73
1070
     1
1070
    44
1040
1.0
1070
    74
1070
     0
1000
MTEXTEND
1000
MTEXTBEGIN
1070
    73
1070
     1
1070
    44
1040
1.0
1070
    74
1070
     0
1000
MTEXTEND
  0
POINT
  5
23E6
330
232F
100
AcDbEntity
  8
DEFPOINTS
 62
     0
100
AcDbPoint
 10
4250.0
 20
2609.0
 30
0.0
  0
POINT
  5
23E7
330
232F
100
AcDbEntity
  8
DEFPOINTS
 62
     0
100
AcDbPoint
 10
4250.0
 20
2459.0
 30
0.0
  0
POINT
  5
23E8
330
232F
100
AcDbEntity
  8
DEFPOINTS
 62
     0
100
AcDbPoint
 10
4400.0
 20
2459.0
 30
0.0
  0
ENDBLK
  5
233A
330
232F
100
AcDbEntity
  8
0
100
AcDbBlockEnd
  0
BLOCK
  5
2346
330
233C
100
AcDbEntity
  8
0
100
AcDbBlockBegin
  2
*D27
 70
     1
 10
0.0
 20
0.0
 30
0.0
  3
*D27
  1

  0
LINE
  5
23D7
330
233C
100
AcDbEntity
  8
SUNPO
 62
   144
100
AcDbLine
 10
4270.0
 20
2459.0
 30
0.0
 11
4410.0
 21
2459.0
 31
0.0
  0
LINE
  5
23D8
330
233C
100
AcDbEntity
  8
SUNPO
 62
   144
100
AcDbLine
 10
4270.0
 20
2309.0
 30
0.0
 11
4410.0
 21
2309.0
 31
0.0
  0
LINE
  5
23D9
330
233C
100
AcDbEntity
  8
SUNPO
 62
   144
100
AcDbLine
 10
4400.0
 20
2431.0
 30
0.0
 11
4400.0
 21
2337.0
 31
0.0
  0
SOLID
  5
23DA
330
233C
100
AcDbEntity
  8
SUNPO
 62
   144
100
AcDbTrace
 10
4395.333333333333
 20
2431.0
 30
0.0
 11
4404.666666666667
 21
2431.0
 31
0.0
 12
4400.0
 22
2459.0
 32
0.0
 13
4400.0
 23
2459.0
 33
0.0
  0
SOLID
  5
23DB
330
233C
100
AcDbEntity
  8
SUNPO
 62
   144
100
AcDbTrace
 10
4395.333333333333
 20
2337.0
 30
0.0
 11
4404.666666666667
 21
2337.0
 31
0.0
 12
4400.0
 22
2309.0
 32
0.0
 13
4400.0
 23
2309.0
 33
0.0
  0
MTEXT
  5
23DC
330
233C
100
AcDbEntity
  8
SUNPO
 62
     7
100
AcDbMText
 10
4369.499999999999
 20
2384.0
 30
0.0
 40
36.0
 41
0.0
 71
     5
 72
     1
  1
\A2;150
  7
ADD
 11
0.0000000000000001
 21
1.0
 31
0.0
1001
ACAD
1000
MTEXTBEGIN
1070
    73
1070
     1
1070
    44
1040
1.0
1070
    74
1070
     0
1000
MTEXTEND
1000
MTEXTBEGIN
1070
    73
1070
     1
1070
    44
1040
1.0
1070
    74
1070
     0
1000
MTEXTEND
1000
MTEXTBEGIN
1070
    73
1070
     1
1070
    44
1040
1.0
1070
    74
1070
     0
1000
MTEXTEND
1000
MTEXTBEGIN
1070
    73
1070
     1
1070
    44
1040
1.0
1070
    74
1070
     0
1000
MTEXTEND
1000
MTEXTBEGIN
1070
    73
1070
     1
1070
    44
1040
1.0
1070
    74
1070
     0
1000
MTEXTEND
1000
MTEXTBEGIN
1070
    73
1070
     1
1070
    44
1040
1.0
1070
    74
1070
     0
1000
MTEXTEND
  0
POINT
  5
23DD
330
233C
100
AcDbEntity
  8
DEFPOINTS
 62
     0
100
AcDbPoint
 10
4250.0
 20
2459.0
 30
0.0
  0
POINT
  5
23DE
330
233C
100
AcDbEntity
  8
DEFPOINTS
 62
     0
100
AcDbPoint
 10
4250.0
 20
2309.0
 30
0.0
  0
POINT
  5
23DF
330
233C
100
AcDbEntity
  8
DEFPOINTS
 62
     0
100
AcDbPoint
 10
4400.0
 20
2309.0
 30
0.0
  0
ENDBLK
  5
2347
330
233C
100
AcDbEntity
  8
0
100
AcDbBlockEnd
  0
BLOCK
  5
2353
330
2349
100
AcDbEntity
  8
0
100
AcDbBlockBegin
  2
*D28
 70
     1
 10
0.0
 20
0.0
 30
0.0
  3
*D28
  1

  0
LINE
  5
23CE
330
2349
100
AcDbEntity
  8
SUNPO
 62
   144
100
AcDbLine
 10
4270.0
 20
2309.0
 30
0.0
 11
4510.0
 21
2309.0
 31
0.0
  0
LINE
  5
23CF
330
2349
100
AcDbEntity
  8
SUNPO
 62
   144
100
AcDbLine
 10
4270.0
 20
3209.0
 30
0.0
 11
4510.0
 21
3209.0
 31
0.0
  0
LINE
  5
23D0
330
2349
100
AcDbEntity
  8
SUNPO
 62
   144
100
AcDbLine
 10
4500.0
 20
2337.0
 30
0.0
 11
4500.0
 21
3181.0
 31
0.0
  0
SOLID
  5
23D1
330
2349
100
AcDbEntity
  8
SUNPO
 62
   144
100
AcDbTrace
 10
4495.333333333333
 20
2337.0
 30
0.0
 11
4504.666666666667
 21
2337.0
 31
0.0
 12
4500.0
 22
2309.0
 32
0.0
 13
4500.0
 23
2309.0
 33
0.0
  0
SOLID
  5
23D2
330
2349
100
AcDbEntity
  8
SUNPO
 62
   144
100
AcDbTrace
 10
4495.333333333333
 20
3181.0
 30
0.0
 11
4504.666666666667
 21
3181.0
 31
0.0
 12
4500.0
 22
3209.0
 32
0.0
 13
4500.0
 23
3209.0
 33
0.0
  0
MTEXT
  5
23D3
330
2349
100
AcDbEntity
  8
SUNPO
 62
     7
100
AcDbMText
 10
4469.499999999999
 20
2759.0
 30
0.0
 40
36.0
 41
0.0
 71
     5
 72
     1
  1
\A2;900
  7
ADD
 11
0.0000000000000001
 21
1.0
 31
0.0
1001
ACAD
1000
MTEXTBEGIN
1070
    73
1070
     1
1070
    44
1040
1.0
1070
    74
1070
     0
1000
MTEXTEND
1000
MTEXTBEGIN
1070
    73
1070
     1
1070
    44
1040
1.0
1070
    74
1070
     0
1000
MTEXTEND
1000
MTEXTBEGIN
1070
    73
1070
     1
1070
    44
1040
1.0
1070
    74
1070
     0
1000
MTEXTEND
1000
MTEXTBEGIN
1070
    73
1070
     1
1070
    44
1040
1.0
1070
    74
1070
     0
1000
MTEXTEND
1000
MTEXTBEGIN
1070
    73
1070
     1
1070
    44
1040
1.0
1070
    74
1070
     0
1000
MTEXTEND
1000
MTEXTBEGIN
1070
    73
1070
     1
1070
    44
1040
1.0
1070
    74
1070
     0
1000
MTEXTEND
  0
POINT
  5
23D4
330
2349
100
AcDbEntity
  8
DEFPOINTS
 62
     0
100
AcDbPoint
 10
4250.0
 20
2309.0
 30
0.0
  0
POINT
  5
23D5
330
2349
100
AcDbEntity
  8
DEFPOINTS
 62
     0
100
AcDbPoint
 10
4250.0
 20
3209.0
 30
0.0
  0
POINT
  5
23D6
330
2349
100
AcDbEntity
  8
DEFPOINTS
 62
     0
100
AcDbPoint
 10
4500.0
 20
3209.0
 30
0.0
  0
ENDBLK
  5
2354
330
2349
100
AcDbEntity
  8
0
100
AcDbBlockEnd
  0
BLOCK
  5
253C
330
2532
100
AcDbEntity
  8
0
100
AcDbBlockBegin
  2
*D29
 70
     1
 10
0.0
 20
0.0
 30
0.0
  3
*D29
  1

  0
LINE
  5
2533
330
2532
100
AcDbEntity
  8
SUNPO
 62
   144
100
AcDbLine
 10
3550.0
 20
1170.0
 30
0.0
 11
3550.0
 21
940.0
 31
0.0
  0
LINE
  5
2534
330
2532
100
AcDbEntity
  8
SUNPO
 62
   144
100
AcDbLine
 10
4250.0
 20
1170.0
 30
0.0
 11
4250.0
 21
940.0
 31
0.0
  0
LINE
  5
2535
330
2532
100
AcDbEntity
  8
SUNPO
 62
   144
100
AcDbLine
 10
3578.0
 20
950.0
 30
0.0
 11
4222.0
 21
950.0
 31
0.0
  0
SOLID
  5
2536
330
2532
100
AcDbEntity
  8
SUNPO
 62
   144
100
AcDbTrace
 10
3578.0
 20
954.6666666666666
 30
0.0
 11
3578.0
 21
945.3333333333333
 31
0.0
 12
3550.0
 22
950.0
 32
0.0
 13
3550.0
 23
950.0
 33
0.0
  0
SOLID
  5
2537
330
2532
100
AcDbEntity
  8
SUNPO
 62
   144
100
AcDbTrace
 10
4222.0
 20
954.6666666666666
 30
0.0
 11
4222.0
 21
945.3333333333333
 31
0.0
 12
4250.0
 22
950.0
 32
0.0
 13
4250.0
 23
950.0
 33
0.0
  0
MTEXT
  5
2538
330
2532
100
AcDbEntity
  8
SUNPO
 62
     7
100
AcDbMText
 10
3900.0
 20
980.4999999999999
 30
0.0
 40
36.0
 41
0.0
 71
     5
 72
     1
  1
\A2;700
  7
ADD
1001
ACAD
1000
MTEXTBEGIN
1070
    73
1070
     1
1070
    44
1040
1.0
1070
    74
1070
     0
1000
MTEXTEND
1000
MTEXTBEGIN
1070
    73
1070
     1
1070
    44
1040
1.0
1070
    74
1070
     0
1000
MTEXTEND
1000
MTEXTBEGIN
1070
    73
1070
     1
1070
    44
1040
1.0
1070
    74
1070
     0
1000
MTEXTEND
1000
MTEXTBEGIN
1070
    73
1070
     1
1070
    44
1040
1.0
1070
    74
1070
     0
1000
MTEXTEND
  0
POINT
  5
2539
330
2532
100
AcDbEntity
  8
DEFPOINTS
 62
     0
100
AcDbPoint
 10
3550.0
 20
1190.0
 30
0.0
  0
POINT
  5
253A
330
2532
100
AcDbEntity
  8
DEFPOINTS
 62
     0
100
AcDbPoint
 10
4250.0
 20
1190.0
 30
0.0
  0
POINT
  5
253B
330
2532
100
AcDbEntity
  8
DEFPOINTS
 62
     0
100
AcDbPoint
 10
4250.0
 20
950.0
 30
0.0
  0
ENDBLK
  5
253D
330
2532
100
AcDbEntity
  8
0
100
AcDbBlockEnd
  0
ENDSEC
  0
SECTION
  2
ENTITIES
  0
LINE
  5
60A
330
1F
100
AcDbEntity
  8
3C1
100
AcDbLine
 10
360.0
 20
260.0
 30
0.0
 11
5580.0
 21
260.0
 31
0.0
  0
LINE
  5
60B
330
1F
100
AcDbEntity
  8
3C1
100
AcDbLine
 10
360.0
 20
560.0
 30
0.0
 11
5580.0
 21
560.0
 31
0.0
  0
LINE
  5
60C
330
1F
100
AcDbEntity
  8
3C1
100
AcDbLine
 10
360.0
 20
260.0
 30
0.0
 11
360.0
 21
560.0
 31
0.0
  0
LINE
  5
60D
330
1F
100
AcDbEntity
  8
3C1
100
AcDbLine
 10
2360.0
 20
260.0
 30
0.0
 11
2360.0
 21
560.0
 31
0.0
  0
LINE
  5
60F
330
1F
100
AcDbEntity
  8
3C1
100
AcDbLine
 10
3160.0
 20
260.0
 30
0.0
 11
3160.0
 21
560.0
 31
0.0
  0
LINE
  5
610
330
1F
100
AcDbEntity
  8
3C1
100
AcDbLine
 10
3660.0
 20
260.0
 30
0.0
 11
3660.0
 21
560.0
 31
0.0
  0
LINE
  5
19CA
330
1F
100
AcDbEntity
  8
3C1
100
AcDbLine
 10
1690.0
 20
3209.0
 30
0.0
 11
2310.0
 21
3209.0
 31
0.0
  0
LINE
  5
19D2
330
1F
100
AcDbEntity
  8
3C1
100
AcDbLine
 10
1800.0
 20
3154.0
 30
0.0
 11
1800.0
 21
2609.0
 31
0.0
  0
LINE
  5
19D4
330
1F
100
AcDbEntity
  8
3C1
100
AcDbLine
 10
2200.0
 20
3154.0
 30
0.0
 11
2200.0
 21
2609.0
 31
0.0
  0
LINE
  5
19E7
330
1F
100
AcDbEntity
  8
3C1
100
AcDbLine
 10
1805.0
 20
3209.0
 30
0.0
 11
1805.0
 21
3154.0
 31
0.0
  0
LINE
  5
19E8
330
1F
100
AcDbEntity
  8
3C1
100
AcDbLine
 10
1790.0
 20
3209.0
 30
0.0
 11
1790.0
 21
3154.0
 31
0.0
  0
LINE
  5
19E9
330
1F
100
AcDbEntity
  8
3C1
100
AcDbLine
 10
1790.0
 20
3154.0
 30
0.0
 11
1800.0
 21
3154.0
 31
0.0
  0
LINE
  5
19F1
330
1F
100
AcDbEntity
  8
3C1
100
AcDbLine
 10
1805.0
 20
3154.0
 30
0.0
 11
2194.999999999999
 21
3154.0
 31
0.0
  0
LINE
  5
19F2
330
1F
100
AcDbEntity
  8
3C1
100
AcDbLine
 10
2194.999999999999
 20
3154.0
 30
0.0
 11
2195.0
 21
3209.0
 31
0.0
  0
LINE
  5
19F3
330
1F
100
AcDbEntity
  8
3C1
100
AcDbLine
 10
2210.0
 20
3209.0
 30
0.0
 11
2209.999999999999
 21
3154.0
 31
0.0
  0
LINE
  5
19F4
330
1F
100
AcDbEntity
  8
3C1
100
AcDbLine
 10
2209.999999999999
 20
3154.0
 30
0.0
 11
2200.0
 21
3154.0
 31
0.0
  0
LINE
  5
19F8
330
1F
100
AcDbEntity
  8
3C1
100
AcDbLine
 10
1796.0
 20
3209.0
 30
0.0
 11
1796.0
 21
3154.0
 31
0.0
  0
LINE
  5
19F9
330
1F
100
AcDbEntity
  8
3C1
100
AcDbLine
 10
2204.0
 20
3209.0
 30
0.0
 11
2203.999999999999
 21
3154.0
 31
0.0
  0
LINE
  5
19FA
330
1F
100
AcDbEntity
  8
3C1
100
AcDbLine
 10
1800.0
 20
2609.0
 30
0.0
 11
2200.0
 21
2609.0
 31
0.0
  0
LINE
  5
19FB
330
1F
100
AcDbEntity
  8
3C1
  6
HIDDEN2
100
AcDbLine
 10
1800.0
 20
2459.0
 30
0.0
 11
2200.0
 21
2459.0
 31
0.0
  0
LINE
  5
19FC
330
1F
100
AcDbEntity
  8
3C1
100
AcDbLine
 10
1690.0
 20
3209.0
 30
0.0
 11
1689.999999999999
 21
2309.0
 31
0.0
  0
LINE
  5
19FD
330
1F
100
AcDbEntity
  8
3C1
100
AcDbLine
 10
1689.999999999999
 20
2309.0
 30
0.0
 11
2310.0
 21
2309.0
 31
0.0
  0
LINE
  5
19FE
330
1F
100
AcDbEntity
  8
3C1
100
AcDbLine
 10
2310.0
 20
3208.999999999999
 30
0.0
 11
2310.0
 21
2309.0
 31
0.0
  0
LINE
  5
19FF
330
1F
100
AcDbEntity
  8
3C1
  6
HIDDEN2
100
AcDbLine
 10
1800.0
 20
2609.0
 30
0.0
 11
1800.0
 21
2459.0
 31
0.0
  0
LINE
  5
1A00
330
1F
100
AcDbEntity
  8
3C1
  6
HIDDEN2
100
AcDbLine
 10
2200.0
 20
2609.0
 30
0.0
 11
2200.0
 21
2459.0
 31
0.0
  0
LINE
  5
1A08
330
1F
100
AcDbEntity
  8
3C1
100
AcDbLine
 10
1800.0
 20
3109.0
 30
0.0
 11
2200.0
 21
3109.0
 31
0.0
  0
LINE
  5
1A8E
330
1F
100
AcDbEntity
  8
3C1
100
AcDbLine
 10
1999.940611518964
 20
3407.999999999999
 30
0.0
 11
1988.0
 21
3407.999999999999
 31
0.0
  0
LINE
  5
1A8F
330
1F
100
AcDbEntity
  8
3C1
100
AcDbLine
 10
1988.0
 20
3407.999999999999
 30
0.0
 11
1988.0
 21
3399.999999999999
 31
0.0
  0
LINE
  5
1A91
330
1F
100
AcDbEntity
  8
3C1
  6
HIDDEN2
100
AcDbLine
 10
1994.5
 20
3400.0
 30
0.0
 11
1994.5
 21
3209.0
 31
0.0
  0
LINE
  5
1A92
330
1F
100
AcDbEntity
  8
3C1
  6
HIDDEN2
100
AcDbLine
 10
1994.0
 20
3209.0
 30
0.0
 11
1994.0
 21
3139.0
 31
0.0
  0
LINE
  5
1A93
330
1F
100
AcDbEntity
  8
3C1
  6
HIDDEN2
100
AcDbLine
 10
1994.0
 20
3139.0
 30
0.0
 11
2006.0
 21
3139.0
 31
0.0
  0
LINE
  5
1A98
330
1F
100
AcDbEntity
  8
3C1
100
AcDbLine
 10
1994.0
 20
3407.999999999999
 30
0.0
 11
1994.0
 21
3399.999999999999
 31
0.0
  0
LINE
  5
1A99
330
1F
100
AcDbEntity
  8
3C1
100
AcDbLine
 10
2005.881223037927
 20
3407.999999999999
 30
0.0
 11
2005.881223037927
 21
3399.999999999999
 31
0.0
  0
LINE
  5
1A9A
330
1F
100
AcDbEntity
  8
3C1
100
AcDbLine
 10
2011.881223037927
 20
3407.999999999999
 30
0.0
 11
2011.881223037927
 21
3399.999999999999
 31
0.0
  0
LINE
  5
1A9B
330
1F
100
AcDbEntity
  8
3C1
100
AcDbLine
 10
1999.940611518964
 20
3407.999999999999
 30
0.0
 11
2011.881223037927
 21
3407.999999999999
 31
0.0
  0
LINE
  5
1A9C
330
1F
100
AcDbEntity
  8
3C1
  6
HIDDEN2
100
AcDbLine
 10
2005.5
 20
3400.0
 30
0.0
 11
2005.5
 21
3209.0
 31
0.0
  0
LINE
  5
1A9D
330
1F
100
AcDbEntity
  8
3C1
  6
HIDDEN2
100
AcDbLine
 10
2006.0
 20
3209.0
 30
0.0
 11
2006.0
 21
3139.0
 31
0.0
  0
LINE
  5
1A9E
330
1F
100
AcDbEntity
  8
3C1
  6
HIDDEN2
100
AcDbLine
 10
1991.0
 20
3209.0
 30
0.0
 11
1991.0
 21
3136.0
 31
0.0
  0
LINE
  5
1A9F
330
1F
100
AcDbEntity
  8
3C1
  6
HIDDEN2
100
AcDbLine
 10
2009.0
 20
3209.0
 30
0.0
 11
2009.0
 21
3135.999999999999
 31
0.0
  0
LINE
  5
1AA0
330
1F
100
AcDbEntity
  8
3C1
  6
HIDDEN2
100
AcDbLine
 10
1991.0
 20
3136.0
 30
0.0
 11
2009.0
 21
3135.999999999999
 31
0.0
  0
LINE
  5
1AB6
330
1F
100
AcDbEntity
  8
3C1
100
AcDbLine
 10
1949.85307038295
 20
3399.999999999999
 30
0.0
 11
2050.146929617049
 21
3399.999999999998
 31
0.0
  0
LINE
  5
1ABC
330
1F
100
AcDbEntity
  8
3C1
100
AcDbLine
 10
2080.019403644106
 20
3372.763203847501
 30
0.0
 11
2095.1675
 21
3209.0
 31
0.0
  0
LINE
  5
1ABF
330
1F
100
AcDbEntity
  8
3C1
100
AcDbLine
 10
1950.094156308807
 20
3397.0
 30
0.0
 11
2050.004817630977
 21
3397.0
 31
0.0
  0
LINE
  5
1AC0
330
1F
100
AcDbEntity
  8
3C1
100
AcDbLine
 10
2076.889659676798
 20
3372.491037569222
 30
0.0
 11
2092.038058768077
 21
3209.0
 31
0.0
  0
ARC
  5
1AC1
330
1F
100
AcDbEntity
  8
3C1
100
AcDbCircle
 10
1950.094156308807
 20
3370.0
 30
0.0
 40
27.0
100
AcDbArc
 50
90.0
 51
174.6604452465656
  0
ARC
  5
1AC2
330
1F
100
AcDbEntity
  8
3C1
100
AcDbCircle
 10
2050.004817630977
 20
3370.0
 30
0.0
 40
27.0
100
AcDbArc
 50
5.293674076103549
 51
90.0
  0
ARC
  5
1AC3
330
1F
100
AcDbEntity
  8
3C1
100
AcDbCircle
 10
2050.146929617049
 20
3369.999999999999
 30
0.0
 40
30.0
100
AcDbArc
 50
5.284821092509035
 51
89.99999999999975
  0
ARC
  5
1AC4
330
1F
100
AcDbEntity
  8
3C1
100
AcDbCircle
 10
1949.85307038295
 20
3369.999999999999
 30
0.0
 40
30.0
100
AcDbArc
 50
89.99999999999948
 51
174.7151789074909
  0
LINE
  5
1AC6
330
1F
100
AcDbEntity
  8
3C1
100
AcDbLine
 10
3550.0
 20
3400.0
 30
0.0
 11
3550.0
 21
2309.0
 31
0.0
  0
LINE
  5
1AC7
330
1F
100
AcDbEntity
  8
3C1
100
AcDbLine
 10
4250.0
 20
3400.0
 30
0.0
 11
4250.0
 21
2309.0
 31
0.0
  0
LINE
  5
1AC8
330
1F
100
AcDbEntity
  8
3C1
100
AcDbLine
 10
3550.0
 20
3400.0
 30
0.0
 11
4250.0
 21
3400.0
 31
0.0
  0
LINE
  5
1AC9
330
1F
100
AcDbEntity
  8
3C1
100
AcDbLine
 10
3550.0
 20
2309.0
 30
0.0
 11
4250.0
 21
2309.0
 31
0.0
  0
LINE
  5
1ACB
330
1F
100
AcDbEntity
  8
3C1
100
AcDbLine
 10
3550.0
 20
3209.0
 30
0.0
 11
4250.0
 21
3208.999999999999
 31
0.0
  0
LINE
  5
1AE0
330
1F
100
AcDbEntity
  8
3C1
100
AcDbLine
 10
3639.000000000001
 20
3209.0
 30
0.0
 11
3639.0
 21
3148.0
 31
0.0
  0
LINE
  5
1AE1
330
1F
100
AcDbEntity
  8
3C1
100
AcDbLine
 10
3639.0
 20
3148.0
 30
0.0
 11
3700.0
 21
3148.0
 31
0.0
  0
LINE
  5
1AE2
330
1F
100
AcDbEntity
  8
3C1
100
AcDbLine
 10
3645.0
 20
3209.0
 30
0.0
 11
3645.0
 21
3154.0
 31
0.0
  0
LINE
  5
1AE4
330
1F
100
AcDbEntity
  8
3C1
100
AcDbLine
 10
3699.0
 20
3154.0
 30
0.0
 11
3699.0
 21
3148.0
 31
0.0
  0
LINE
  5
1AE5
330
1F
100
AcDbEntity
  8
3C1
100
AcDbLine
 10
3645.0
 20
3154.0
 30
0.0
 11
3650.0
 21
3154.0
 31
0.0
  0
LINE
  5
1AE6
330
1F
100
AcDbEntity
  8
3C1
100
AcDbLine
 10
3650.0
 20
3209.0
 30
0.0
 11
3650.0
 21
3154.0
 31
0.0
  0
LINE
  5
1AE7
330
1F
100
AcDbEntity
  8
3C1
100
AcDbLine
 10
3650.0
 20
3154.0
 30
0.0
 11
4150.0
 21
3153.999999999999
 31
0.0
  0
LINE
  5
1AE8
330
1F
100
AcDbEntity
  8
3C1
100
AcDbLine
 10
4150.0
 20
3153.999999999999
 30
0.0
 11
4150.0
 21
3208.999999999997
 31
0.0
  0
LINE
  5
1AE9
330
1F
100
AcDbEntity
  8
3C1
100
AcDbLine
 10
4161.0
 20
3208.999999999997
 30
0.0
 11
4161.0
 21
3147.999999999999
 31
0.0
  0
LINE
  5
1AEA
330
1F
100
AcDbEntity
  8
3C1
100
AcDbLine
 10
4161.0
 20
3147.999999999999
 30
0.0
 11
4100.0
 21
3147.999999999999
 31
0.0
  0
LINE
  5
1AEB
330
1F
100
AcDbEntity
  8
3C1
100
AcDbLine
 10
4155.0
 20
3208.999999999997
 30
0.0
 11
4155.0
 21
3153.999999999999
 31
0.0
  0
LINE
  5
1AEC
330
1F
100
AcDbEntity
  8
3C1
100
AcDbLine
 10
4155.0
 20
3153.999999999999
 30
0.0
 11
4150.0
 21
3153.999999999999
 31
0.0
  0
LINE
  5
1AED
330
1F
100
AcDbEntity
  8
3C1
100
AcDbLine
 10
4101.0
 20
3153.999999999999
 30
0.0
 11
4101.0
 21
3147.999999999999
 31
0.0
  0
LINE
  5
1AEE
330
1F
100
AcDbEntity
  8
3C1
100
AcDbLine
 10
3700.0
 20
3148.0
 30
0.0
 11
3700.0
 21
2609.0
 31
0.0
  0
LINE
  5
1AF0
330
1F
100
AcDbEntity
  8
3C1
  6
HIDDEN2
100
AcDbLine
 10
3700.0
 20
2609.0
 30
0.0
 11
3700.0
 21
2459.0
 31
0.0
  0
LINE
  5
1AF1
330
1F
100
AcDbEntity
  8
3C1
  6
HIDDEN2
100
AcDbLine
 10
3700.0
 20
2459.0
 30
0.0
 11
4100.0
 21
2459.0
 31
0.0
  0
LINE
  5
1AF2
330
1F
100
AcDbEntity
  8
3C1
  6
HIDDEN2
100
AcDbLine
 10
4100.0
 20
2459.0
 30
0.0
 11
4100.0
 21
2609.0
 31
0.0
  0
LINE
  5
1AF3
330
1F
100
AcDbEntity
  8
3C1
100
AcDbLine
 10
4100.0
 20
3148.0
 30
0.0
 11
4100.0
 21
2609.0
 31
0.0
  0
LINE
  5
1AF5
330
1F
100
AcDbEntity
  8
3C1
  6
HIDDEN2
100
AcDbLine
 10
3550.0
 20
2609.0
 30
0.0
 11
3700.0
 21
2609.0
 31
0.0
  0
LINE
  5
1AF6
330
1F
100
AcDbEntity
  8
3C1
  6
HIDDEN2
100
AcDbLine
 10
4100.0
 20
2609.0
 30
0.0
 11
4250.0
 21
2609.0
 31
0.0
  0
LINE
  5
1AF7
330
1F
100
AcDbEntity
  8
3C1
  6
HIDDEN2
100
AcDbLine
 10
3550.0
 20
3109.0
 30
0.0
 11
3700.0
 21
3109.0
 31
0.0
  0
LINE
  5
1AF8
330
1F
100
AcDbEntity
  8
3C1
  6
HIDDEN2
100
AcDbLine
 10
4100.0
 20
3109.0
 30
0.0
 11
4250.0
 21
3109.0
 31
0.0
  0
LINE
  5
1B51
330
1F
100
AcDbEntity
  8
3C1
100
AcDbLine
 10
3650.0
 20
1695.0
 30
0.0
 11
3650.0
 21
1595.199999999999
 31
0.0
  0
LINE
  5
1B52
330
1F
100
AcDbEntity
  8
3C1
100
AcDbLine
 10
3650.0
 20
1305.0
 30
0.0
 11
4150.0
 21
1305.0
 31
0.0
  0
LINE
  5
1B53
330
1F
100
AcDbEntity
  8
3C1
100
AcDbLine
 10
4150.0
 20
1305.0
 30
0.0
 11
4150.0
 21
1695.0
 31
0.0
  0
LINE
  5
1B54
330
1F
100
AcDbEntity
  8
3C1
100
AcDbLine
 10
4150.0
 20
1695.0
 30
0.0
 11
3650.0
 21
1695.0
 31
0.0
  0
LINE
  5
1B55
330
1F
100
AcDbEntity
  8
3C1
100
AcDbLine
 10
3645.0
 20
1704.0
 30
0.0
 11
3645.0
 21
1595.199999999999
 31
0.0
  0
LINE
  5
1B56
330
1F
100
AcDbEntity
  8
3C1
100
AcDbLine
 10
3645.0
 20
1296.0
 30
0.0
 11
4155.0
 21
1296.0
 31
0.0
  0
LINE
  5
1B57
330
1F
100
AcDbEntity
  8
3C1
100
AcDbLine
 10
4155.0
 20
1296.0
 30
0.0
 11
4155.0
 21
1704.0
 31
0.0
  0
LINE
  5
1B58
330
1F
100
AcDbEntity
  8
3C1
100
AcDbLine
 10
4155.0
 20
1704.0
 30
0.0
 11
3645.0
 21
1704.0
 31
0.0
  0
LINE
  5
1B59
330
1F
100
AcDbEntity
  8
3C1
100
AcDbLine
 10
3639.0
 20
1710.0
 30
0.0
 11
3639.0
 21
1595.199999999999
 31
0.0
  0
LINE
  5
1B5A
330
1F
100
AcDbEntity
  8
3C1
100
AcDbLine
 10
3639.0
 20
1290.0
 30
0.0
 11
4161.0
 21
1290.0
 31
0.0
  0
LINE
  5
1B5B
330
1F
100
AcDbEntity
  8
3C1
100
AcDbLine
 10
4161.0
 20
1290.0
 30
0.0
 11
4161.0
 21
1710.0
 31
0.0
  0
LINE
  5
1B5C
330
1F
100
AcDbEntity
  8
3C1
100
AcDbLine
 10
4161.0
 20
1710.0
 30
0.0
 11
3639.0
 21
1710.0
 31
0.0
  0
LINE
  5
1B5D
330
1F
100
AcDbEntity
  8
3C1
100
AcDbLine
 10
3654.0
 20
1695.0
 30
0.0
 11
3654.0
 21
1595.199999999999
 31
0.0
  0
LINE
  5
1B5E
330
1F
100
AcDbEntity
  8
3C1
100
AcDbLine
 10
4146.0
 20
1305.0
 30
0.0
 11
4146.0
 21
1695.0
 31
0.0
  0
LINE
  5
1B5F
330
1F
100
AcDbEntity
  8
3C1
100
AcDbLine
 10
4146.0
 20
1689.0
 30
0.0
 11
3654.0
 21
1689.0
 31
0.0
  0
LINE
  5
1B60
330
1F
100
AcDbEntity
  8
3C1
100
AcDbLine
 10
3654.0
 20
1311.0
 30
0.0
 11
4146.0
 21
1311.0
 31
0.0
  0
LINE
  5
1C23
330
1F
100
AcDbEntity
  8
3C1
100
AcDbLine
 10
3550.0
 20
1810.0
 30
0.0
 11
3550.0
 21
1190.0
 31
0.0
  0
LINE
  5
1C24
330
1F
100
AcDbEntity
  8
3C1
100
AcDbLine
 10
3550.0
 20
1190.0
 30
0.0
 11
4250.0
 21
1190.0
 31
0.0
  0
LINE
  5
1C25
330
1F
100
AcDbEntity
  8
3C1
100
AcDbLine
 10
4250.0
 20
1190.0
 30
0.0
 11
4250.0
 21
1810.0
 31
0.0
  0
LINE
  5
1C26
330
1F
100
AcDbEntity
  8
3C1
100
AcDbLine
 10
4250.0
 20
1810.0
 30
0.0
 11
3550.0
 21
1810.0
 31
0.0
  0
LINE
  5
1C27
330
1F
100
AcDbEntity
  8
3C1
  6
HIDDEN2
100
AcDbLine
 10
3550.0
 20
1700.0
 30
0.0
 11
3639.0
 21
1700.0
 31
0.0
  0
LINE
  5
1C28
330
1F
100
AcDbEntity
  8
3C1
  6
HIDDEN2
100
AcDbLine
 10
3550.0
 20
1300.0
 30
0.0
 11
3639.0
 21
1300.0
 31
0.0
  0
LINE
  5
1C29
330
1F
100
AcDbEntity
  8
3C1
  6
HIDDEN2
100
AcDbLine
 10
4161.0
 20
1700.0
 30
0.0
 11
4250.0
 21
1700.0
 31
0.0
  0
LINE
  5
1C2A
330
1F
100
AcDbEntity
  8
3C1
  6
HIDDEN2
100
AcDbLine
 10
4161.0
 20
1300.0
 30
0.0
 11
4250.0
 21
1300.0
 31
0.0
  0
LINE
  5
1C2B
330
1F
100
AcDbEntity
  8
3C1
100
AcDbLine
 10
3645.0
 20
1700.0
 30
0.0
 11
4155.0
 21
1700.0
 31
0.0
  0
LINE
  5
1C2C
330
1F
100
AcDbEntity
  8
3C1
100
AcDbLine
 10
4155.0
 20
1300.0
 30
0.0
 11
3645.0
 21
1300.0
 31
0.0
  0
LINE
  5
1CF7
330
1F
100
AcDbEntity
  8
3C1
  6
HIDDEN2
100
AcDbLine
 10
3591.0
 20
3136.000000000001
 30
0.0
 11
3608.999999999999
 21
3136.000000000001
 31
0.0
  0
LINE
  5
1CF8
330
1F
100
AcDbEntity
  8
3C1
  6
HIDDEN2
100
AcDbLine
 10
3609.0
 20
3209.000000000001
 30
0.0
 11
3608.999999999999
 21
3136.0
 31
0.0
  0
LINE
  5
1CF9
330
1F
100
AcDbEntity
  8
3C1
  6
HIDDEN2
100
AcDbLine
 10
3591.0
 20
3209.000000000001
 30
0.0
 11
3591.0
 21
3136.000000000001
 31
0.0
  0
LINE
  5
1CFA
330
1F
100
AcDbEntity
  8
3C1
  6
HIDDEN2
100
AcDbLine
 10
3606.0
 20
3209.000000000001
 30
0.0
 11
3606.0
 21
3139.000000000001
 31
0.0
  0
LINE
  5
1CFB
330
1F
100
AcDbEntity
  8
3C1
  6
HIDDEN2
100
AcDbLine
 10
3605.5
 20
3400.000000000001
 30
0.0
 11
3605.5
 21
3209.000000000001
 31
0.0
  0
LINE
  5
1CFC
330
1F
100
AcDbEntity
  8
3C1
100
AcDbLine
 10
3599.940611518964
 20
3408.0
 30
0.0
 11
3611.881223037928
 21
3408.000000000001
 31
0.0
  0
LINE
  5
1CFD
330
1F
100
AcDbEntity
  8
3C1
100
AcDbLine
 10
3611.881223037928
 20
3408.000000000001
 30
0.0
 11
3611.881223037928
 21
3400.0
 31
0.0
  0
LINE
  5
1CFE
330
1F
100
AcDbEntity
  8
3C1
100
AcDbLine
 10
3605.881223037927
 20
3408.000000000001
 30
0.0
 11
3605.881223037927
 21
3400.0
 31
0.0
  0
LINE
  5
1CFF
330
1F
100
AcDbEntity
  8
3C1
100
AcDbLine
 10
3594.0
 20
3408.000000000001
 30
0.0
 11
3594.0
 21
3400.0
 31
0.0
  0
LINE
  5
1D00
330
1F
100
AcDbEntity
  8
3C1
  6
HIDDEN2
100
AcDbLine
 10
3594.0
 20
3139.000000000001
 30
0.0
 11
3606.0
 21
3139.000000000001
 31
0.0
  0
LINE
  5
1D01
330
1F
100
AcDbEntity
  8
3C1
  6
HIDDEN2
100
AcDbLine
 10
3594.0
 20
3209.000000000001
 30
0.0
 11
3594.0
 21
3139.000000000001
 31
0.0
  0
LINE
  5
1D02
330
1F
100
AcDbEntity
  8
3C1
  6
HIDDEN2
100
AcDbLine
 10
3594.499999999999
 20
3400.000000000001
 30
0.0
 11
3594.5
 21
3209.000000000001
 31
0.0
  0
LINE
  5
1D03
330
1F
100
AcDbEntity
  8
3C1
100
AcDbLine
 10
3588.0
 20
3408.000000000001
 30
0.0
 11
3588.0
 21
3400.0
 31
0.0
  0
LINE
  5
1D04
330
1F
100
AcDbEntity
  8
3C1
100
AcDbLine
 10
3599.940611518964
 20
3408.0
 30
0.0
 11
3588.0
 21
3408.000000000001
 31
0.0
  0
LINE
  5
1D05
330
1F
100
AcDbEntity
  8
3C1
100
AcDbLine
 10
4199.940611518964
 20
3408.0
 30
0.0
 11
4188.0
 21
3408.000000000001
 31
0.0
  0
LINE
  5
1D06
330
1F
100
AcDbEntity
  8
3C1
100
AcDbLine
 10
4188.0
 20
3408.000000000001
 30
0.0
 11
4188.0
 21
3400.0
 31
0.0
  0
LINE
  5
1D07
330
1F
100
AcDbEntity
  8
3C1
  6
HIDDEN2
100
AcDbLine
 10
4194.5
 20
3400.000000000001
 30
0.0
 11
4194.5
 21
3209.000000000001
 31
0.0
  0
LINE
  5
1D08
330
1F
100
AcDbEntity
  8
3C1
  6
HIDDEN2
100
AcDbLine
 10
4194.0
 20
3209.000000000001
 30
0.0
 11
4194.0
 21
3139.000000000001
 31
0.0
  0
LINE
  5
1D09
330
1F
100
AcDbEntity
  8
3C1
  6
HIDDEN2
100
AcDbLine
 10
4194.0
 20
3139.000000000001
 30
0.0
 11
4206.0
 21
3139.000000000001
 31
0.0
  0
LINE
  5
1D0A
330
1F
100
AcDbEntity
  8
3C1
100
AcDbLine
 10
4194.0
 20
3408.000000000001
 30
0.0
 11
4194.0
 21
3400.0
 31
0.0
  0
LINE
  5
1D0B
330
1F
100
AcDbEntity
  8
3C1
100
AcDbLine
 10
4205.881223037927
 20
3408.000000000001
 30
0.0
 11
4205.881223037927
 21
3400.0
 31
0.0
  0
LINE
  5
1D0C
330
1F
100
AcDbEntity
  8
3C1
100
AcDbLine
 10
4211.881223037928
 20
3408.000000000001
 30
0.0
 11
4211.881223037928
 21
3400.0
 31
0.0
  0
LINE
  5
1D0D
330
1F
100
AcDbEntity
  8
3C1
100
AcDbLine
 10
4199.940611518964
 20
3408.0
 30
0.0
 11
4211.881223037928
 21
3408.000000000001
 31
0.0
  0
LINE
  5
1D0E
330
1F
100
AcDbEntity
  8
3C1
  6
HIDDEN2
100
AcDbLine
 10
4205.499999999999
 20
3400.000000000001
 30
0.0
 11
4205.499999999999
 21
3209.000000000001
 31
0.0
  0
LINE
  5
1D0F
330
1F
100
AcDbEntity
  8
3C1
  6
HIDDEN2
100
AcDbLine
 10
4206.0
 20
3209.000000000001
 30
0.0
 11
4206.0
 21
3139.000000000001
 31
0.0
  0
LINE
  5
1D10
330
1F
100
AcDbEntity
  8
3C1
  6
HIDDEN2
100
AcDbLine
 10
4191.0
 20
3209.000000000001
 30
0.0
 11
4191.0
 21
3136.000000000001
 31
0.0
  0
LINE
  5
1D11
330
1F
100
AcDbEntity
  8
3C1
  6
HIDDEN2
100
AcDbLine
 10
4209.0
 20
3209.000000000001
 30
0.0
 11
4209.0
 21
3136.0
 31
0.0
  0
LINE
  5
1D12
330
1F
100
AcDbEntity
  8
3C1
  6
HIDDEN2
100
AcDbLine
 10
4191.0
 20
3136.000000000001
 30
0.0
 11
4209.0
 21
3136.000000000001
 31
0.0
  0
LINE
  5
1D1F
330
1F
100
AcDbEntity
  8
3C1
100
AcDbLine
 10
3854.0
 20
1689.0
 30
0.0
 11
3854.0
 21
1595.199999999999
 31
0.0
  0
LINE
  5
1D20
330
1F
100
AcDbEntity
  8
3C1
100
AcDbLine
 10
3946.0
 20
1689.0
 30
0.0
 11
3946.0
 21
1311.0
 31
0.0
  0
LINE
  5
1D21
330
1F
100
AcDbEntity
  8
3C1
100
AcDbLine
 10
3846.0
 20
1689.0
 30
0.0
 11
3846.0
 21
1595.199999999999
 31
0.0
  0
LINE
  5
1D22
330
1F
100
AcDbEntity
  8
3C1
100
AcDbLine
 10
3954.0
 20
1689.0
 30
0.0
 11
3954.0
 21
1311.0
 31
0.0
  0
LINE
  5
1D23
330
1F
100
AcDbEntity
  8
3C1
100
AcDbLine
 10
3746.0
 20
1689.0
 30
0.0
 11
3746.0
 21
1595.199999999999
 31
0.0
  0
LINE
  5
1D24
330
1F
100
AcDbEntity
  8
3C1
100
AcDbLine
 10
3754.0
 20
1689.0
 30
0.0
 11
3754.0
 21
1595.199999999999
 31
0.0
  0
LINE
  5
1D25
330
1F
100
AcDbEntity
  8
3C1
100
AcDbLine
 10
4046.0
 20
1689.0
 30
0.0
 11
4046.0
 21
1311.0
 31
0.0
  0
LINE
  5
1D26
330
1F
100
AcDbEntity
  8
3C1
100
AcDbLine
 10
4054.0
 20
1689.0
 30
0.0
 11
4054.0
 21
1311.0
 31
0.0
  0
LINE
  5
1D98
330
1F
100
AcDbEntity
  8
2C1
100
AcDbLine
 10
3550.0
 20
3389.000000000001
 30
0.0
 11
3865.000000000001
 21
3208.999999999999
 31
0.0
  0
LINE
  5
1D99
330
1F
100
AcDbEntity
  8
2C1
100
AcDbLine
 10
3550.0
 20
3357.571428571429
 30
0.0
 11
3810.0
 21
3208.999999999999
 31
0.0
  0
LINE
  5
1D9A
330
1F
100
AcDbEntity
  8
2C1
100
AcDbLine
 10
3550.0
 20
3326.142857142858
 30
0.0
 11
3755.000000000001
 21
3208.999999999999
 31
0.0
  0
LINE
  5
1D9B
330
1F
100
AcDbEntity
  8
2C1
100
AcDbLine
 10
3550.0
 20
3294.714285714286
 30
0.0
 11
3699.999999999999
 21
3209.0
 31
0.0
  0
LINE
  5
1D9C
330
1F
100
AcDbEntity
  8
2C1
100
AcDbLine
 10
3550.0
 20
3263.285714285714
 30
0.0
 11
3644.999999999999
 21
3209.0
 31
0.0
  0
LINE
  5
1D9D
330
1F
100
AcDbEntity
  8
2C1
100
AcDbLine
 10
3550.0
 20
3231.857142857143
 30
0.0
 11
3589.999999999999
 21
3209.0
 31
0.0
  0
LINE
  5
1D9E
330
1F
100
AcDbEntity
  8
2C1
100
AcDbLine
 10
3585.750000000001
 20
3400.0
 30
0.0
 11
3920.0
 21
3209.0
 31
0.0
  0
LINE
  5
1D9F
330
1F
100
AcDbEntity
  8
2C1
100
AcDbLine
 10
3640.750000000004
 20
3400.0
 30
0.0
 11
3975.0
 21
3209.000000000001
 31
0.0
  0
LINE
  5
1DA0
330
1F
100
AcDbEntity
  8
2C1
100
AcDbLine
 10
3695.750000000003
 20
3400.0
 30
0.0
 11
4030.000000000002
 21
3209.0
 31
0.0
  0
LINE
  5
1DA1
330
1F
100
AcDbEntity
  8
2C1
100
AcDbLine
 10
3750.75
 20
3400.0
 30
0.0
 11
4084.999999999999
 21
3208.999999999999
 31
0.0
  0
LINE
  5
1DA2
330
1F
100
AcDbEntity
  8
2C1
100
AcDbLine
 10
3805.749999999999
 20
3400.0
 30
0.0
 11
4140.0
 21
3208.999999999999
 31
0.0
  0
LINE
  5
1DA3
330
1F
100
AcDbEntity
  8
2C1
100
AcDbLine
 10
3860.749999999999
 20
3400.0
 30
0.0
 11
4194.999999999999
 21
3209.0
 31
0.0
  0
LINE
  5
1DA4
330
1F
100
AcDbEntity
  8
2C1
100
AcDbLine
 10
4245.749999999999
 20
3400.0
 30
0.0
 11
4250.0
 21
3397.571428571427
 31
0.0
  0
LINE
  5
1DA5
330
1F
100
AcDbEntity
  8
2C1
100
AcDbLine
 10
4190.75
 20
3400.0
 30
0.0
 11
4250.0
 21
3366.142857142857
 31
0.0
  0
LINE
  5
1DA6
330
1F
100
AcDbEntity
  8
2C1
100
AcDbLine
 10
4135.75
 20
3399.999999999999
 30
0.0
 11
4250.0
 21
3334.714285714287
 31
0.0
  0
LINE
  5
1DA7
330
1F
100
AcDbEntity
  8
2C1
100
AcDbLine
 10
4080.749999999997
 20
3399.999999999999
 30
0.0
 11
4250.0
 21
3303.285714285713
 31
0.0
  0
LINE
  5
1DA8
330
1F
100
AcDbEntity
  8
2C1
100
AcDbLine
 10
4025.749999999999
 20
3400.0
 30
0.0
 11
4250.0
 21
3271.857142857143
 31
0.0
  0
LINE
  5
1DA9
330
1F
100
AcDbEntity
  8
2C1
100
AcDbLine
 10
3970.749999999999
 20
3400.0
 30
0.0
 11
4250.0
 21
3240.428571428571
 31
0.0
  0
LINE
  5
1DAA
330
1F
100
AcDbEntity
  8
2C1
100
AcDbLine
 10
4210.0
 20
3208.999999999999
 30
0.0
 11
4250.0
 21
3231.857142857141
 31
0.0
  0
LINE
  5
1DAB
330
1F
100
AcDbEntity
  8
2C1
100
AcDbLine
 10
4155.0
 20
3209.0
 30
0.0
 11
4250.0
 21
3263.285714285714
 31
0.0
  0
LINE
  5
1DAC
330
1F
100
AcDbEntity
  8
2C1
100
AcDbLine
 10
4100.0
 20
3208.999999999999
 30
0.0
 11
4250.0
 21
3294.714285714285
 31
0.0
  0
LINE
  5
1DAD
330
1F
100
AcDbEntity
  8
2C1
100
AcDbLine
 10
4045.0
 20
3209.0
 30
0.0
 11
4250.0
 21
3326.142857142857
 31
0.0
  0
LINE
  5
1DAE
330
1F
100
AcDbEntity
  8
2C1
100
AcDbLine
 10
3990.0
 20
3209.0
 30
0.0
 11
4250.0
 21
3357.571428571429
 31
0.0
  0
LINE
  5
1DAF
330
1F
100
AcDbEntity
  8
2C1
100
AcDbLine
 10
3934.999999999999
 20
3209.0
 30
0.0
 11
4250.0
 21
3389.000000000001
 31
0.0
  0
LINE
  5
1DB0
330
1F
100
AcDbEntity
  8
2C1
100
AcDbLine
 10
3915.750000000001
 20
3400.0
 30
0.0
 11
4250.0
 21
3209.0
 31
0.0
  0
LINE
  5
1DB1
330
1F
100
AcDbEntity
  8
2C1
100
AcDbLine
 10
3879.999999999999
 20
3208.999999999999
 30
0.0
 11
4214.249999999999
 21
3400.0
 31
0.0
  0
LINE
  5
1DB2
330
1F
100
AcDbEntity
  8
2C1
100
AcDbLine
 10
3825.000000000001
 20
3208.999999999999
 30
0.0
 11
4159.250000000002
 21
3400.0
 31
0.0
  0
LINE
  5
1DB3
330
1F
100
AcDbEntity
  8
2C1
100
AcDbLine
 10
3770.0
 20
3209.0
 30
0.0
 11
4104.25
 21
3400.0
 31
0.0
  0
LINE
  5
1DB4
330
1F
100
AcDbEntity
  8
2C1
100
AcDbLine
 10
3715.0
 20
3209.0
 30
0.0
 11
4049.249999999999
 21
3400.0
 31
0.0
  0
LINE
  5
1DB5
330
1F
100
AcDbEntity
  8
2C1
100
AcDbLine
 10
3660.0
 20
3209.0
 30
0.0
 11
3994.25
 21
3400.0
 31
0.0
  0
LINE
  5
1DB6
330
1F
100
AcDbEntity
  8
2C1
100
AcDbLine
 10
3605.0
 20
3209.0
 30
0.0
 11
3939.249999999999
 21
3400.0
 31
0.0
  0
LINE
  5
1DB7
330
1F
100
AcDbEntity
  8
2C1
100
AcDbLine
 10
3550.0
 20
3397.57142857143
 30
0.0
 11
3554.249999999999
 21
3400.0
 31
0.0
  0
LINE
  5
1DB8
330
1F
100
AcDbEntity
  8
2C1
100
AcDbLine
 10
3550.0
 20
3366.142857142857
 30
0.0
 11
3609.249999999998
 21
3400.0
 31
0.0
  0
LINE
  5
1DB9
330
1F
100
AcDbEntity
  8
2C1
100
AcDbLine
 10
3550.0
 20
3334.714285714287
 30
0.0
 11
3664.249999999998
 21
3400.0
 31
0.0
  0
LINE
  5
1DBA
330
1F
100
AcDbEntity
  8
2C1
100
AcDbLine
 10
3550.0
 20
3303.285714285715
 30
0.0
 11
3719.249999999998
 21
3399.999999999999
 31
0.0
  0
LINE
  5
1DBB
330
1F
100
AcDbEntity
  8
2C1
100
AcDbLine
 10
3550.0
 20
3271.857142857143
 30
0.0
 11
3774.25
 21
3400.0
 31
0.0
  0
LINE
  5
1DBC
330
1F
100
AcDbEntity
  8
2C1
100
AcDbLine
 10
3550.0
 20
3240.428571428572
 30
0.0
 11
3829.249999999997
 21
3400.0
 31
0.0
  0
LINE
  5
1DC9
330
1F
100
AcDbEntity
  8
2C1
100
AcDbLine
 10
3550.0
 20
3209.0
 30
0.0
 11
3884.25
 21
3400.0
 31
0.0
  0
LINE
  5
1E88
330
1F
100
AcDbEntity
  8
3C1
100
AcDbLine
 10
4146.0
 20
1520.75
 30
0.0
 11
4054.0
 21
1520.75
 31
0.0
  0
LINE
  5
1E89
330
1F
100
AcDbEntity
  8
3C1
100
AcDbLine
 10
4146.0
 20
1514.75
 30
0.0
 11
4054.0
 21
1514.75
 31
0.0
  0
LINE
  5
1E8A
330
1F
100
AcDbEntity
  8
3C1
100
AcDbLine
 10
4146.0
 20
1485.25
 30
0.0
 11
4054.0
 21
1485.25
 31
0.0
  0
LINE
  5
1E8B
330
1F
100
AcDbEntity
  8
3C1
100
AcDbLine
 10
4146.0
 20
1479.25
 30
0.0
 11
4054.0
 21
1479.25
 31
0.0
  0
LINE
  5
1E8C
330
1F
100
AcDbEntity
  8
3C1
100
AcDbLine
 10
4146.0
 20
1556.25
 30
0.0
 11
4054.0
 21
1556.25
 31
0.0
  0
LINE
  5
1E8D
330
1F
100
AcDbEntity
  8
3C1
100
AcDbLine
 10
4146.0
 20
1591.75
 30
0.0
 11
4054.0
 21
1591.75
 31
0.0
  0
LINE
  5
1E8E
330
1F
100
AcDbEntity
  8
3C1
100
AcDbLine
 10
4146.0
 20
1627.25
 30
0.0
 11
4054.0
 21
1627.25
 31
0.0
  0
LINE
  5
1E8F
330
1F
100
AcDbEntity
  8
3C1
100
AcDbLine
 10
4146.0
 20
1662.75
 30
0.0
 11
4054.0
 21
1662.75
 31
0.0
  0
LINE
  5
1E90
330
1F
100
AcDbEntity
  8
3C1
100
AcDbLine
 10
4146.0
 20
1550.25
 30
0.0
 11
4054.0
 21
1550.25
 31
0.0
  0
LINE
  5
1E91
330
1F
100
AcDbEntity
  8
3C1
100
AcDbLine
 10
4146.0
 20
1585.75
 30
0.0
 11
4054.0
 21
1585.75
 31
0.0
  0
LINE
  5
1E92
330
1F
100
AcDbEntity
  8
3C1
100
AcDbLine
 10
4146.0
 20
1621.25
 30
0.0
 11
4054.0
 21
1621.25
 31
0.0
  0
LINE
  5
1E93
330
1F
100
AcDbEntity
  8
3C1
100
AcDbLine
 10
4146.0
 20
1656.75
 30
0.0
 11
4054.0
 21
1656.75
 31
0.0
  0
LINE
  5
1E94
330
1F
100
AcDbEntity
  8
3C1
100
AcDbLine
 10
4146.0
 20
1443.75
 30
0.0
 11
4054.0
 21
1443.75
 31
0.0
  0
LINE
  5
1E95
330
1F
100
AcDbEntity
  8
3C1
100
AcDbLine
 10
4146.0
 20
1408.25
 30
0.0
 11
4054.0
 21
1408.25
 31
0.0
  0
LINE
  5
1E96
330
1F
100
AcDbEntity
  8
3C1
100
AcDbLine
 10
4146.0
 20
1372.75
 30
0.0
 11
4054.0
 21
1372.75
 31
0.0
  0
LINE
  5
1E97
330
1F
100
AcDbEntity
  8
3C1
100
AcDbLine
 10
4146.0
 20
1337.25
 30
0.0
 11
4054.0
 21
1337.25
 31
0.0
  0
LINE
  5
1E98
330
1F
100
AcDbEntity
  8
3C1
100
AcDbLine
 10
4146.0
 20
1449.75
 30
0.0
 11
4054.0
 21
1449.75
 31
0.0
  0
LINE
  5
1E99
330
1F
100
AcDbEntity
  8
3C1
100
AcDbLine
 10
4146.0
 20
1414.25
 30
0.0
 11
4054.0
 21
1414.25
 31
0.0
  0
LINE
  5
1E9A
330
1F
100
AcDbEntity
  8
3C1
100
AcDbLine
 10
4146.0
 20
1378.75
 30
0.0
 11
4054.0
 21
1378.75
 31
0.0
  0
LINE
  5
1E9B
330
1F
100
AcDbEntity
  8
3C1
100
AcDbLine
 10
4146.0
 20
1343.25
 30
0.0
 11
4054.0
 21
1343.25
 31
0.0
  0
LINE
  5
1E9C
330
1F
100
AcDbEntity
  8
3C1
100
AcDbLine
 10
3746.0
 20
1656.749999999999
 30
0.0
 11
3654.0
 21
1656.749999999999
 31
0.0
  0
LINE
  5
1E9D
330
1F
100
AcDbEntity
  8
3C1
100
AcDbLine
 10
3746.0
 20
1621.249999999999
 30
0.0
 11
3654.0
 21
1621.249999999999
 31
0.0
  0
LINE
  5
1EA0
330
1F
100
AcDbEntity
  8
3C1
100
AcDbLine
 10
3746.0
 20
1662.75
 30
0.0
 11
3654.0
 21
1662.75
 31
0.0
  0
LINE
  5
1EA1
330
1F
100
AcDbEntity
  8
3C1
100
AcDbLine
 10
3746.0
 20
1627.25
 30
0.0
 11
3654.0
 21
1627.25
 31
0.0
  0
LINE
  5
1EA6
330
1F
100
AcDbEntity
  8
3C1
100
AcDbLine
 10
3746.0
 20
1343.25
 30
0.0
 11
3654.0
 21
1343.25
 31
0.0
  0
LINE
  5
1EA7
330
1F
100
AcDbEntity
  8
3C1
100
AcDbLine
 10
3746.0
 20
1378.75
 30
0.0
 11
3654.0
 21
1378.75
 31
0.0
  0
LINE
  5
1EAA
330
1F
100
AcDbEntity
  8
3C1
100
AcDbLine
 10
3746.0
 20
1337.25
 30
0.0
 11
3654.0
 21
1337.25
 31
0.0
  0
LINE
  5
1EAB
330
1F
100
AcDbEntity
  8
3C1
100
AcDbLine
 10
3746.0
 20
1372.75
 30
0.0
 11
3654.0
 21
1372.75
 31
0.0
  0
LINE
  5
1EB0
330
1F
100
AcDbEntity
  8
3C1
100
AcDbLine
 10
3846.0
 20
1343.25
 30
0.0
 11
3754.0
 21
1343.25
 31
0.0
  0
LINE
  5
1EB1
330
1F
100
AcDbEntity
  8
3C1
100
AcDbLine
 10
3846.0
 20
1378.75
 30
0.0
 11
3754.0
 21
1378.75
 31
0.0
  0
LINE
  5
1EB4
330
1F
100
AcDbEntity
  8
3C1
100
AcDbLine
 10
3846.0
 20
1337.25
 30
0.0
 11
3754.0
 21
1337.25
 31
0.0
  0
LINE
  5
1EB5
330
1F
100
AcDbEntity
  8
3C1
100
AcDbLine
 10
3846.0
 20
1372.75
 30
0.0
 11
3754.0
 21
1372.75
 31
0.0
  0
LINE
  5
1EBC
330
1F
100
AcDbEntity
  8
3C1
100
AcDbLine
 10
3946.0
 20
1343.25
 30
0.0
 11
3854.0
 21
1343.25
 31
0.0
  0
LINE
  5
1EBD
330
1F
100
AcDbEntity
  8
3C1
100
AcDbLine
 10
3946.0
 20
1378.75
 30
0.0
 11
3854.0
 21
1378.75
 31
0.0
  0
LINE
  5
1EBE
330
1F
100
AcDbEntity
  8
3C1
100
AcDbLine
 10
3946.0
 20
1414.25
 30
0.0
 11
3900.0
 21
1414.25
 31
0.0
  0
LINE
  5
1EBF
330
1F
100
AcDbEntity
  8
3C1
100
AcDbLine
 10
3946.0
 20
1449.75
 30
0.0
 11
3900.0
 21
1449.75
 31
0.0
  0
LINE
  5
1EC0
330
1F
100
AcDbEntity
  8
3C1
100
AcDbLine
 10
3946.0
 20
1337.25
 30
0.0
 11
3854.0
 21
1337.25
 31
0.0
  0
LINE
  5
1EC1
330
1F
100
AcDbEntity
  8
3C1
100
AcDbLine
 10
3946.0
 20
1372.75
 30
0.0
 11
3854.0
 21
1372.75
 31
0.0
  0
LINE
  5
1EC2
330
1F
100
AcDbEntity
  8
3C1
100
AcDbLine
 10
3946.0
 20
1408.25
 30
0.0
 11
3900.0
 21
1408.25
 31
0.0
  0
LINE
  5
1EC3
330
1F
100
AcDbEntity
  8
3C1
100
AcDbLine
 10
3946.0
 20
1443.75
 30
0.0
 11
3900.0
 21
1443.75
 31
0.0
  0
LINE
  5
1EC4
330
1F
100
AcDbEntity
  8
3C1
100
AcDbLine
 10
3946.0
 20
1479.25
 30
0.0
 11
3900.0
 21
1479.25
 31
0.0
  0
LINE
  5
1EC5
330
1F
100
AcDbEntity
  8
3C1
100
AcDbLine
 10
3946.0
 20
1485.25
 30
0.0
 11
3900.0
 21
1485.25
 31
0.0
  0
LINE
  5
1EC6
330
1F
100
AcDbEntity
  8
3C1
100
AcDbLine
 10
3946.0
 20
1514.75
 30
0.0
 11
3900.0
 21
1514.75
 31
0.0
  0
LINE
  5
1EC7
330
1F
100
AcDbEntity
  8
3C1
100
AcDbLine
 10
3946.0
 20
1520.75
 30
0.0
 11
3900.0
 21
1520.75
 31
0.0
  0
LINE
  5
1EC8
330
1F
100
AcDbEntity
  8
3C1
100
AcDbLine
 10
4046.0
 20
1343.25
 30
0.0
 11
3954.0
 21
1343.25
 31
0.0
  0
LINE
  5
1EC9
330
1F
100
AcDbEntity
  8
3C1
100
AcDbLine
 10
4046.0
 20
1378.75
 30
0.0
 11
3954.0
 21
1378.75
 31
0.0
  0
LINE
  5
1ECA
330
1F
100
AcDbEntity
  8
3C1
100
AcDbLine
 10
4046.0
 20
1414.25
 30
0.0
 11
3954.0
 21
1414.25
 31
0.0
  0
LINE
  5
1ECB
330
1F
100
AcDbEntity
  8
3C1
100
AcDbLine
 10
4046.0
 20
1449.75
 30
0.0
 11
3954.0
 21
1449.75
 31
0.0
  0
LINE
  5
1ECC
330
1F
100
AcDbEntity
  8
3C1
100
AcDbLine
 10
4046.0
 20
1337.25
 30
0.0
 11
3954.0
 21
1337.25
 31
0.0
  0
LINE
  5
1ECD
330
1F
100
AcDbEntity
  8
3C1
100
AcDbLine
 10
4046.0
 20
1372.75
 30
0.0
 11
3954.0
 21
1372.75
 31
0.0
  0
LINE
  5
1ECE
330
1F
100
AcDbEntity
  8
3C1
100
AcDbLine
 10
4046.0
 20
1408.25
 30
0.0
 11
3954.0
 21
1408.25
 31
0.0
  0
LINE
  5
1ECF
330
1F
100
AcDbEntity
  8
3C1
100
AcDbLine
 10
4046.0
 20
1443.75
 30
0.0
 11
3954.0
 21
1443.75
 31
0.0
  0
LINE
  5
1ED0
330
1F
100
AcDbEntity
  8
3C1
100
AcDbLine
 10
4046.0
 20
1479.25
 30
0.0
 11
3954.0
 21
1479.25
 31
0.0
  0
LINE
  5
1ED1
330
1F
100
AcDbEntity
  8
3C1
100
AcDbLine
 10
4046.0
 20
1485.25
 30
0.0
 11
3954.0
 21
1485.25
 31
0.0
  0
LINE
  5
1ED2
330
1F
100
AcDbEntity
  8
3C1
100
AcDbLine
 10
4046.0
 20
1514.75
 30
0.0
 11
3954.0
 21
1514.75
 31
0.0
  0
LINE
  5
1ED3
330
1F
100
AcDbEntity
  8
3C1
100
AcDbLine
 10
4046.0
 20
1520.75
 30
0.0
 11
3954.0
 21
1520.75
 31
0.0
  0
LINE
  5
1ED4
330
1F
100
AcDbEntity
  8
3C1
100
AcDbLine
 10
4046.0
 20
1656.75
 30
0.0
 11
3954.0
 21
1656.75
 31
0.0
  0
LINE
  5
1ED5
330
1F
100
AcDbEntity
  8
3C1
100
AcDbLine
 10
4046.0
 20
1621.25
 30
0.0
 11
3954.0
 21
1621.25
 31
0.0
  0
LINE
  5
1ED6
330
1F
100
AcDbEntity
  8
3C1
100
AcDbLine
 10
4046.0
 20
1585.75
 30
0.0
 11
3954.0
 21
1585.75
 31
0.0
  0
LINE
  5
1ED7
330
1F
100
AcDbEntity
  8
3C1
100
AcDbLine
 10
4046.0
 20
1550.25
 30
0.0
 11
3954.0
 21
1550.25
 31
0.0
  0
LINE
  5
1ED8
330
1F
100
AcDbEntity
  8
3C1
100
AcDbLine
 10
4046.0
 20
1662.75
 30
0.0
 11
3954.0
 21
1662.75
 31
0.0
  0
LINE
  5
1ED9
330
1F
100
AcDbEntity
  8
3C1
100
AcDbLine
 10
4046.0
 20
1627.25
 30
0.0
 11
3954.0
 21
1627.25
 31
0.0
  0
LINE
  5
1EDA
330
1F
100
AcDbEntity
  8
3C1
100
AcDbLine
 10
4046.0
 20
1591.75
 30
0.0
 11
3954.0
 21
1591.75
 31
0.0
  0
LINE
  5
1EDB
330
1F
100
AcDbEntity
  8
3C1
100
AcDbLine
 10
4046.0
 20
1556.25
 30
0.0
 11
3954.0
 21
1556.25
 31
0.0
  0
LINE
  5
1EDC
330
1F
100
AcDbEntity
  8
3C1
100
AcDbLine
 10
3946.0
 20
1556.25
 30
0.0
 11
3900.0
 21
1556.25
 31
0.0
  0
LINE
  5
1EDD
330
1F
100
AcDbEntity
  8
3C1
100
AcDbLine
 10
3946.0
 20
1591.75
 30
0.0
 11
3900.0
 21
1591.75
 31
0.0
  0
LINE
  5
1EDE
330
1F
100
AcDbEntity
  8
3C1
100
AcDbLine
 10
3946.0
 20
1627.25
 30
0.0
 11
3854.0
 21
1627.25
 31
0.0
  0
LINE
  5
1EDF
330
1F
100
AcDbEntity
  8
3C1
100
AcDbLine
 10
3946.0
 20
1662.75
 30
0.0
 11
3854.0
 21
1662.75
 31
0.0
  0
LINE
  5
1EE0
330
1F
100
AcDbEntity
  8
3C1
100
AcDbLine
 10
3946.0
 20
1550.25
 30
0.0
 11
3900.0
 21
1550.25
 31
0.0
  0
LINE
  5
1EE1
330
1F
100
AcDbEntity
  8
3C1
100
AcDbLine
 10
3946.0
 20
1585.75
 30
0.0
 11
3900.0
 21
1585.75
 31
0.0
  0
LINE
  5
1EE2
330
1F
100
AcDbEntity
  8
3C1
100
AcDbLine
 10
3946.0
 20
1621.25
 30
0.0
 11
3854.0
 21
1621.25
 31
0.0
  0
LINE
  5
1EE3
330
1F
100
AcDbEntity
  8
3C1
100
AcDbLine
 10
3946.0
 20
1656.75
 30
0.0
 11
3854.0
 21
1656.75
 31
0.0
  0
LINE
  5
1EE4
330
1F
100
AcDbEntity
  8
3C1
100
AcDbLine
 10
3846.0
 20
1656.75
 30
0.0
 11
3754.0
 21
1656.749999999999
 31
0.0
  0
LINE
  5
1EE5
330
1F
100
AcDbEntity
  8
3C1
100
AcDbLine
 10
3846.0
 20
1621.25
 30
0.0
 11
3754.0
 21
1621.249999999999
 31
0.0
  0
LINE
  5
1EE8
330
1F
100
AcDbEntity
  8
3C1
100
AcDbLine
 10
3846.0
 20
1662.75
 30
0.0
 11
3754.0
 21
1662.75
 31
0.0
  0
LINE
  5
1EE9
330
1F
100
AcDbEntity
  8
3C1
100
AcDbLine
 10
3846.0
 20
1627.25
 30
0.0
 11
3754.0
 21
1627.25
 31
0.0
  0
LINE
  5
1EEC
330
1F
100
AcDbEntity
  8
3C1
100
AcDbLine
 10
3746.0
 20
1689.0
 30
0.0
 11
3754.0
 21
1662.75
 31
0.0
  0
LINE
  5
1EED
330
1F
100
AcDbEntity
  8
3C1
100
AcDbLine
 10
3746.0
 20
1656.749999999999
 30
0.0
 11
3754.0
 21
1627.25
 31
0.0
  0
LINE
  5
1EEE
330
1F
100
AcDbEntity
  8
3C1
100
AcDbLine
 10
3746.0
 20
1621.249999999999
 30
0.0
 11
3753.064406779661
 21
1595.199999999999
 31
0.0
  0
LINE
  5
1EF4
330
1F
100
AcDbEntity
  8
3C1
100
AcDbLine
 10
3746.935593220339
 20
1404.799999999999
 30
0.0
 11
3754.0
 21
1378.75
 31
0.0
  0
LINE
  5
1EF5
330
1F
100
AcDbEntity
  8
3C1
100
AcDbLine
 10
3746.0
 20
1372.75
 30
0.0
 11
3754.0
 21
1343.25
 31
0.0
  0
LINE
  5
1EF6
330
1F
100
AcDbEntity
  8
3C1
100
AcDbLine
 10
3746.0
 20
1337.25
 30
0.0
 11
3754.0
 21
1311.0
 31
0.0
  0
LINE
  5
1EF7
330
1F
100
AcDbEntity
  8
3C1
100
AcDbLine
 10
3846.0
 20
1656.749999999999
 30
0.0
 11
3854.0
 21
1627.25
 31
0.0
  0
LINE
  5
1EF8
330
1F
100
AcDbEntity
  8
3C1
100
AcDbLine
 10
3846.0
 20
1689.0
 30
0.0
 11
3854.0
 21
1662.75
 31
0.0
  0
LINE
  5
1EFB
330
1F
100
AcDbEntity
  8
3C1
100
AcDbLine
 10
3846.0
 20
1621.25
 30
0.0
 11
3853.064406779661
 21
1595.199999999999
 31
0.0
  0
LINE
  5
1F02
330
1F
100
AcDbEntity
  8
3C1
100
AcDbLine
 10
3846.935593220339
 20
1404.799999999999
 30
0.0
 11
3854.0
 21
1378.75
 31
0.0
  0
LINE
  5
1F03
330
1F
100
AcDbEntity
  8
3C1
100
AcDbLine
 10
3846.0
 20
1372.75
 30
0.0
 11
3854.0
 21
1343.25
 31
0.0
  0
LINE
  5
1F04
330
1F
100
AcDbEntity
  8
3C1
100
AcDbLine
 10
3846.0
 20
1337.25
 30
0.0
 11
3854.0
 21
1311.0
 31
0.0
  0
LINE
  5
1F05
330
1F
100
AcDbEntity
  8
3C1
100
AcDbLine
 10
3946.0
 20
1621.25
 30
0.0
 11
3954.0
 21
1591.75
 31
0.0
  0
LINE
  5
1F06
330
1F
100
AcDbEntity
  8
3C1
100
AcDbLine
 10
3946.0
 20
1689.0
 30
0.0
 11
3954.0
 21
1662.75
 31
0.0
  0
LINE
  5
1F07
330
1F
100
AcDbEntity
  8
3C1
100
AcDbLine
 10
3946.0
 20
1656.749999999999
 30
0.0
 11
3954.0
 21
1627.25
 31
0.0
  0
LINE
  5
1F0A
330
1F
100
AcDbEntity
  8
3C1
100
AcDbLine
 10
3946.0
 20
1337.25
 30
0.0
 11
3954.0
 21
1311.0
 31
0.0
  0
LINE
  5
1F0B
330
1F
100
AcDbEntity
  8
3C1
100
AcDbLine
 10
3946.0
 20
1372.75
 30
0.0
 11
3954.0
 21
1343.25
 31
0.0
  0
LINE
  5
1F0C
330
1F
100
AcDbEntity
  8
3C1
100
AcDbLine
 10
3946.0
 20
1408.25
 30
0.0
 11
3954.0
 21
1378.75
 31
0.0
  0
LINE
  5
1F0D
330
1F
100
AcDbEntity
  8
3C1
100
AcDbLine
 10
3946.0
 20
1443.75
 30
0.0
 11
3954.0
 21
1414.25
 31
0.0
  0
LINE
  5
1F0E
330
1F
100
AcDbEntity
  8
3C1
100
AcDbLine
 10
3946.0
 20
1479.25
 30
0.0
 11
3954.0
 21
1449.75
 31
0.0
  0
LINE
  5
1F0F
330
1F
100
AcDbEntity
  8
3C1
100
AcDbLine
 10
3946.0
 20
1514.75
 30
0.0
 11
3954.0
 21
1485.25
 31
0.0
  0
LINE
  5
1F10
330
1F
100
AcDbEntity
  8
3C1
100
AcDbLine
 10
3946.0
 20
1550.25
 30
0.0
 11
3954.0
 21
1520.75
 31
0.0
  0
LINE
  5
1F11
330
1F
100
AcDbEntity
  8
3C1
100
AcDbLine
 10
3946.0
 20
1585.75
 30
0.0
 11
3954.0
 21
1556.25
 31
0.0
  0
LINE
  5
1F12
330
1F
100
AcDbEntity
  8
3C1
100
AcDbLine
 10
4046.0
 20
1656.749999999999
 30
0.0
 11
4054.0
 21
1627.25
 31
0.0
  0
LINE
  5
1F13
330
1F
100
AcDbEntity
  8
3C1
100
AcDbLine
 10
4046.0
 20
1689.0
 30
0.0
 11
4054.0
 21
1662.75
 31
0.0
  0
LINE
  5
1F14
330
1F
100
AcDbEntity
  8
3C1
100
AcDbLine
 10
4046.0
 20
1621.25
 30
0.0
 11
4054.0
 21
1591.75
 31
0.0
  0
LINE
  5
1F17
330
1F
100
AcDbEntity
  8
3C1
100
AcDbLine
 10
4046.0
 20
1337.25
 30
0.0
 11
4054.0
 21
1311.0
 31
0.0
  0
LINE
  5
1F18
330
1F
100
AcDbEntity
  8
3C1
100
AcDbLine
 10
4046.0
 20
1372.75
 30
0.0
 11
4054.0
 21
1343.25
 31
0.0
  0
LINE
  5
1F19
330
1F
100
AcDbEntity
  8
3C1
100
AcDbLine
 10
4046.0
 20
1408.25
 30
0.0
 11
4054.0
 21
1378.75
 31
0.0
  0
LINE
  5
1F1A
330
1F
100
AcDbEntity
  8
3C1
100
AcDbLine
 10
4046.0
 20
1443.75
 30
0.0
 11
4054.0
 21
1414.25
 31
0.0
  0
LINE
  5
1F1B
330
1F
100
AcDbEntity
  8
3C1
100
AcDbLine
 10
4046.0
 20
1479.25
 30
0.0
 11
4054.0
 21
1449.75
 31
0.0
  0
LINE
  5
1F1C
330
1F
100
AcDbEntity
  8
3C1
100
AcDbLine
 10
4046.0
 20
1514.75
 30
0.0
 11
4054.0
 21
1485.25
 31
0.0
  0
LINE
  5
1F1D
330
1F
100
AcDbEntity
  8
3C1
100
AcDbLine
 10
4046.0
 20
1585.75
 30
0.0
 11
4054.0
 21
1556.25
 31
0.0
  0
LINE
  5
1F1E
330
1F
100
AcDbEntity
  8
3C1
100
AcDbLine
 10
4046.0
 20
1550.25
 30
0.0
 11
4054.0
 21
1520.75
 31
0.0
  0
LINE
  5
1F1F
330
1F
100
AcDbEntity
  8
3C1
100
AcDbLine
 10
3699.999999999999
 20
1700.0
 30
0.0
 11
3699.999999999999
 21
1695.0
 31
0.0
  0
LINE
  5
1F20
330
1F
100
AcDbEntity
  8
3C1
100
AcDbLine
 10
4100.0
 20
1700.0
 30
0.0
 11
4100.0
 21
1695.0
 31
0.0
  0
LINE
  5
1F21
330
1F
100
AcDbEntity
  8
3C1
100
AcDbLine
 10
3699.999999999999
 20
1689.0
 30
0.0
 11
3699.999999999999
 21
1595.199999999999
 31
0.0
  0
LINE
  5
1F22
330
1F
100
AcDbEntity
  8
3C1
100
AcDbLine
 10
4100.0
 20
1689.0
 30
0.0
 11
4100.0
 21
1311.0
 31
0.0
  0
LINE
  5
1F23
330
1F
100
AcDbEntity
  8
3C1
100
AcDbLine
 10
4100.0
 20
1305.0
 30
0.0
 11
4100.0
 21
1300.0
 31
0.0
  0
LINE
  5
1F24
330
1F
100
AcDbEntity
  8
3C1
100
AcDbLine
 10
3699.999999999999
 20
1305.0
 30
0.0
 11
3699.999999999999
 21
1300.0
 31
0.0
  0
LINE
  5
1F25
330
1F
100
AcDbEntity
  8
3C1
  6
CENTER
100
AcDbLine
 10
3900.0
 20
1850.0
 30
0.0
 11
3900.0
 21
1150.0
 31
0.0
  0
LINE
  5
202D
330
1F
100
AcDbEntity
  8
3C1
100
AcDbLine
 10
3550.0
 20
1404.799999999999
 30
0.0
 11
3900.0
 21
1404.799999999999
 31
0.0
  0
LINE
  5
202F
330
1F
100
AcDbEntity
  8
3C1
100
AcDbLine
 10
3550.0
 20
1595.199999999999
 30
0.0
 11
3900.0
 21
1595.199999999999
 31
0.0
  0
LINE
  5
2030
330
1F
100
AcDbEntity
  8
2C1
100
AcDbLine
 10
3599.099999999999
 20
1595.199999999999
 30
0.0
 11
3550.0
 21
1567.142857142856
 31
0.0
  0
LINE
  5
2031
330
1F
100
AcDbEntity
  8
2C1
100
AcDbLine
 10
3654.099999999999
 20
1595.199999999998
 30
0.0
 11
3550.0
 21
1535.714285714284
 31
0.0
  0
LINE
  5
2032
330
1F
100
AcDbEntity
  8
2C1
100
AcDbLine
 10
3709.099999999999
 20
1595.199999999998
 30
0.0
 11
3550.0
 21
1504.285714285713
 31
0.0
  0
LINE
  5
2033
330
1F
100
AcDbEntity
  8
2C1
100
AcDbLine
 10
3764.1
 20
1595.199999999998
 30
0.0
 11
3550.0
 21
1472.857142857142
 31
0.0
  0
LINE
  5
2034
330
1F
100
AcDbEntity
  8
2C1
100
AcDbLine
 10
3819.099999999999
 20
1595.199999999998
 30
0.0
 11
3550.0
 21
1441.428571428571
 31
0.0
  0
LINE
  5
2035
330
1F
100
AcDbEntity
  8
2C1
100
AcDbLine
 10
3874.099999999999
 20
1595.199999999998
 30
0.0
 11
3549.999999999998
 21
1409.999999999998
 31
0.0
  0
LINE
  5
2036
330
1F
100
AcDbEntity
  8
2C1
100
AcDbLine
 10
3900.0
 20
1578.571428571427
 30
0.0
 11
3595.9
 21
1404.799999999999
 31
0.0
  0
LINE
  5
2037
330
1F
100
AcDbEntity
  8
2C1
100
AcDbLine
 10
3900.0
 20
1547.142857142856
 30
0.0
 11
3650.9
 21
1404.799999999999
 31
0.0
  0
LINE
  5
2038
330
1F
100
AcDbEntity
  8
2C1
100
AcDbLine
 10
3900.0
 20
1515.714285714285
 30
0.0
 11
3705.900000000001
 21
1404.799999999999
 31
0.0
  0
LINE
  5
2039
330
1F
100
AcDbEntity
  8
2C1
100
AcDbLine
 10
3900.0
 20
1484.285714285713
 30
0.0
 11
3760.900000000001
 21
1404.799999999999
 31
0.0
  0
LINE
  5
203A
330
1F
100
AcDbEntity
  8
2C1
100
AcDbLine
 10
3900.0
 20
1452.857142857141
 30
0.0
 11
3815.9
 21
1404.799999999999
 31
0.0
  0
LINE
  5
203B
330
1F
100
AcDbEntity
  8
2C1
100
AcDbLine
 10
3900.0
 20
1421.42857142857
 30
0.0
 11
3870.9
 21
1404.8
 31
0.0
  0
LINE
  5
203C
330
1F
100
AcDbEntity
  8
2C1
100
AcDbLine
 10
3550.0
 20
1432.857142857142
 30
0.0
 11
3599.099999999999
 21
1404.799999999999
 31
0.0
  0
LINE
  5
203D
330
1F
100
AcDbEntity
  8
2C1
100
AcDbLine
 10
3550.0
 20
1464.285714285713
 30
0.0
 11
3654.1
 21
1404.799999999999
 31
0.0
  0
LINE
  5
203E
330
1F
100
AcDbEntity
  8
2C1
100
AcDbLine
 10
3550.0
 20
1495.714285714284
 30
0.0
 11
3709.099999999999
 21
1404.799999999999
 31
0.0
  0
LINE
  5
203F
330
1F
100
AcDbEntity
  8
2C1
100
AcDbLine
 10
3550.0
 20
1527.142857142856
 30
0.0
 11
3764.099999999998
 21
1404.799999999999
 31
0.0
  0
LINE
  5
2040
330
1F
100
AcDbEntity
  8
2C1
100
AcDbLine
 10
3550.0
 20
1558.571428571428
 30
0.0
 11
3819.099999999997
 21
1404.799999999999
 31
0.0
  0
LINE
  5
2041
330
1F
100
AcDbEntity
  8
2C1
100
AcDbLine
 10
3550.0
 20
1589.999999999999
 30
0.0
 11
3874.1
 21
1404.799999999999
 31
0.0
  0
LINE
  5
2042
330
1F
100
AcDbEntity
  8
2C1
100
AcDbLine
 10
3595.900000000002
 20
1595.199999999998
 30
0.0
 11
3900.0
 21
1421.42857142857
 31
0.0
  0
LINE
  5
2043
330
1F
100
AcDbEntity
  8
2C1
100
AcDbLine
 10
3650.900000000001
 20
1595.199999999999
 30
0.0
 11
3900.0
 21
1452.857142857142
 31
0.0
  0
LINE
  5
2044
330
1F
100
AcDbEntity
  8
2C1
100
AcDbLine
 10
3705.899999999999
 20
1595.199999999999
 30
0.0
 11
3900.0
 21
1484.285714285713
 31
0.0
  0
LINE
  5
2045
330
1F
100
AcDbEntity
  8
2C1
100
AcDbLine
 10
3760.900000000001
 20
1595.199999999998
 30
0.0
 11
3900.0
 21
1515.714285714285
 31
0.0
  0
LINE
  5
2046
330
1F
100
AcDbEntity
  8
2C1
100
AcDbLine
 10
3815.900000000001
 20
1595.199999999998
 30
0.0
 11
3900.0
 21
1547.142857142856
 31
0.0
  0
LINE
  5
2047
330
1F
100
AcDbEntity
  8
2C1
100
AcDbLine
 10
3870.900000000002
 20
1595.199999999998
 30
0.0
 11
3900.0
 21
1578.571428571427
 31
0.0
  0
LINE
  5
2057
330
1F
100
AcDbEntity
  8
3C1
100
AcDbLine
 10
3550.0
 20
1577.5
 30
0.0
 11
3898.125000000002
 21
1577.5
 31
0.0
  0
LINE
  5
2058
330
1F
100
AcDbEntity
  8
3C1
100
AcDbLine
 10
3550.0
 20
1422.5
 30
0.0
 11
3900.0
 21
1422.5
 31
0.0
  0
LINE
  5
205C
330
1F
100
AcDbEntity
  8
2C1
100
AcDbLine
 10
3550.0
 20
1585.0
 30
0.0
 11
3900.0
 21
1585.0
 31
0.0
  0
LINE
  5
205D
330
1F
100
AcDbEntity
  8
2C1
100
AcDbLine
 10
3550.0
 20
1570.0
 30
0.0
 11
3900.0
 21
1569.999999999999
 31
0.0
  0
LINE
  5
205E
330
1F
100
AcDbEntity
  8
2C1
100
AcDbLine
 10
3550.0
 20
1430.0
 30
0.0
 11
3900.0
 21
1430.0
 31
0.0
  0
LINE
  5
205F
330
1F
100
AcDbEntity
  8
2C1
100
AcDbLine
 10
3550.0
 20
1415.0
 30
0.0
 11
3900.0
 21
1415.0
 31
0.0
  0
CIRCLE
  5
207A
330
1F
100
AcDbEntity
  8
3C1
100
AcDbCircle
 10
4200.0
 20
1500.0
 30
0.0
 40
6.0
  0
CIRCLE
  5
2087
330
1F
100
AcDbEntity
  8
3C1
100
AcDbCircle
 10
4200.0
 20
1500.0
 30
0.0
 40
7.0
  0
LINE
  5
230E
330
1F
100
AcDbEntity
  8
3C1
100
AcDbLine
 10
1907.928854166666
 20
3209.0
 30
0.0
 11
1923.211317627838
 21
3372.512565313177
 31
0.0
  0
LINE
  5
230F
330
1F
100
AcDbEntity
  8
3C1
100
AcDbLine
 10
1904.8325
 20
3209.0
 30
0.0
 11
1919.980596355893
 21
3372.763203847501
 31
0.0
  0
LINE
  5
2372
330
1F
100
AcDbEntity
  8
3C1
100
AcDbLine
 10
3650.0
 20
1404.799999999999
 30
0.0
 11
3650.0
 21
1305.0
 31
0.0
  0
LINE
  5
2373
330
1F
100
AcDbEntity
  8
3C1
100
AcDbLine
 10
3645.0
 20
1404.799999999999
 30
0.0
 11
3645.0
 21
1296.0
 31
0.0
  0
LINE
  5
2374
330
1F
100
AcDbEntity
  8
3C1
100
AcDbLine
 10
3639.0
 20
1404.799999999999
 30
0.0
 11
3639.0
 21
1290.0
 31
0.0
  0
LINE
  5
2375
330
1F
100
AcDbEntity
  8
3C1
100
AcDbLine
 10
3654.0
 20
1404.799999999999
 30
0.0
 11
3654.0
 21
1305.0
 31
0.0
  0
LINE
  5
2380
330
1F
100
AcDbEntity
  8
3C1
100
AcDbLine
 10
3854.0
 20
1404.8
 30
0.0
 11
3854.0
 21
1311.0
 31
0.0
  0
LINE
  5
2381
330
1F
100
AcDbEntity
  8
3C1
100
AcDbLine
 10
3846.0
 20
1404.8
 30
0.0
 11
3846.0
 21
1311.0
 31
0.0
  0
LINE
  5
2382
330
1F
100
AcDbEntity
  8
3C1
100
AcDbLine
 10
3746.0
 20
1404.799999999999
 30
0.0
 11
3746.0
 21
1311.0
 31
0.0
  0
LINE
  5
2383
330
1F
100
AcDbEntity
  8
3C1
100
AcDbLine
 10
3754.0
 20
1404.799999999999
 30
0.0
 11
3754.0
 21
1311.0
 31
0.0
  0
LINE
  5
2384
330
1F
100
AcDbEntity
  8
3C1
100
AcDbLine
 10
3699.999999999999
 20
1404.799999999999
 30
0.0
 11
3699.999999999999
 21
1311.0
 31
0.0
  0
LINE
  5
2385
330
1F
100
AcDbEntity
  8
3C1
  6
HIDDEN2
100
AcDbLine
 10
3639.0
 20
1595.199999999999
 30
0.0
 11
3639.0
 21
1404.799999999999
 31
0.0
  0
LINE
  5
2386
330
1F
100
AcDbEntity
  8
3C1
  6
HIDDEN2
100
AcDbLine
 10
3645.0
 20
1595.199999999999
 30
0.0
 11
3645.0
 21
1404.799999999999
 31
0.0
  0
LINE
  5
2387
330
1F
100
AcDbEntity
  8
3C1
  6
HIDDEN2
100
AcDbLine
 10
3699.999999999999
 20
1595.199999999999
 30
0.0
 11
3699.999999999999
 21
1404.799999999999
 31
0.0
  0
LINE
  5
275B
330
1F
100
AcDbEntity
  8
SUNPO
 62
   144
100
AcDbLine
 10
3550.0
 20
1170.0
 30
0.0
 11
3550.0
 21
940.0
 31
0.0
  0
LINE
  5
275C
330
1F
100
AcDbEntity
  8
SUNPO
 62
   144
100
AcDbLine
 10
4250.0
 20
1170.0
 30
0.0
 11
4250.0
 21
940.0
 31
0.0
  0
LINE
  5
275D
330
1F
100
AcDbEntity
  8
SUNPO
 62
   144
100
AcDbLine
 10
3578.0
 20
950.0
 30
0.0
 11
4222.0
 21
950.0
 31
0.0
  0
SOLID
  5
275E
330
1F
100
AcDbEntity
  8
SUNPO
 62
   144
100
AcDbTrace
 10
3578.0
 20
954.6666666666666
 30
0.0
 11
3578.0
 21
945.3333333333333
 31
0.0
 12
3550.0
 22
950.0
 32
0.0
 13
3550.0
 23
950.0
 33
0.0
  0
SOLID
  5
275F
330
1F
100
AcDbEntity
  8
SUNPO
 62
   144
100
AcDbTrace
 10
4222.0
 20
954.6666666666666
 30
0.0
 11
4222.0
 21
945.3333333333333
 31
0.0
 12
4250.0
 22
950.0
 32
0.0
 13
4250.0
 23
950.0
 33
0.0
  0
LINE
  5
2761
330
1F
100
AcDbEntity
  8
3C1
100
AcDbLine
 10
3612.0
 20
1500.0
 30
0.0
 11
3606.0
 21
1510.392304845413
 31
0.0
  0
LINE
  5
2762
330
1F
100
AcDbEntity
  8
3C1
100
AcDbLine
 10
3606.0
 20
1510.392304845413
 30
0.0
 11
3594.0
 21
1510.392304845413
 31
0.0
  0
LINE
  5
2763
330
1F
100
AcDbEntity
  8
3C1
100
AcDbLine
 10
3594.0
 20
1510.392304845413
 30
0.0
 11
3588.0
 21
1500.0
 31
0.0
  0
LINE
  5
2764
330
1F
100
AcDbEntity
  8
3C1
100
AcDbLine
 10
3588.0
 20
1500.0
 30
0.0
 11
3594.0
 21
1489.607695154586
 31
0.0
  0
LINE
  5
2765
330
1F
100
AcDbEntity
  8
3C1
100
AcDbLine
 10
3594.0
 20
1489.607695154586
 30
0.0
 11
3606.0
 21
1489.607695154586
 31
0.0
  0
LINE
  5
2766
330
1F
100
AcDbEntity
  8
3C1
100
AcDbLine
 10
3606.0
 20
1489.607695154586
 30
0.0
 11
3612.0
 21
1500.0
 31
0.0
  0
LINE
  5
2767
330
1F
100
AcDbEntity
  8
SUNPO
 62
   144
100
AcDbLine
 10
4270.0
 20
2309.0
 30
0.0
 11
4510.0
 21
2309.0
 31
0.0
  0
LINE
  5
2768
330
1F
100
AcDbEntity
  8
SUNPO
 62
   144
100
AcDbLine
 10
4270.0
 20
3209.0
 30
0.0
 11
4510.0
 21
3209.0
 31
0.0
  0
LINE
  5
2769
330
1F
100
AcDbEntity
  8
SUNPO
 62
   144
100
AcDbLine
 10
4500.0
 20
2337.0
 30
0.0
 11
4500.0
 21
3181.0
 31
0.0
  0
SOLID
  5
276A
330
1F
100
AcDbEntity
  8
SUNPO
 62
   144
100
AcDbTrace
 10
4495.333333333333
 20
2337.0
 30
0.0
 11
4504.666666666667
 21
2337.0
 31
0.0
 12
4500.0
 22
2309.0
 32
0.0
 13
4500.0
 23
2309.0
 33
0.0
  0
SOLID
  5
276B
330
1F
100
AcDbEntity
  8
SUNPO
 62
   144
100
AcDbTrace
 10
4495.333333333333
 20
3181.0
 30
0.0
 11
4504.666666666667
 21
3181.0
 31
0.0
 12
4500.0
 22
3209.0
 32
0.0
 13
4500.0
 23
3209.0
 33
0.0
  0
LINE
  5
276D
330
1F
100
AcDbEntity
  8
SUNPO
 62
   144
100
AcDbLine
 10
4270.0
 20
2459.0
 30
0.0
 11
4410.0
 21
2459.0
 31
0.0
  0
LINE
  5
276E
330
1F
100
AcDbEntity
  8
SUNPO
 62
   144
100
AcDbLine
 10
4270.0
 20
2309.0
 30
0.0
 11
4410.0
 21
2309.0
 31
0.0
  0
LINE
  5
276F
330
1F
100
AcDbEntity
  8
SUNPO
 62
   144
100
AcDbLine
 10
4400.0
 20
2431.0
 30
0.0
 11
4400.0
 21
2337.0
 31
0.0
  0
SOLID
  5
2770
330
1F
100
AcDbEntity
  8
SUNPO
 62
   144
100
AcDbTrace
 10
4395.333333333333
 20
2431.0
 30
0.0
 11
4404.666666666667
 21
2431.0
 31
0.0
 12
4400.0
 22
2459.0
 32
0.0
 13
4400.0
 23
2459.0
 33
0.0
  0
SOLID
  5
2771
330
1F
100
AcDbEntity
  8
SUNPO
 62
   144
100
AcDbTrace
 10
4395.333333333333
 20
2337.0
 30
0.0
 11
4404.666666666667
 21
2337.0
 31
0.0
 12
4400.0
 22
2309.0
 32
0.0
 13
4400.0
 23
2309.0
 33
0.0
  0
LINE
  5
2773
330
1F
100
AcDbEntity
  8
SUNPO
 62
   144
100
AcDbLine
 10
4270.0
 20
2609.0
 30
0.0
 11
4410.0
 21
2609.0
 31
0.0
  0
LINE
  5
2774
330
1F
100
AcDbEntity
  8
SUNPO
 62
   144
100
AcDbLine
 10
4270.0
 20
2459.0
 30
0.0
 11
4410.0
 21
2459.0
 31
0.0
  0
LINE
  5
2775
330
1F
100
AcDbEntity
  8
SUNPO
 62
   144
100
AcDbLine
 10
4400.0
 20
2581.0
 30
0.0
 11
4400.0
 21
2487.0
 31
0.0
  0
SOLID
  5
2776
330
1F
100
AcDbEntity
  8
SUNPO
 62
   144
100
AcDbTrace
 10
4395.333333333333
 20
2581.0
 30
0.0
 11
4404.666666666667
 21
2581.0
 31
0.0
 12
4400.0
 22
2609.0
 32
0.0
 13
4400.0
 23
2609.0
 33
0.0
  0
SOLID
  5
2777
330
1F
100
AcDbEntity
  8
SUNPO
 62
   144
100
AcDbTrace
 10
4395.333333333333
 20
2487.0
 30
0.0
 11
4404.666666666667
 21
2487.0
 31
0.0
 12
4400.0
 22
2459.0
 32
0.0
 13
4400.0
 23
2459.0
 33
0.0
  0
LINE
  5
2779
330
1F
100
AcDbEntity
  8
SUNPO
 62
   144
100
AcDbLine
 10
4270.0
 20
3109.0
 30
0.0
 11
4410.0
 21
3109.0
 31
0.0
  0
LINE
  5
277A
330
1F
100
AcDbEntity
  8
SUNPO
 62
   144
100
AcDbLine
 10
4270.0
 20
2609.0
 30
0.0
 11
4410.0
 21
2609.0
 31
0.0
  0
LINE
  5
277B
330
1F
100
AcDbEntity
  8
SUNPO
 62
   144
100
AcDbLine
 10
4400.0
 20
3081.0
 30
0.0
 11
4400.0
 21
2637.0
 31
0.0
  0
SOLID
  5
277C
330
1F
100
AcDbEntity
  8
SUNPO
 62
   144
100
AcDbTrace
 10
4395.333333333333
 20
3081.0
 30
0.0
 11
4404.666666666667
 21
3081.0
 31
0.0
 12
4400.0
 22
3109.0
 32
0.0
 13
4400.0
 23
3109.0
 33
0.0
  0
SOLID
  5
277D
330
1F
100
AcDbEntity
  8
SUNPO
 62
   144
100
AcDbTrace
 10
4395.333333333333
 20
2637.0
 30
0.0
 11
4404.666666666667
 21
2637.0
 31
0.0
 12
4400.0
 22
2609.0
 32
0.0
 13
4400.0
 23
2609.0
 33
0.0
  0
LINE
  5
277F
330
1F
100
AcDbEntity
  8
SUNPO
 62
   144
100
AcDbLine
 10
4270.0
 20
3208.999999999999
 30
0.0
 11
4410.0
 21
3208.999999999999
 31
0.0
  0
LINE
  5
2780
330
1F
100
AcDbEntity
  8
SUNPO
 62
   144
100
AcDbLine
 10
4270.0
 20
3109.0
 30
0.0
 11
4410.0
 21
3109.0
 31
0.0
  0
LINE
  5
2781
330
1F
100
AcDbEntity
  8
SUNPO
 62
   144
100
AcDbLine
 10
4400.0
 20
3237.0
 30
0.0
 11
4400.0
 21
3265.0
 31
0.0
  0
LINE
  5
2782
330
1F
100
AcDbEntity
  8
SUNPO
 62
   144
100
AcDbLine
 10
4400.0
 20
3081.0
 30
0.0
 11
4400.0
 21
3053.0
 31
0.0
  0
LINE
  5
2783
330
1F
100
AcDbEntity
  8
SUNPO
 62
   144
100
AcDbLine
 10
4400.0
 20
3208.999999999999
 30
0.0
 11
4400.0
 21
3109.0
 31
0.0
  0
SOLID
  5
2784
330
1F
100
AcDbEntity
  8
SUNPO
 62
   144
100
AcDbTrace
 10
4395.333333333333
 20
3237.0
 30
0.0
 11
4404.666666666667
 21
3237.0
 31
0.0
 12
4400.0
 22
3208.999999999999
 32
0.0
 13
4400.0
 23
3208.999999999999
 33
0.0
  0
SOLID
  5
2785
330
1F
100
AcDbEntity
  8
SUNPO
 62
   144
100
AcDbTrace
 10
4395.333333333333
 20
3081.0
 30
0.0
 11
4404.666666666667
 21
3081.0
 31
0.0
 12
4400.0
 22
3109.0
 32
0.0
 13
4400.0
 23
3109.0
 33
0.0
  0
LINE
  5
2787
330
1F
100
AcDbEntity
  8
SUNPO
 62
   144
100
AcDbLine
 10
2330.0
 20
3208.999999999999
 30
0.0
 11
2560.0
 21
3208.999999999999
 31
0.0
  0
LINE
  5
2788
330
1F
100
AcDbEntity
  8
SUNPO
 62
   144
100
AcDbLine
 10
2330.0
 20
2309.0
 30
0.0
 11
2560.0
 21
2309.0
 31
0.0
  0
LINE
  5
2789
330
1F
100
AcDbEntity
  8
SUNPO
 62
   144
100
AcDbLine
 10
2550.0
 20
3180.999999999999
 30
0.0
 11
2550.0
 21
2337.0
 31
0.0
  0
SOLID
  5
278A
330
1F
100
AcDbEntity
  8
SUNPO
 62
   144
100
AcDbTrace
 10
2545.333333333334
 20
3180.999999999999
 30
0.0
 11
2554.666666666667
 21
3180.999999999999
 31
0.0
 12
2550.0
 22
3208.999999999999
 32
0.0
 13
2550.0
 23
3208.999999999999
 33
0.0
  0
SOLID
  5
278B
330
1F
100
AcDbEntity
  8
SUNPO
 62
   144
100
AcDbTrace
 10
2545.333333333333
 20
2337.0
 30
0.0
 11
2554.666666666666
 21
2337.0
 31
0.0
 12
2550.0
 22
2309.0
 32
0.0
 13
2550.0
 23
2309.0
 33
0.0
  0
LINE
  5
278D
330
1F
100
AcDbEntity
  8
SUNPO
 62
   144
100
AcDbLine
 10
3530.0
 20
1810.0
 30
0.0
 11
3340.0
 21
1810.0
 31
0.0
  0
LINE
  5
278E
330
1F
100
AcDbEntity
  8
SUNPO
 62
   144
100
AcDbLine
 10
3530.0
 20
1190.0
 30
0.0
 11
3340.0
 21
1190.0
 31
0.0
  0
LINE
  5
278F
330
1F
100
AcDbEntity
  8
SUNPO
 62
   144
100
AcDbLine
 10
3350.0
 20
1782.0
 30
0.0
 11
3350.0
 21
1218.0
 31
0.0
  0
SOLID
  5
2790
330
1F
100
AcDbEntity
  8
SUNPO
 62
   144
100
AcDbTrace
 10
3345.333333333333
 20
1782.0
 30
0.0
 11
3354.666666666666
 21
1782.0
 31
0.0
 12
3350.0
 22
1810.0
 32
0.0
 13
3350.0
 23
1810.0
 33
0.0
  0
SOLID
  5
2791
330
1F
100
AcDbEntity
  8
SUNPO
 62
   144
100
AcDbTrace
 10
3345.333333333333
 20
1218.0
 30
0.0
 11
3354.666666666666
 21
1218.0
 31
0.0
 12
3350.0
 22
1190.0
 32
0.0
 13
3350.0
 23
1190.0
 33
0.0
  0
LINE
  5
2793
330
1F
100
AcDbEntity
  8
SUNPO
 62
   144
100
AcDbLine
 10
3530.0
 20
1300.0
 30
0.0
 11
3440.0
 21
1300.0
 31
0.0
  0
LINE
  5
2794
330
1F
100
AcDbEntity
  8
SUNPO
 62
   144
100
AcDbLine
 10
3530.0
 20
1190.0
 30
0.0
 11
3440.0
 21
1190.0
 31
0.0
  0
LINE
  5
2795
330
1F
100
AcDbEntity
  8
SUNPO
 62
   144
100
AcDbLine
 10
3450.0
 20
1328.0
 30
0.0
 11
3450.0
 21
1356.0
 31
0.0
  0
LINE
  5
2796
330
1F
100
AcDbEntity
  8
SUNPO
 62
   144
100
AcDbLine
 10
3450.0
 20
1162.0
 30
0.0
 11
3450.0
 21
1134.0
 31
0.0
  0
LINE
  5
2797
330
1F
100
AcDbEntity
  8
SUNPO
 62
   144
100
AcDbLine
 10
3450.0
 20
1300.0
 30
0.0
 11
3450.0
 21
1190.0
 31
0.0
  0
SOLID
  5
2798
330
1F
100
AcDbEntity
  8
SUNPO
 62
   144
100
AcDbTrace
 10
3445.333333333333
 20
1328.0
 30
0.0
 11
3454.666666666666
 21
1328.0
 31
0.0
 12
3450.0
 22
1300.0
 32
0.0
 13
3450.0
 23
1300.0
 33
0.0
  0
SOLID
  5
2799
330
1F
100
AcDbEntity
  8
SUNPO
 62
   144
100
AcDbTrace
 10
3445.333333333333
 20
1162.0
 30
0.0
 11
3454.666666666666
 21
1162.0
 31
0.0
 12
3450.0
 22
1190.0
 32
0.0
 13
3450.0
 23
1190.0
 33
0.0
  0
LINE
  5
279B
330
1F
100
AcDbEntity
  8
SUNPO
 62
   144
100
AcDbLine
 10
3530.0
 20
1700.0
 30
0.0
 11
3440.0
 21
1700.0
 31
0.0
  0
LINE
  5
279C
330
1F
100
AcDbEntity
  8
SUNPO
 62
   144
100
AcDbLine
 10
3530.0
 20
1300.0
 30
0.0
 11
3440.0
 21
1300.0
 31
0.0
  0
LINE
  5
279D
330
1F
100
AcDbEntity
  8
SUNPO
 62
   144
100
AcDbLine
 10
3450.0
 20
1672.0
 30
0.0
 11
3450.0
 21
1328.0
 31
0.0
  0
SOLID
  5
279E
330
1F
100
AcDbEntity
  8
SUNPO
 62
   144
100
AcDbTrace
 10
3445.333333333333
 20
1672.0
 30
0.0
 11
3454.666666666666
 21
1672.0
 31
0.0
 12
3450.0
 22
1700.0
 32
0.0
 13
3450.0
 23
1700.0
 33
0.0
  0
SOLID
  5
279F
330
1F
100
AcDbEntity
  8
SUNPO
 62
   144
100
AcDbTrace
 10
3445.333333333333
 20
1328.0
 30
0.0
 11
3454.666666666666
 21
1328.0
 31
0.0
 12
3450.0
 22
1300.0
 32
0.0
 13
3450.0
 23
1300.0
 33
0.0
  0
LINE
  5
27A1
330
1F
100
AcDbEntity
  8
SUNPO
 62
   144
100
AcDbLine
 10
3530.0
 20
1810.0
 30
0.0
 11
3440.0
 21
1810.0
 31
0.0
  0
LINE
  5
27A2
330
1F
100
AcDbEntity
  8
SUNPO
 62
   144
100
AcDbLine
 10
3530.0
 20
1700.0
 30
0.0
 11
3440.0
 21
1700.0
 31
0.0
  0
LINE
  5
27A3
330
1F
100
AcDbEntity
  8
SUNPO
 62
   144
100
AcDbLine
 10
3450.0
 20
1838.0
 30
0.0
 11
3450.0
 21
1866.0
 31
0.0
  0
LINE
  5
27A4
330
1F
100
AcDbEntity
  8
SUNPO
 62
   144
100
AcDbLine
 10
3450.0
 20
1672.0
 30
0.0
 11
3450.0
 21
1644.0
 31
0.0
  0
LINE
  5
27A5
330
1F
100
AcDbEntity
  8
SUNPO
 62
   144
100
AcDbLine
 10
3450.0
 20
1810.0
 30
0.0
 11
3450.0
 21
1700.0
 31
0.0
  0
SOLID
  5
27A6
330
1F
100
AcDbEntity
  8
SUNPO
 62
   144
100
AcDbTrace
 10
3445.333333333333
 20
1838.0
 30
0.0
 11
3454.666666666666
 21
1838.0
 31
0.0
 12
3450.0
 22
1810.0
 32
0.0
 13
3450.0
 23
1810.0
 33
0.0
  0
SOLID
  5
27A7
330
1F
100
AcDbEntity
  8
SUNPO
 62
   144
100
AcDbTrace
 10
3445.333333333333
 20
1672.0
 30
0.0
 11
3454.666666666666
 21
1672.0
 31
0.0
 12
3450.0
 22
1700.0
 32
0.0
 13
3450.0
 23
1700.0
 33
0.0
  0
LINE
  5
27A9
330
1F
100
AcDbEntity
  8
SUNPO
 62
   144
100
AcDbLine
 10
4100.0
 20
1170.0
 30
0.0
 11
4100.0
 21
1040.0
 31
0.0
  0
LINE
  5
27AA
330
1F
100
AcDbEntity
  8
SUNPO
 62
   144
100
AcDbLine
 10
4250.0
 20
1170.0
 30
0.0
 11
4250.0
 21
1040.0
 31
0.0
  0
LINE
  5
27AB
330
1F
100
AcDbEntity
  8
SUNPO
 62
   144
100
AcDbLine
 10
4128.0
 20
1050.0
 30
0.0
 11
4222.0
 21
1050.0
 31
0.0
  0
SOLID
  5
27AC
330
1F
100
AcDbEntity
  8
SUNPO
 62
   144
100
AcDbTrace
 10
4128.0
 20
1054.666666666666
 30
0.0
 11
4128.0
 21
1045.333333333333
 31
0.0
 12
4100.0
 22
1050.0
 32
0.0
 13
4100.0
 23
1050.0
 33
0.0
  0
SOLID
  5
27AD
330
1F
100
AcDbEntity
  8
SUNPO
 62
   144
100
AcDbTrace
 10
4222.0
 20
1054.666666666666
 30
0.0
 11
4222.0
 21
1045.333333333333
 31
0.0
 12
4250.0
 22
1050.0
 32
0.0
 13
4250.0
 23
1050.0
 33
0.0
  0
LINE
  5
27AF
330
1F
100
AcDbEntity
  8
SUNPO
 62
   144
100
AcDbLine
 10
3699.999999999999
 20
1170.0
 30
0.0
 11
3699.999999999999
 21
1040.0
 31
0.0
  0
LINE
  5
27B0
330
1F
100
AcDbEntity
  8
SUNPO
 62
   144
100
AcDbLine
 10
4100.0
 20
1170.0
 30
0.0
 11
4100.0
 21
1040.0
 31
0.0
  0
LINE
  5
27B1
330
1F
100
AcDbEntity
  8
SUNPO
 62
   144
100
AcDbLine
 10
3727.999999999999
 20
1050.0
 30
0.0
 11
4072.0
 21
1050.0
 31
0.0
  0
SOLID
  5
27B2
330
1F
100
AcDbEntity
  8
SUNPO
 62
   144
100
AcDbTrace
 10
3727.999999999999
 20
1054.666666666666
 30
0.0
 11
3727.999999999999
 21
1045.333333333333
 31
0.0
 12
3699.999999999999
 22
1050.0
 32
0.0
 13
3699.999999999999
 23
1050.0
 33
0.0
  0
SOLID
  5
27B3
330
1F
100
AcDbEntity
  8
SUNPO
 62
   144
100
AcDbTrace
 10
4072.0
 20
1054.666666666666
 30
0.0
 11
4072.0
 21
1045.333333333333
 31
0.0
 12
4100.0
 22
1050.0
 32
0.0
 13
4100.0
 23
1050.0
 33
0.0
  0
LINE
  5
27B5
330
1F
100
AcDbEntity
  8
SUNPO
 62
   144
100
AcDbLine
 10
3550.0
 20
1170.0
 30
0.0
 11
3550.0
 21
1040.0
 31
0.0
  0
LINE
  5
27B6
330
1F
100
AcDbEntity
  8
SUNPO
 62
   144
100
AcDbLine
 10
3699.999999999999
 20
1170.0
 30
0.0
 11
3699.999999999999
 21
1040.0
 31
0.0
  0
LINE
  5
27B7
330
1F
100
AcDbEntity
  8
SUNPO
 62
   144
100
AcDbLine
 10
3578.0
 20
1050.0
 30
0.0
 11
3672.0
 21
1050.0
 31
0.0
  0
SOLID
  5
27B8
330
1F
100
AcDbEntity
  8
SUNPO
 62
   144
100
AcDbTrace
 10
3578.0
 20
1054.666666666666
 30
0.0
 11
3578.0
 21
1045.333333333333
 31
0.0
 12
3550.0
 22
1050.0
 32
0.0
 13
3550.0
 23
1050.0
 33
0.0
  0
SOLID
  5
27B9
330
1F
100
AcDbEntity
  8
SUNPO
 62
   144
100
AcDbTrace
 10
3672.0
 20
1054.666666666666
 30
0.0
 11
3672.0
 21
1045.333333333333
 31
0.0
 12
3699.999999999999
 22
1050.0
 32
0.0
 13
3699.999999999999
 23
1050.0
 33
0.0
  0
LINE
  5
27BB
330
1F
100
AcDbEntity
  8
SUNPO
 62
   144
100
AcDbLine
 10
4100.0
 20
2289.0
 30
0.0
 11
4100.0
 21
2140.0
 31
0.0
  0
LINE
  5
27BC
330
1F
100
AcDbEntity
  8
SUNPO
 62
   144
100
AcDbLine
 10
4250.0
 20
2289.0
 30
0.0
 11
4250.0
 21
2140.0
 31
0.0
  0
LINE
  5
27BD
330
1F
100
AcDbEntity
  8
SUNPO
 62
   144
100
AcDbLine
 10
4128.0
 20
2150.0
 30
0.0
 11
4222.0
 21
2150.0
 31
0.0
  0
SOLID
  5
27BE
330
1F
100
AcDbEntity
  8
SUNPO
 62
   144
100
AcDbTrace
 10
4128.0
 20
2154.666666666666
 30
0.0
 11
4128.0
 21
2145.333333333333
 31
0.0
 12
4100.0
 22
2150.0
 32
0.0
 13
4100.0
 23
2150.0
 33
0.0
  0
SOLID
  5
27BF
330
1F
100
AcDbEntity
  8
SUNPO
 62
   144
100
AcDbTrace
 10
4222.0
 20
2154.666666666666
 30
0.0
 11
4222.0
 21
2145.333333333333
 31
0.0
 12
4250.0
 22
2150.0
 32
0.0
 13
4250.0
 23
2150.0
 33
0.0
  0
LINE
  5
27C1
330
1F
100
AcDbEntity
  8
SUNPO
 62
   144
100
AcDbLine
 10
3699.999999999999
 20
2289.0
 30
0.0
 11
3699.999999999999
 21
2140.0
 31
0.0
  0
LINE
  5
27C2
330
1F
100
AcDbEntity
  8
SUNPO
 62
   144
100
AcDbLine
 10
4100.0
 20
2289.0
 30
0.0
 11
4100.0
 21
2140.0
 31
0.0
  0
LINE
  5
27C3
330
1F
100
AcDbEntity
  8
SUNPO
 62
   144
100
AcDbLine
 10
3727.999999999999
 20
2150.0
 30
0.0
 11
4072.0
 21
2150.0
 31
0.0
  0
SOLID
  5
27C4
330
1F
100
AcDbEntity
  8
SUNPO
 62
   144
100
AcDbTrace
 10
3727.999999999999
 20
2154.666666666666
 30
0.0
 11
3727.999999999999
 21
2145.333333333333
 31
0.0
 12
3699.999999999999
 22
2150.0
 32
0.0
 13
3699.999999999999
 23
2150.0
 33
0.0
  0
SOLID
  5
27C5
330
1F
100
AcDbEntity
  8
SUNPO
 62
   144
100
AcDbTrace
 10
4072.0
 20
2154.666666666666
 30
0.0
 11
4072.0
 21
2145.333333333333
 31
0.0
 12
4100.0
 22
2150.0
 32
0.0
 13
4100.0
 23
2150.0
 33
0.0
  0
LINE
  5
27C7
330
1F
100
AcDbEntity
  8
SUNPO
 62
   144
100
AcDbLine
 10
3550.0
 20
2289.0
 30
0.0
 11
3550.0
 21
2140.0
 31
0.0
  0
LINE
  5
27C8
330
1F
100
AcDbEntity
  8
SUNPO
 62
   144
100
AcDbLine
 10
3699.999999999999
 20
2289.0
 30
0.0
 11
3699.999999999999
 21
2140.0
 31
0.0
  0
LINE
  5
27C9
330
1F
100
AcDbEntity
  8
SUNPO
 62
   144
100
AcDbLine
 10
3578.0
 20
2150.0
 30
0.0
 11
3672.0
 21
2150.0
 31
0.0
  0
SOLID
  5
27CA
330
1F
100
AcDbEntity
  8
SUNPO
 62
   144
100
AcDbTrace
 10
3578.0
 20
2154.666666666666
 30
0.0
 11
3578.0
 21
2145.333333333333
 31
0.0
 12
3550.0
 22
2150.0
 32
0.0
 13
3550.0
 23
2150.0
 33
0.0
  0
SOLID
  5
27CB
330
1F
100
AcDbEntity
  8
SUNPO
 62
   144
100
AcDbTrace
 10
3672.0
 20
2154.666666666666
 30
0.0
 11
3672.0
 21
2145.333333333333
 31
0.0
 12
3699.999999999999
 22
2150.0
 32
0.0
 13
3699.999999999999
 23
2150.0
 33
0.0
  0
LINE
  5
27CD
330
1F
100
AcDbEntity
  8
SUNPO
 62
   144
100
AcDbLine
 10
2330.0
 20
3109.0
 30
0.0
 11
2460.0
 21
3109.0
 31
0.0
  0
LINE
  5
27CE
330
1F
100
AcDbEntity
  8
SUNPO
 62
   144
100
AcDbLine
 10
2330.0
 20
3209.0
 30
0.0
 11
2460.0
 21
3209.0
 31
0.0
  0
LINE
  5
27CF
330
1F
100
AcDbEntity
  8
SUNPO
 62
   144
100
AcDbLine
 10
2450.0
 20
3081.0
 30
0.0
 11
2449.999999999999
 21
3053.0
 31
0.0
  0
LINE
  5
27D0
330
1F
100
AcDbEntity
  8
SUNPO
 62
   144
100
AcDbLine
 10
2450.0
 20
3237.0
 30
0.0
 11
2450.0
 21
3265.0
 31
0.0
  0
LINE
  5
27D1
330
1F
100
AcDbEntity
  8
SUNPO
 62
   144
100
AcDbLine
 10
2450.0
 20
3109.0
 30
0.0
 11
2450.0
 21
3209.0
 31
0.0
  0
SOLID
  5
27D2
330
1F
100
AcDbEntity
  8
SUNPO
 62
   144
100
AcDbTrace
 10
2445.333333333334
 20
3081.0
 30
0.0
 11
2454.666666666666
 21
3081.0
 31
0.0
 12
2450.0
 22
3109.0
 32
0.0
 13
2450.0
 23
3109.0
 33
0.0
  0
SOLID
  5
27D3
330
1F
100
AcDbEntity
  8
SUNPO
 62
   144
100
AcDbTrace
 10
2445.333333333334
 20
3237.0
 30
0.0
 11
2454.666666666666
 21
3237.0
 31
0.0
 12
2450.0
 22
3209.0
 32
0.0
 13
2450.0
 23
3209.0
 33
0.0
  0
LINE
  5
27D5
330
1F
100
AcDbEntity
  8
SUNPO
 62
   144
100
AcDbLine
 10
2330.0
 20
2609.0
 30
0.0
 11
2460.0
 21
2609.0
 31
0.0
  0
LINE
  5
27D6
330
1F
100
AcDbEntity
  8
SUNPO
 62
   144
100
AcDbLine
 10
2330.0
 20
3109.0
 30
0.0
 11
2460.0
 21
3109.0
 31
0.0
  0
LINE
  5
27D7
330
1F
100
AcDbEntity
  8
SUNPO
 62
   144
100
AcDbLine
 10
2450.0
 20
2637.0
 30
0.0
 11
2450.0
 21
3081.0
 31
0.0
  0
SOLID
  5
27D8
330
1F
100
AcDbEntity
  8
SUNPO
 62
   144
100
AcDbTrace
 10
2445.333333333334
 20
2637.0
 30
0.0
 11
2454.666666666666
 21
2637.0
 31
0.0
 12
2450.0
 22
2609.0
 32
0.0
 13
2450.0
 23
2609.0
 33
0.0
  0
SOLID
  5
27D9
330
1F
100
AcDbEntity
  8
SUNPO
 62
   144
100
AcDbTrace
 10
2445.333333333334
 20
3081.0
 30
0.0
 11
2454.666666666667
 21
3081.0
 31
0.0
 12
2450.0
 22
3109.0
 32
0.0
 13
2450.0
 23
3109.0
 33
0.0
  0
LINE
  5
27DB
330
1F
100
AcDbEntity
  8
SUNPO
 62
   144
100
AcDbLine
 10
2330.0
 20
2459.0
 30
0.0
 11
2460.0
 21
2459.0
 31
0.0
  0
LINE
  5
27DC
330
1F
100
AcDbEntity
  8
SUNPO
 62
   144
100
AcDbLine
 10
2330.0
 20
2609.0
 30
0.0
 11
2460.0
 21
2609.0
 31
0.0
  0
LINE
  5
27DD
330
1F
100
AcDbEntity
  8
SUNPO
 62
   144
100
AcDbLine
 10
2450.0
 20
2487.0
 30
0.0
 11
2450.0
 21
2581.0
 31
0.0
  0
SOLID
  5
27DE
330
1F
100
AcDbEntity
  8
SUNPO
 62
   144
100
AcDbTrace
 10
2445.333333333334
 20
2487.0
 30
0.0
 11
2454.666666666666
 21
2487.0
 31
0.0
 12
2450.0
 22
2459.0
 32
0.0
 13
2450.0
 23
2459.0
 33
0.0
  0
SOLID
  5
27DF
330
1F
100
AcDbEntity
  8
SUNPO
 62
   144
100
AcDbTrace
 10
2445.333333333334
 20
2581.0
 30
0.0
 11
2454.666666666666
 21
2581.0
 31
0.0
 12
2450.0
 22
2609.0
 32
0.0
 13
2450.0
 23
2609.0
 33
0.0
  0
LINE
  5
27E1
330
1F
100
AcDbEntity
  8
SUNPO
 62
   144
100
AcDbLine
 10
2330.0
 20
2309.0
 30
0.0
 11
2460.0
 21
2309.0
 31
0.0
  0
LINE
  5
27E2
330
1F
100
AcDbEntity
  8
SUNPO
 62
   144
100
AcDbLine
 10
2330.0
 20
2459.0
 30
0.0
 11
2460.0
 21
2459.0
 31
0.0
  0
LINE
  5
27E3
330
1F
100
AcDbEntity
  8
SUNPO
 62
   144
100
AcDbLine
 10
2450.0
 20
2337.0
 30
0.0
 11
2450.0
 21
2431.0
 31
0.0
  0
SOLID
  5
27E4
330
1F
100
AcDbEntity
  8
SUNPO
 62
   144
100
AcDbTrace
 10
2445.333333333334
 20
2337.0
 30
0.0
 11
2454.666666666666
 21
2337.0
 31
0.0
 12
2450.0
 22
2309.0
 32
0.0
 13
2450.0
 23
2309.0
 33
0.0
  0
SOLID
  5
27E5
330
1F
100
AcDbEntity
  8
SUNPO
 62
   144
100
AcDbTrace
 10
2445.333333333334
 20
2431.0
 30
0.0
 11
2454.666666666666
 21
2431.0
 31
0.0
 12
2450.0
 22
2459.0
 32
0.0
 13
2450.0
 23
2459.0
 33
0.0
  0
LINE
  5
27E7
330
1F
100
AcDbEntity
  8
SUNPO
 62
   144
100
AcDbLine
 10
2200.0
 20
2289.0
 30
0.0
 11
2200.0
 21
2140.0
 31
0.0
  0
LINE
  5
27E8
330
1F
100
AcDbEntity
  8
SUNPO
 62
   144
100
AcDbLine
 10
2310.0
 20
2289.0
 30
0.0
 11
2310.0
 21
2140.0
 31
0.0
  0
LINE
  5
27E9
330
1F
100
AcDbEntity
  8
SUNPO
 62
   144
100
AcDbLine
 10
2172.0
 20
2150.0
 30
0.0
 11
2144.0
 21
2150.0
 31
0.0
  0
LINE
  5
27EA
330
1F
100
AcDbEntity
  8
SUNPO
 62
   144
100
AcDbLine
 10
2338.0
 20
2150.0
 30
0.0
 11
2366.0
 21
2150.0
 31
0.0
  0
LINE
  5
27EB
330
1F
100
AcDbEntity
  8
SUNPO
 62
   144
100
AcDbLine
 10
2200.0
 20
2150.0
 30
0.0
 11
2310.0
 21
2150.0
 31
0.0
  0
SOLID
  5
27EC
330
1F
100
AcDbEntity
  8
SUNPO
 62
   144
100
AcDbTrace
 10
2172.0
 20
2154.666666666666
 30
0.0
 11
2172.0
 21
2145.333333333333
 31
0.0
 12
2200.0
 22
2150.0
 32
0.0
 13
2200.0
 23
2150.0
 33
0.0
  0
SOLID
  5
27ED
330
1F
100
AcDbEntity
  8
SUNPO
 62
   144
100
AcDbTrace
 10
2338.0
 20
2154.666666666666
 30
0.0
 11
2338.0
 21
2145.333333333333
 31
0.0
 12
2310.0
 22
2150.0
 32
0.0
 13
2310.0
 23
2150.0
 33
0.0
  0
LINE
  5
27EF
330
1F
100
AcDbEntity
  8
SUNPO
 62
   144
100
AcDbLine
 10
1799.999999999999
 20
2289.0
 30
0.0
 11
1799.999999999999
 21
2140.0
 31
0.0
  0
LINE
  5
27F0
330
1F
100
AcDbEntity
  8
SUNPO
 62
   144
100
AcDbLine
 10
2200.0
 20
2289.0
 30
0.0
 11
2200.0
 21
2140.0
 31
0.0
  0
LINE
  5
27F1
330
1F
100
AcDbEntity
  8
SUNPO
 62
   144
100
AcDbLine
 10
1827.999999999999
 20
2150.0
 30
0.0
 11
2172.0
 21
2150.0
 31
0.0
  0
SOLID
  5
27F2
330
1F
100
AcDbEntity
  8
SUNPO
 62
   144
100
AcDbTrace
 10
1827.999999999999
 20
2154.666666666666
 30
0.0
 11
1827.999999999999
 21
2145.333333333333
 31
0.0
 12
1799.999999999999
 22
2150.0
 32
0.0
 13
1799.999999999999
 23
2150.0
 33
0.0
  0
SOLID
  5
27F3
330
1F
100
AcDbEntity
  8
SUNPO
 62
   144
100
AcDbTrace
 10
2172.0
 20
2154.666666666666
 30
0.0
 11
2172.0
 21
2145.333333333333
 31
0.0
 12
2200.0
 22
2150.0
 32
0.0
 13
2200.0
 23
2150.0
 33
0.0
  0
LINE
  5
27F5
330
1F
100
AcDbEntity
  8
SUNPO
 62
   144
100
AcDbLine
 10
1689.999999999999
 20
2289.0
 30
0.0
 11
1689.999999999999
 21
2140.0
 31
0.0
  0
LINE
  5
27F6
330
1F
100
AcDbEntity
  8
SUNPO
 62
   144
100
AcDbLine
 10
1799.999999999999
 20
2289.0
 30
0.0
 11
1799.999999999999
 21
2140.0
 31
0.0
  0
LINE
  5
27F7
330
1F
100
AcDbEntity
  8
SUNPO
 62
   144
100
AcDbLine
 10
1661.999999999999
 20
2150.0
 30
0.0
 11
1633.999999999999
 21
2150.0
 31
0.0
  0
LINE
  5
27F8
330
1F
100
AcDbEntity
  8
SUNPO
 62
   144
100
AcDbLine
 10
1827.999999999999
 20
2150.0
 30
0.0
 11
1855.999999999999
 21
2150.0
 31
0.0
  0
LINE
  5
27F9
330
1F
100
AcDbEntity
  8
SUNPO
 62
   144
100
AcDbLine
 10
1689.999999999999
 20
2150.0
 30
0.0
 11
1799.999999999999
 21
2150.0
 31
0.0
  0
SOLID
  5
27FA
330
1F
100
AcDbEntity
  8
SUNPO
 62
   144
100
AcDbTrace
 10
1661.999999999999
 20
2154.666666666666
 30
0.0
 11
1661.999999999999
 21
2145.333333333333
 31
0.0
 12
1689.999999999999
 22
2150.0
 32
0.0
 13
1689.999999999999
 23
2150.0
 33
0.0
  0
SOLID
  5
27FB
330
1F
100
AcDbEntity
  8
SUNPO
 62
   144
100
AcDbTrace
 10
1827.999999999999
 20
2154.666666666666
 30
0.0
 11
1827.999999999999
 21
2145.333333333333
 31
0.0
 12
1799.999999999999
 22
2150.0
 32
0.0
 13
1799.999999999999
 23
2150.0
 33
0.0
  0
LINE
  5
27FD
330
1F
100
AcDbEntity
  8
SUNPO
 62
   144
100
AcDbLine
 10
1690.0
 20
3229.0
 30
0.0
 11
1690.0
 21
3510.0
 31
0.0
  0
LINE
  5
27FE
330
1F
100
AcDbEntity
  8
SUNPO
 62
   144
100
AcDbLine
 10
2310.0
 20
3229.0
 30
0.0
 11
2310.0
 21
3510.0
 31
0.0
  0
LINE
  5
27FF
330
1F
100
AcDbEntity
  8
SUNPO
 62
   144
100
AcDbLine
 10
1718.0
 20
3500.0
 30
0.0
 11
2282.0
 21
3500.0
 31
0.0
  0
SOLID
  5
2800
330
1F
100
AcDbEntity
  8
SUNPO
 62
   144
100
AcDbTrace
 10
1718.0
 20
3504.666666666667
 30
0.0
 11
1718.0
 21
3495.333333333333
 31
0.0
 12
1690.0
 22
3500.0
 32
0.0
 13
1690.0
 23
3500.0
 33
0.0
  0
SOLID
  5
2801
330
1F
100
AcDbEntity
  8
SUNPO
 62
   144
100
AcDbTrace
 10
2282.0
 20
3504.666666666667
 30
0.0
 11
2282.0
 21
3495.333333333333
 31
0.0
 12
2310.0
 22
3500.0
 32
0.0
 13
2310.0
 23
3500.0
 33
0.0
  0
TEXT
  5
2803
330
1F
100
AcDbEntity
  8
SUNPO
100
AcDbText
 10
2409.761904761904
 20
370.0
 30
0.0
 40
80.0
  1
BFLM40-50
  7
ADD
100
AcDbText
1001
ACAD
1000
MTEXTBEGIN
1070
    73
1070
     1
1070
    44
1040
1.0
1070
    74
1070
     0
1000
MTEXTEND
1000
MTEXTBEGIN
1070
    73
1070
     1
1070
    44
1040
1.0
1070
    74
1070
     0
1000
MTEXTEND
1000
MTEXTBEGIN
1070
    73
1070
     1
1070
    44
1040
1.0
1070
    74
1070
     0
1000
MTEXTEND
1000
MTEXTBEGIN
1070
    73
1070
     1
1070
    44
1040
1.0
1070
    74
1070
     0
1000
MTEXTEND
1000
MTEXTBEGIN
1070
    73
1070
     1
1070
    44
1040
1.0
1070
    74
1070
     0
1000
MTEXTEND
  0
TEXT
  5
2804
330
1F
100
AcDbEntity
  8
SUNPO
100
AcDbText
 10
734.7619047619048
 20
370.0
 30
0.0
 40
80.0
  1
BFL桝
  7
ADD
100
AcDbText
1001
ACAD
1000
MTEXTBEGIN
1070
    73
1070
     1
1070
    44
1040
1.0
1070
    74
1070
     0
1000
MTEXTEND
1000
MTEXTBEGIN
1070
    73
1070
     1
1070
    44
1040
1.0
1070
    74
1070
     0
1000
MTEXTEND
1000
MTEXTBEGIN
1070
    73
1070
     1
1070
    44
1040
1.0
1070
    74
1070
     0
1000
MTEXTEND
1000
MTEXTBEGIN
1070
    73
1070
     1
1070
    44
1040
1.0
1070
    74
1070
     0
1000
MTEXTEND
1000
MTEXTBEGIN
1070
    73
1070
     1
1070
    44
1040
1.0
1070
    74
1070
     0
1000
MTEXTEND
  0
TEXT
  5
2805
330
1F
100
AcDbEntity
  8
SUNPO
100
AcDbText
 10
3246.680311730542
 20
359.2274732162223
 30
0.0
 40
70.0
  1
１／２０
  7
ADD
100
AcDbText
1001
ACAD
1000
MTEXTBEGIN
1070
    73
1070
     1
1070
    44
1040
1.0
1070
    74
1070
     0
1000
MTEXTEND
1000
MTEXTBEGIN
1070
    73
1070
     1
1070
    44
1040
1.0
1070
    74
1070
     0
1000
MTEXTEND
1000
MTEXTBEGIN
1070
    73
1070
     1
1070
    44
1040
1.0
1070
    74
1070
     0
1000
MTEXTEND
1000
MTEXTBEGIN
1070
    73
1070
     1
1070
    44
1040
1.0
1070
    74
1070
     0
1000
MTEXTEND
1000
MTEXTBEGIN
1070
    73
1070
     1
1070
    44
1040
1.0
1070
    74
1070
     0
1000
MTEXTEND
  0
TEXT
  5
2806
330
1F
100
AcDbEntity
  8
SUNPO
100
AcDbText
 10
381.8862574011546
 20
488.6918916770627
 30
0.0
 40
50.0
  1
製品名
  7
ADD
100
AcDbText
1001
ACAD
1000
MTEXTBEGIN
1070
    73
1070
     1
1070
    44
1040
1.0
1070
    74
1070
     0
1000
MTEXTEND
1000
MTEXTBEGIN
1070
    73
1070
     1
1070
    44
1040
1.0
1070
    74
1070
     0
1000
MTEXTEND
1000
MTEXTBEGIN
1070
    73
1070
     1
1070
    44
1040
1.0
1070
    74
1070
     0
1000
MTEXTEND
1000
MTEXTBEGIN
1070
    73
1070
     1
1070
    44
1040
1.0
1070
    74
1070
     0
1000
MTEXTEND
1000
MTEXTBEGIN
1070
    73
1070
     1
1070
    44
1040
1.0
1070
    74
1070
     0
1000
MTEXTEND
  0
TEXT
  5
2807
330
1F
100
AcDbEntity
  8
SUNPO
100
AcDbText
 10
2376.290169028722
 20
494.4531736811823
 30
0.0
 40
50.0
  1
型式
  7
ADD
100
AcDbText
1001
ACAD
1000
MTEXTBEGIN
1070
    73
1070
     1
1070
    44
1040
1.0
1070
    74
1070
     0
1000
MTEXTEND
1000
MTEXTBEGIN
1070
    73
1070
     1
1070
    44
1040
1.0
1070
    74
1070
     0
1000
MTEXTEND
1000
MTEXTBEGIN
1070
    73
1070
     1
1070
    44
1040
1.0
1070
    74
1070
     0
1000
MTEXTEND
1000
MTEXTBEGIN
1070
    73
1070
     1
1070
    44
1040
1.0
1070
    74
1070
     0
1000
MTEXTEND
1000
MTEXTBEGIN
1070
    73
1070
     1
1070
    44
1040
1.0
1070
    74
1070
     0
1000
MTEXTEND
  0
TEXT
  5
2808
330
1F
100
AcDbEntity
  8
SUNPO
100
AcDbText
 10
3177.510249231658
 20
488.6918916770627
 30
0.0
 40
50.0
  1
縮尺
  7
ADD
100
AcDbText
1001
ACAD
1000
MTEXTBEGIN
1070
    73
1070
     1
1070
    44
1040
1.0
1070
    74
1070
     0
1000
MTEXTEND
1000
MTEXTBEGIN
1070
    73
1070
     1
1070
    44
1040
1.0
1070
    74
1070
     0
1000
MTEXTEND
1000
MTEXTBEGIN
1070
    73
1070
     1
1070
    44
1040
1.0
1070
    74
1070
     0
1000
MTEXTEND
1000
MTEXTBEGIN
1070
    73
1070
     1
1070
    44
1040
1.0
1070
    74
1070
     0
1000
MTEXTEND
1000
MTEXTBEGIN
1070
    73
1070
     1
1070
    44
1040
1.0
1070
    74
1070
     0
1000
MTEXTEND
  0
TEXT
  5
2809
330
1F
100
AcDbEntity
  8
SUNPO
100
AcDbText
 10
3730.870883051572
 20
352.2726133092145
 30
0.0
 40
100.0
  1
千葉県コンクリート製品協同組合
  7
ADD
100
AcDbText
1001
ACAD
1000
MTEXTBEGIN
1070
    73
1070
     1
1070
    44
1040
1.0
1070
    74
1070
     0
1000
MTEXTEND
1000
MTEXTBEGIN
1070
    73
1070
     1
1070
    44
1040
1.0
1070
    74
1070
     0
1000
MTEXTEND
1000
MTEXTBEGIN
1070
    73
1070
     1
1070
    44
1040
1.0
1070
    74
1070
     0
1000
MTEXTEND
1000
MTEXTBEGIN
1070
    73
1070
     1
1070
    44
1040
1.0
1070
    74
1070
     0
1000
MTEXTEND
1000
MTEXTBEGIN
1070
    73
1070
     1
1070
    44
1040
1.0
1070
    74
1070
     0
1000
MTEXTEND
  0
LINE
  5
280A
330
1F
100
AcDbEntity
  8
3C1
100
AcDbLine
 10
360.0
 20
260.0
 30
0.0
 11
5580.0
 21
260.0
 31
0.0
  0
LINE
  5
280B
330
1F
100
AcDbEntity
  8
3C1
100
AcDbLine
 10
5580.0
 20
260.0
 30
0.0
 11
5580.0
 21
3940.0
 31
0.0
  0
LINE
  5
280C
330
1F
100
AcDbEntity
  8
3C1
100
AcDbLine
 10
5580.0
 20
3940.0
 30
0.0
 11
360.0
 21
3940.0
 31
0.0
  0
LINE
  5
280D
330
1F
100
AcDbEntity
  8
3C1
100
AcDbLine
 10
360.0
 20
3940.0
 30
0.0
 11
360.0
 21
260.0
 31
0.0
  0
LINE
  5
280E
330
1F
100
AcDbEntity
  8
HOJO
100
AcDbLine
 10
0.0
 20
0.0
 30
0.0
 11
5940.0
 21
0.0
 31
0.0
  0
LINE
  5
280F
330
1F
100
AcDbEntity
  8
HOJO
100
AcDbLine
 10
5940.0
 20
0.0
 30
0.0
 11
5940.0
 21
4200.0
 31
0.0
  0
LINE
  5
2810
330
1F
100
AcDbEntity
  8
HOJO
100
AcDbLine
 10
5940.0
 20
4200.0
 30
0.0
 11
0.0
 21
4200.0
 31
0.0
  0
LINE
  5
2811
330
1F
100
AcDbEntity
  8
HOJO
100
AcDbLine
 10
0.0
 20
4200.0
 30
0.0
 11
0.0
 21
0.0
 31
0.0
  0
TEXT
  5
2812
330
1F
100
AcDbEntity
  8
SUNPO
 62
     7
100
AcDbText
 10
1947.714285714285
 20
3512.5
 30
0.0
 40
36.0
  1
620
  7
ADD
100
AcDbText
1001
ACAD
1000
MTEXTBEGIN
1070
    73
1070
     1
1070
    44
1040
1.0
1070
    74
1070
     0
1000
MTEXTEND
1000
MTEXTBEGIN
1070
    73
1070
     1
1070
    44
1040
1.0
1070
    74
1070
     0
1000
MTEXTEND
1000
MTEXTBEGIN
1070
    73
1070
     1
1070
    44
1040
1.0
1070
    74
1070
     0
1000
MTEXTEND
1000
MTEXTBEGIN
1070
    73
1070
     1
1070
    44
1040
1.0
1070
    74
1070
     0
1000
MTEXTEND
1000
MTEXTBEGIN
1070
    73
1070
     1
1070
    44
1040
1.0
1070
    74
1070
     0
1000
MTEXTEND
  0
TEXT
  5
2813
330
1F
100
AcDbEntity
  8
SUNPO
 62
     7
100
AcDbText
 10
1690.999999999999
 20
2162.5
 30
0.0
 40
36.0
  1
110
  7
ADD
100
AcDbText
1001
ACAD
1000
MTEXTBEGIN
1070
    73
1070
     1
1070
    44
1040
1.0
1070
    74
1070
     0
1000
MTEXTEND
1000
MTEXTBEGIN
1070
    73
1070
     1
1070
    44
1040
1.0
1070
    74
1070
     0
1000
MTEXTEND
1000
MTEXTBEGIN
1070
    73
1070
     1
1070
    44
1040
1.0
1070
    74
1070
     0
1000
MTEXTEND
1000
MTEXTBEGIN
1070
    73
1070
     1
1070
    44
1040
1.0
1070
    74
1070
     0
1000
MTEXTEND
1000
MTEXTBEGIN
1070
    73
1070
     1
1070
    44
1040
1.0
1070
    74
1070
     0
1000
MTEXTEND
  0
TEXT
  5
2814
330
1F
100
AcDbEntity
  8
SUNPO
 62
     7
100
AcDbText
 10
1948.571428571428
 20
2162.5
 30
0.0
 40
36.0
  1
400
  7
ADD
100
AcDbText
1001
ACAD
1000
MTEXTBEGIN
1070
    73
1070
     1
1070
    44
1040
1.0
1070
    74
1070
     0
1000
MTEXTEND
1000
MTEXTBEGIN
1070
    73
1070
     1
1070
    44
1040
1.0
1070
    74
1070
     0
1000
MTEXTEND
1000
MTEXTBEGIN
1070
    73
1070
     1
1070
    44
1040
1.0
1070
    74
1070
     0
1000
MTEXTEND
1000
MTEXTBEGIN
1070
    73
1070
     1
1070
    44
1040
1.0
1070
    74
1070
     0
1000
MTEXTEND
1000
MTEXTBEGIN
1070
    73
1070
     1
1070
    44
1040
1.0
1070
    74
1070
     0
1000
MTEXTEND
  0
TEXT
  5
2815
330
1F
100
AcDbEntity
  8
SUNPO
 62
     7
100
AcDbText
 10
2201.0
 20
2162.5
 30
0.0
 40
36.0
  1
110
  7
ADD
100
AcDbText
1001
ACAD
1000
MTEXTBEGIN
1070
    73
1070
     1
1070
    44
1040
1.0
1070
    74
1070
     0
1000
MTEXTEND
1000
MTEXTBEGIN
1070
    73
1070
     1
1070
    44
1040
1.0
1070
    74
1070
     0
1000
MTEXTEND
1000
MTEXTBEGIN
1070
    73
1070
     1
1070
    44
1040
1.0
1070
    74
1070
     0
1000
MTEXTEND
1000
MTEXTBEGIN
1070
    73
1070
     1
1070
    44
1040
1.0
1070
    74
1070
     0
1000
MTEXTEND
1000
MTEXTBEGIN
1070
    73
1070
     1
1070
    44
1040
1.0
1070
    74
1070
     0
1000
MTEXTEND
  0
TEXT
  5
2816
330
1F
100
AcDbEntity
  8
SUNPO
 62
     7
100
AcDbText
 10
2437.5
 20
2330.0
 30
0.0
 40
36.0
  1
150
 50
90.0
  7
ADD
100
AcDbText
1001
ACAD
1000
MTEXTBEGIN
1070
    73
1070
     1
1070
    44
1040
1.0
1070
    74
1070
     0
1000
MTEXTEND
1000
MTEXTBEGIN
1070
    73
1070
     1
1070
    44
1040
1.0
1070
    74
1070
     0
1000
MTEXTEND
1000
MTEXTBEGIN
1070
    73
1070
     1
1070
    44
1040
1.0
1070
    74
1070
     0
1000
MTEXTEND
1000
MTEXTBEGIN
1070
    73
1070
     1
1070
    44
1040
1.0
1070
    74
1070
     0
1000
MTEXTEND
1000
MTEXTBEGIN
1070
    73
1070
     1
1070
    44
1040
1.0
1070
    74
1070
     0
1000
MTEXTEND
  0
TEXT
  5
2817
330
1F
100
AcDbEntity
  8
SUNPO
 62
     7
100
AcDbText
 10
2437.5
 20
2480.0
 30
0.0
 40
36.0
  1
150
 50
90.0
  7
ADD
100
AcDbText
1001
ACAD
1000
MTEXTBEGIN
1070
    73
1070
     1
1070
    44
1040
1.0
1070
    74
1070
     0
1000
MTEXTEND
1000
MTEXTBEGIN
1070
    73
1070
     1
1070
    44
1040
1.0
1070
    74
1070
     0
1000
MTEXTEND
1000
MTEXTBEGIN
1070
    73
1070
     1
1070
    44
1040
1.0
1070
    74
1070
     0
1000
MTEXTEND
1000
MTEXTBEGIN
1070
    73
1070
     1
1070
    44
1040
1.0
1070
    74
1070
     0
1000
MTEXTEND
1000
MTEXTBEGIN
1070
    73
1070
     1
1070
    44
1040
1.0
1070
    74
1070
     0
1000
MTEXTEND
  0
TEXT
  5
2818
330
1F
100
AcDbEntity
  8
SUNPO
 62
     7
100
AcDbText
 10
2437.5
 20
2807.571428571429
 30
0.0
 40
36.0
  1
500
 50
90.0
  7
ADD
100
AcDbText
1001
ACAD
1000
MTEXTBEGIN
1070
    73
1070
     1
1070
    44
1040
1.0
1070
    74
1070
     0
1000
MTEXTEND
1000
MTEXTBEGIN
1070
    73
1070
     1
1070
    44
1040
1.0
1070
    74
1070
     0
1000
MTEXTEND
1000
MTEXTBEGIN
1070
    73
1070
     1
1070
    44
1040
1.0
1070
    74
1070
     0
1000
MTEXTEND
1000
MTEXTBEGIN
1070
    73
1070
     1
1070
    44
1040
1.0
1070
    74
1070
     0
1000
MTEXTEND
1000
MTEXTBEGIN
1070
    73
1070
     1
1070
    44
1040
1.0
1070
    74
1070
     0
1000
MTEXTEND
  0
TEXT
  5
2819
330
1F
100
AcDbEntity
  8
SUNPO
 62
     7
100
AcDbText
 10
2437.499999999999
 20
3105.0
 30
0.0
 40
36.0
  1
100
 50
90.0
  7
ADD
100
AcDbText
1001
ACAD
1000
MTEXTBEGIN
1070
    73
1070
     1
1070
    44
1040
1.0
1070
    74
1070
     0
1000
MTEXTEND
1000
MTEXTBEGIN
1070
    73
1070
     1
1070
    44
1040
1.0
1070
    74
1070
     0
1000
MTEXTEND
1000
MTEXTBEGIN
1070
    73
1070
     1
1070
    44
1040
1.0
1070
    74
1070
     0
1000
MTEXTEND
1000
MTEXTBEGIN
1070
    73
1070
     1
1070
    44
1040
1.0
1070
    74
1070
     0
1000
MTEXTEND
1000
MTEXTBEGIN
1070
    73
1070
     1
1070
    44
1040
1.0
1070
    74
1070
     0
1000
MTEXTEND
  0
TEXT
  5
281A
330
1F
100
AcDbEntity
  8
SUNPO
 62
     7
100
AcDbText
 10
3571.0
 20
2162.5
 30
0.0
 40
36.0
  1
150
  7
ADD
100
AcDbText
1001
ACAD
1000
MTEXTBEGIN
1070
    73
1070
     1
1070
    44
1040
1.0
1070
    74
1070
     0
1000
MTEXTEND
1000
MTEXTBEGIN
1070
    73
1070
     1
1070
    44
1040
1.0
1070
    74
1070
     0
1000
MTEXTEND
1000
MTEXTBEGIN
1070
    73
1070
     1
1070
    44
1040
1.0
1070
    74
1070
     0
1000
MTEXTEND
1000
MTEXTBEGIN
1070
    73
1070
     1
1070
    44
1040
1.0
1070
    74
1070
     0
1000
MTEXTEND
1000
MTEXTBEGIN
1070
    73
1070
     1
1070
    44
1040
1.0
1070
    74
1070
     0
1000
MTEXTEND
  0
TEXT
  5
281B
330
1F
100
AcDbEntity
  8
SUNPO
 62
     7
100
AcDbText
 10
3848.571428571428
 20
2162.5
 30
0.0
 40
36.0
  1
400
  7
ADD
100
AcDbText
1001
ACAD
1000
MTEXTBEGIN
1070
    73
1070
     1
1070
    44
1040
1.0
1070
    74
1070
     0
1000
MTEXTEND
1000
MTEXTBEGIN
1070
    73
1070
     1
1070
    44
1040
1.0
1070
    74
1070
     0
1000
MTEXTEND
1000
MTEXTBEGIN
1070
    73
1070
     1
1070
    44
1040
1.0
1070
    74
1070
     0
1000
MTEXTEND
1000
MTEXTBEGIN
1070
    73
1070
     1
1070
    44
1040
1.0
1070
    74
1070
     0
1000
MTEXTEND
1000
MTEXTBEGIN
1070
    73
1070
     1
1070
    44
1040
1.0
1070
    74
1070
     0
1000
MTEXTEND
  0
TEXT
  5
281C
330
1F
100
AcDbEntity
  8
SUNPO
 62
     7
100
AcDbText
 10
4121.0
 20
2162.5
 30
0.0
 40
36.0
  1
150
  7
ADD
100
AcDbText
1001
ACAD
1000
MTEXTBEGIN
1070
    73
1070
     1
1070
    44
1040
1.0
1070
    74
1070
     0
1000
MTEXTEND
1000
MTEXTBEGIN
1070
    73
1070
     1
1070
    44
1040
1.0
1070
    74
1070
     0
1000
MTEXTEND
1000
MTEXTBEGIN
1070
    73
1070
     1
1070
    44
1040
1.0
1070
    74
1070
     0
1000
MTEXTEND
1000
MTEXTBEGIN
1070
    73
1070
     1
1070
    44
1040
1.0
1070
    74
1070
     0
1000
MTEXTEND
1000
MTEXTBEGIN
1070
    73
1070
     1
1070
    44
1040
1.0
1070
    74
1070
     0
1000
MTEXTEND
  0
TEXT
  5
281D
330
1F
100
AcDbEntity
  8
SUNPO
 62
     7
100
AcDbText
 10
3571.0
 20
1062.5
 30
0.0
 40
36.0
  1
150
  7
ADD
100
AcDbText
1001
ACAD
1000
MTEXTBEGIN
1070
    73
1070
     1
1070
    44
1040
1.0
1070
    74
1070
     0
1000
MTEXTEND
1000
MTEXTBEGIN
1070
    73
1070
     1
1070
    44
1040
1.0
1070
    74
1070
     0
1000
MTEXTEND
1000
MTEXTBEGIN
1070
    73
1070
     1
1070
    44
1040
1.0
1070
    74
1070
     0
1000
MTEXTEND
1000
MTEXTBEGIN
1070
    73
1070
     1
1070
    44
1040
1.0
1070
    74
1070
     0
1000
MTEXTEND
1000
MTEXTBEGIN
1070
    73
1070
     1
1070
    44
1040
1.0
1070
    74
1070
     0
1000
MTEXTEND
  0
TEXT
  5
281E
330
1F
100
AcDbEntity
  8
SUNPO
 62
     7
100
AcDbText
 10
3848.571428571428
 20
1062.5
 30
0.0
 40
36.0
  1
400
  7
ADD
100
AcDbText
1001
ACAD
1000
MTEXTBEGIN
1070
    73
1070
     1
1070
    44
1040
1.0
1070
    74
1070
     0
1000
MTEXTEND
1000
MTEXTBEGIN
1070
    73
1070
     1
1070
    44
1040
1.0
1070
    74
1070
     0
1000
MTEXTEND
1000
MTEXTBEGIN
1070
    73
1070
     1
1070
    44
1040
1.0
1070
    74
1070
     0
1000
MTEXTEND
1000
MTEXTBEGIN
1070
    73
1070
     1
1070
    44
1040
1.0
1070
    74
1070
     0
1000
MTEXTEND
1000
MTEXTBEGIN
1070
    73
1070
     1
1070
    44
1040
1.0
1070
    74
1070
     0
1000
MTEXTEND
  0
TEXT
  5
281F
330
1F
100
AcDbEntity
  8
SUNPO
 62
     7
100
AcDbText
 10
4121.0
 20
1062.5
 30
0.0
 40
36.0
  1
150
  7
ADD
100
AcDbText
1001
ACAD
1000
MTEXTBEGIN
1070
    73
1070
     1
1070
    44
1040
1.0
1070
    74
1070
     0
1000
MTEXTEND
1000
MTEXTBEGIN
1070
    73
1070
     1
1070
    44
1040
1.0
1070
    74
1070
     0
1000
MTEXTEND
1000
MTEXTBEGIN
1070
    73
1070
     1
1070
    44
1040
1.0
1070
    74
1070
     0
1000
MTEXTEND
1000
MTEXTBEGIN
1070
    73
1070
     1
1070
    44
1040
1.0
1070
    74
1070
     0
1000
MTEXTEND
1000
MTEXTBEGIN
1070
    73
1070
     1
1070
    44
1040
1.0
1070
    74
1070
     0
1000
MTEXTEND
  0
TEXT
  5
2820
330
1F
100
AcDbEntity
  8
SUNPO
 62
     7
100
AcDbText
 10
3437.499999999999
 20
1701.0
 30
0.0
 40
36.0
  1
110
 50
90.0
  7
ADD
100
AcDbText
1001
ACAD
1000
MTEXTBEGIN
1070
    73
1070
     1
1070
    44
1040
1.0
1070
    74
1070
     0
1000
MTEXTEND
1000
MTEXTBEGIN
1070
    73
1070
     1
1070
    44
1040
1.0
1070
    74
1070
     0
1000
MTEXTEND
1000
MTEXTBEGIN
1070
    73
1070
     1
1070
    44
1040
1.0
1070
    74
1070
     0
1000
MTEXTEND
1000
MTEXTBEGIN
1070
    73
1070
     1
1070
    44
1040
1.0
1070
    74
1070
     0
1000
MTEXTEND
1000
MTEXTBEGIN
1070
    73
1070
     1
1070
    44
1040
1.0
1070
    74
1070
     0
1000
MTEXTEND
  0
TEXT
  5
2821
330
1F
100
AcDbEntity
  8
SUNPO
 62
     7
100
AcDbText
 10
3437.499999999999
 20
1448.571428571429
 30
0.0
 40
36.0
  1
400
 50
90.0
  7
ADD
100
AcDbText
1001
ACAD
1000
MTEXTBEGIN
1070
    73
1070
     1
1070
    44
1040
1.0
1070
    74
1070
     0
1000
MTEXTEND
1000
MTEXTBEGIN
1070
    73
1070
     1
1070
    44
1040
1.0
1070
    74
1070
     0
1000
MTEXTEND
1000
MTEXTBEGIN
1070
    73
1070
     1
1070
    44
1040
1.0
1070
    74
1070
     0
1000
MTEXTEND
1000
MTEXTBEGIN
1070
    73
1070
     1
1070
    44
1040
1.0
1070
    74
1070
     0
1000
MTEXTEND
1000
MTEXTBEGIN
1070
    73
1070
     1
1070
    44
1040
1.0
1070
    74
1070
     0
1000
MTEXTEND
  0
TEXT
  5
2822
330
1F
100
AcDbEntity
  8
SUNPO
 62
     7
100
AcDbText
 10
3437.499999999999
 20
1191.0
 30
0.0
 40
36.0
  1
110
 50
90.0
  7
ADD
100
AcDbText
1001
ACAD
1000
MTEXTBEGIN
1070
    73
1070
     1
1070
    44
1040
1.0
1070
    74
1070
     0
1000
MTEXTEND
1000
MTEXTBEGIN
1070
    73
1070
     1
1070
    44
1040
1.0
1070
    74
1070
     0
1000
MTEXTEND
1000
MTEXTBEGIN
1070
    73
1070
     1
1070
    44
1040
1.0
1070
    74
1070
     0
1000
MTEXTEND
1000
MTEXTBEGIN
1070
    73
1070
     1
1070
    44
1040
1.0
1070
    74
1070
     0
1000
MTEXTEND
1000
MTEXTBEGIN
1070
    73
1070
     1
1070
    44
1040
1.0
1070
    74
1070
     0
1000
MTEXTEND
  0
TEXT
  5
2823
330
1F
100
AcDbEntity
  8
SUNPO
 62
     7
100
AcDbText
 10
3337.499999999999
 20
1447.714285714286
 30
0.0
 40
36.0
  1
620
 50
90.0
  7
ADD
100
AcDbText
1001
ACAD
1000
MTEXTBEGIN
1070
    73
1070
     1
1070
    44
1040
1.0
1070
    74
1070
     0
1000
MTEXTEND
1000
MTEXTBEGIN
1070
    73
1070
     1
1070
    44
1040
1.0
1070
    74
1070
     0
1000
MTEXTEND
1000
MTEXTBEGIN
1070
    73
1070
     1
1070
    44
1040
1.0
1070
    74
1070
     0
1000
MTEXTEND
1000
MTEXTBEGIN
1070
    73
1070
     1
1070
    44
1040
1.0
1070
    74
1070
     0
1000
MTEXTEND
1000
MTEXTBEGIN
1070
    73
1070
     1
1070
    44
1040
1.0
1070
    74
1070
     0
1000
MTEXTEND
  0
TEXT
  5
2824
330
1F
100
AcDbEntity
  8
SUNPO
 62
     7
100
AcDbText
 10
2537.499999999999
 20
2707.571428571428
 30
0.0
 40
36.0
  1
900
 50
90.0
  7
ADD
100
AcDbText
1001
ACAD
1000
MTEXTBEGIN
1070
    73
1070
     1
1070
    44
1040
1.0
1070
    74
1070
     0
1000
MTEXTEND
1000
MTEXTBEGIN
1070
    73
1070
     1
1070
    44
1040
1.0
1070
    74
1070
     0
1000
MTEXTEND
1000
MTEXTBEGIN
1070
    73
1070
     1
1070
    44
1040
1.0
1070
    74
1070
     0
1000
MTEXTEND
1000
MTEXTBEGIN
1070
    73
1070
     1
1070
    44
1040
1.0
1070
    74
1070
     0
1000
MTEXTEND
1000
MTEXTBEGIN
1070
    73
1070
     1
1070
    44
1040
1.0
1070
    74
1070
     0
1000
MTEXTEND
  0
TEXT
  5
2825
330
1F
100
AcDbEntity
  8
SUNPO
 62
     7
100
AcDbText
 10
4387.499999999999
 20
3105.0
 30
0.0
 40
36.0
  1
100
 50
90.0
  7
ADD
100
AcDbText
1001
ACAD
1000
MTEXTBEGIN
1070
    73
1070
     1
1070
    44
1040
1.0
1070
    74
1070
     0
1000
MTEXTEND
1000
MTEXTBEGIN
1070
    73
1070
     1
1070
    44
1040
1.0
1070
    74
1070
     0
1000
MTEXTEND
1000
MTEXTBEGIN
1070
    73
1070
     1
1070
    44
1040
1.0
1070
    74
1070
     0
1000
MTEXTEND
1000
MTEXTBEGIN
1070
    73
1070
     1
1070
    44
1040
1.0
1070
    74
1070
     0
1000
MTEXTEND
1000
MTEXTBEGIN
1070
    73
1070
     1
1070
    44
1040
1.0
1070
    74
1070
     0
1000
MTEXTEND
  0
TEXT
  5
2826
330
1F
100
AcDbEntity
  8
SUNPO
 62
     7
100
AcDbText
 10
4387.499999999999
 20
2807.571428571429
 30
0.0
 40
36.0
  1
500
 50
90.0
  7
ADD
100
AcDbText
1001
ACAD
1000
MTEXTBEGIN
1070
    73
1070
     1
1070
    44
1040
1.0
1070
    74
1070
     0
1000
MTEXTEND
1000
MTEXTBEGIN
1070
    73
1070
     1
1070
    44
1040
1.0
1070
    74
1070
     0
1000
MTEXTEND
1000
MTEXTBEGIN
1070
    73
1070
     1
1070
    44
1040
1.0
1070
    74
1070
     0
1000
MTEXTEND
1000
MTEXTBEGIN
1070
    73
1070
     1
1070
    44
1040
1.0
1070
    74
1070
     0
1000
MTEXTEND
1000
MTEXTBEGIN
1070
    73
1070
     1
1070
    44
1040
1.0
1070
    74
1070
     0
1000
MTEXTEND
  0
TEXT
  5
2827
330
1F
100
AcDbEntity
  8
SUNPO
 62
     7
100
AcDbText
 10
4387.499999999999
 20
2480.0
 30
0.0
 40
36.0
  1
150
 50
90.0
  7
ADD
100
AcDbText
1001
ACAD
1000
MTEXTBEGIN
1070
    73
1070
     1
1070
    44
1040
1.0
1070
    74
1070
     0
1000
MTEXTEND
1000
MTEXTBEGIN
1070
    73
1070
     1
1070
    44
1040
1.0
1070
    74
1070
     0
1000
MTEXTEND
1000
MTEXTBEGIN
1070
    73
1070
     1
1070
    44
1040
1.0
1070
    74
1070
     0
1000
MTEXTEND
1000
MTEXTBEGIN
1070
    73
1070
     1
1070
    44
1040
1.0
1070
    74
1070
     0
1000
MTEXTEND
1000
MTEXTBEGIN
1070
    73
1070
     1
1070
    44
1040
1.0
1070
    74
1070
     0
1000
MTEXTEND
  0
TEXT
  5
2828
330
1F
100
AcDbEntity
  8
SUNPO
 62
     7
100
AcDbText
 10
4387.499999999999
 20
2330.0
 30
0.0
 40
36.0
  1
150
 50
90.0
  7
ADD
100
AcDbText
1001
ACAD
1000
MTEXTBEGIN
1070
    73
1070
     1
1070
    44
1040
1.0
1070
    74
1070
     0
1000
MTEXTEND
1000
MTEXTBEGIN
1070
    73
1070
     1
1070
    44
1040
1.0
1070
    74
1070
     0
1000
MTEXTEND
1000
MTEXTBEGIN
1070
    73
1070
     1
1070
    44
1040
1.0
1070
    74
1070
     0
1000
MTEXTEND
1000
MTEXTBEGIN
1070
    73
1070
     1
1070
    44
1040
1.0
1070
    74
1070
     0
1000
MTEXTEND
1000
MTEXTBEGIN
1070
    73
1070
     1
1070
    44
1040
1.0
1070
    74
1070
     0
1000
MTEXTEND
  0
TEXT
  5
2829
330
1F
100
AcDbEntity
  8
SUNPO
 62
     7
100
AcDbText
 10
4487.499999999999
 20
2707.571428571429
 30
0.0
 40
36.0
  1
900
 50
90.0
  7
ADD
100
AcDbText
1001
ACAD
1000
MTEXTBEGIN
1070
    73
1070
     1
1070
    44
1040
1.0
1070
    74
1070
     0
1000
MTEXTEND
1000
MTEXTBEGIN
1070
    73
1070
     1
1070
    44
1040
1.0
1070
    74
1070
     0
1000
MTEXTEND
1000
MTEXTBEGIN
1070
    73
1070
     1
1070
    44
1040
1.0
1070
    74
1070
     0
1000
MTEXTEND
1000
MTEXTBEGIN
1070
    73
1070
     1
1070
    44
1040
1.0
1070
    74
1070
     0
1000
MTEXTEND
1000
MTEXTBEGIN
1070
    73
1070
     1
1070
    44
1040
1.0
1070
    74
1070
     0
1000
MTEXTEND
  0
TEXT
  5
282A
330
1F
100
AcDbEntity
  8
SUNPO
 62
     7
100
AcDbText
 10
3848.571428571428
 20
962.5
 30
0.0
 40
36.0
  1
700
  7
ADD
100
AcDbText
1001
ACAD
1000
MTEXTBEGIN
1070
    73
1070
     1
1070
    44
1040
1.0
1070
    74
1070
     0
1000
MTEXTEND
1000
MTEXTBEGIN
1070
    73
1070
     1
1070
    44
1040
1.0
1070
    74
1070
     0
1000
MTEXTEND
1000
MTEXTBEGIN
1070
    73
1070
     1
1070
    44
1040
1.0
1070
    74
1070
     0
1000
MTEXTEND
  0
VIEWPORT
  5
72
330
1B
100
AcDbEntity
 67
     1
  8
0
100
AcDbViewport
 10
645.8325449029127
 20
277.0
 30
0.0
 40
1380.967339805825
 41
628.4520000000001
 68
     2
 69
     1
1001
ACAD
1000
MVIEW
1002
{
1070
    16
1010
0.0
1020
0.0
1030
0.0
1010
0.0
1020
0.0
1030
1.0
1040
0.0
1040
628.4520000000001
1040
645.8325449029127
1040
277.0
1040
50.0
1040
0.0
1040
0.0
1070
     0
1070
   100
1070
     1
1070
     1
1070
     0
1070
     0
1070
     0
1070
     0
1040
0.0
1040
0.0
1040
0.0
1040
10.0
1040
10.0
1040
10.0
1040
10.0
1070
     0
1002
{
1002
}
1002
}
  0
VIEWPORT
  5
74
330
1B
100
AcDbEntity
 67
     1
  8
VIEWPORT
100
AcDbViewport
 10
414.3779638919211
 20
277.3177265058034
 30
0.0
 40
840.0353682728887
 41
567.2285469943826
 68
     1
 69
     2
1001
ACAD
1000
MVIEW
1002
{
1070
    16
1010
0.0
1020
0.0
1030
0.0
1010
0.0
1020
0.0
1030
1.0
1040
0.0
1040
579.5583043546323
1040
424.4938908624541
1040
286.1973242720074
1040
50.0
1040
0.0
1040
0.0
1070
     0
1070
   100
1070
     1
1070
     1
1070
     0
1070
     0
1070
     0
1070
     0
1040
0.0
1040
0.0
1040
0.0
1040
10.0
1040
10.0
1040
10.0
1040
10.0
1070
     0
1002
{
1002
}
1002
}
  0
ENDSEC
  0
SECTION
  2
OBJECTS
  0
DICTIONARY
  5
C
330
0
100
AcDbDictionary
  3
ACAD_GROUP
350
D
  3
ACAD_LAYOUT
350
1A
  3
ACAD_MLINESTYLE
350
17
  3
ACAD_PLOTSETTINGS
350
19
  3
ACADDIM
350
1390
  3
DWGPROPS
350
4C7
1001
ACAD
1000
TREAT_AS_HARD
1070
     0
  0
DICTIONARY
  5
241E
330
1F
100
AcDbDictionary
  3
ACAD_LAYOUTSELFREF
350
282D
1001
ACAD
1000
TREAT_AS_HARD
1070
     1
  0
DICTIONARY
  5
2420
330
1B
100
AcDbDictionary
  3
ACAD_LAYOUTSELFREF
350
282C
1001
ACAD
1000
TREAT_AS_HARD
1070
     1
  0
DICTIONARY
  5
D
102
{ACAD_REACTORS
330
C
102
}
330
C
100
AcDbDictionary
1001
ACAD
1000
TREAT_AS_HARD
1070
     0
  0
DICTIONARY
  5
1A
102
{ACAD_REACTORS
330
C
102
}
330
C
100
AcDbDictionary
1001
ACAD
1000
TREAT_AS_HARD
1070
     0
  0
DICTIONARY
  5
17
102
{ACAD_REACTORS
330
C
102
}
330
C
100
AcDbDictionary
  3
STANDARD
350
18
1001
ACAD
1000
TREAT_AS_HARD
1070
     0
  0
DICTIONARY
  5
19
102
{ACAD_REACTORS
330
C
102
}
330
C
100
AcDbDictionary
1001
ACAD
1000
TREAT_AS_HARD
1070
     0
  0
XRECORD
  5
1390
102
{ACAD_REACTORS
330
C
102
}
330
C
100
AcDbXrecord
 90
   990106
  3

 60
     0
 61
     0
 62
     1
 63
     3
 64
     0
 65
     0
 66
     0
 67
     3
 68
     1
 69
     0
 70
     0
 71
     0
 72
     0
 40
0.0
170
     0
  0
XRECORD
  5
4C7
102
{ACAD_REACTORS
330
C
102
}
330
C
100
AcDbXrecord
  1
DWGPROPS COOKIE
  2
印刷用テスト
  3
AutoCAD2000による建築設計
  4
鈴木 裕二
  6

  7

  8
U2
  9

300
=
301
=
302
=
303
=
304
=
305
=
306
=
307
=
308
=
309
=
 40
0.7653446875
 41
2451285.4846114
 42
2451333.689743032
  1

 90
        0
  0
XRECORD
  5
282D
102
{ACAD_REACTORS
330
241E
102
}
330
241E
100
AcDbXrecord
340
1F
  0
XRECORD
  5
282C
102
{ACAD_REACTORS
330
2420
102
}
330
2420
100
AcDbXrecord
340
1B
  0
MLINESTYLE
  5
18
102
{ACAD_REACTORS
330
17
102
}
330
17
100
AcDbMlineStyle
  2
STANDARD
 70
     0
  3

 62
   256
 51
90.0
 52
90.0
 71
     2
 49
0.5
 62
   256
  6
BYLAYER
 49
-0.5
 62
   256
  6
BYLAYER
  0
ENDSEC
  0
EOF
