  0
SECTION
  2
HEADER
  9
$ACADVER
  1
AC1012
  9
$DWGCODEPAGE
  3
dos932
  9
$INSBASE
 10
0.0
 20
0.0
 30
0.0
  9
$EXTMIN
 10
0.0
 20
0.0
 30
0.0
  9
$EXTMAX
 10
5940.0
 20
4200.0
 30
0.0
  9
$LIMMIN
 10
0.0
 20
0.0
  9
$LIMMAX
 10
5940.0
 20
4200.0
  9
$ORTHOMODE
 70
     0
  9
$REGENMODE
 70
     1
  9
$FILLMODE
 70
     1
  9
$QTEXTMODE
 70
     0
  9
$MIRRTEXT
 70
     0
  9
$DRAGMODE
 70
     2
  9
$LTSCALE
 40
10.0
  9
$OSMODE
 70
    37
  9
$ATTMODE
 70
     1
  9
$TEXTSIZE
 40
50.0
  9
$TRACEWID
 40
1.0
  9
$TEXTSTYLE
  7
ADD
  9
$CLAYER
  8
MOJI
  9
$CELTYPE
  6
BYLAYER
  9
$CECOLOR
 62
   256
  9
$CELTSCALE
 40
1.0
  9
$DELOBJ
 70
     1
  9
$DISPSILH
 70
     0
  9
$DIMSCALE
 40
20.0
  9
$DIMASZ
 40
2.5
  9
$DIMEXO
 40
1.0
  9
$DIMDLI
 40
7.0
  9
$DIMRND
 40
0.0
  9
$DIMDLE
 40
0.0
  9
$DIMEXE
 40
0.5
  9
$DIMTP
 40
0.0
  9
$DIMTM
 40
0.0
  9
$DIMTXT
 40
2.5
  9
$DIMCEN
 40
2.5
  9
$DIMTSZ
 40
0.0
  9
$DIMTOL
 70
     0
  9
$DIMLIM
 70
     0
  9
$DIMTIH
 70
     0
  9
$DIMTOH
 70
     0
  9
$DIMSE1
 70
     0
  9
$DIMSE2
 70
     0
  9
$DIMTAD
 70
     1
  9
$DIMZIN
 70
     8
  9
$DIMBLK
  1

  9
$DIMASO
 70
     1
  9
$DIMSHO
 70
     1
  9
$DIMPOST
  1

  9
$DIMAPOST
  1

  9
$DIMALT
 70
     0
  9
$DIMALTD
 70
     3
  9
$DIMALTF
 40
0.03937007874016
  9
$DIMLFAC
 40
1.0
  9
$DIMTOFL
 70
     1
  9
$DIMTVP
 40
0.7
  9
$DIMTIX
 70
     1
  9
$DIMSOXD
 70
     0
  9
$DIMSAH
 70
     0
  9
$DIMBLK1
  1

  9
$DIMBLK2
  1

  9
$DIMSTYLE
  2
ADD
  9
$DIMCLRD
 70
   144
  9
$DIMCLRE
 70
   144
  9
$DIMCLRT
 70
     7
  9
$DIMTFAC
 40
1.0
  9
$DIMGAP
 40
0.625
  9
$DIMJUST
 70
     0
  9
$DIMSD1
 70
     0
  9
$DIMSD2
 70
     0
  9
$DIMTOLJ
 70
     2
  9
$DIMTZIN
 70
     8
  9
$DIMALTZ
 70
     0
  9
$DIMALTTZ
 70
     0
  9
$DIMFIT
 70
     5
  9
$DIMUPT
 70
     0
  9
$DIMUNIT
 70
     2
  9
$DIMDEC
 70
     1
  9
$DIMTDEC
 70
     1
  9
$DIMALTU
 70
     2
  9
$DIMALTTD
 70
     3
  9
$DIMTXSTY
  7
ADD
  9
$DIMAUNIT
 70
     0
  9
$LUNITS
 70
     2
  9
$LUPREC
 70
     4
  9
$SKETCHINC
 40
1.0
  9
$FILLETRAD
 40
10.0
  9
$AUNITS
 70
     0
  9
$AUPREC
 70
     1
  9
$MENU
  1
.
  9
$ELEVATION
 40
0.0
  9
$PELEVATION
 40
0.0
  9
$THICKNESS
 40
0.0
  9
$LIMCHECK
 70
     0
  9
$BLIPMODE
 70
     0
  9
$CHAMFERA
 40
10.0
  9
$CHAMFERB
 40
10.0
  9
$CHAMFERC
 40
20.0
  9
$CHAMFERD
 40
0.0
  9
$SKPOLY
 70
     0
  9
$TDCREATE
 40
2451801.142532870
  9
$TDUPDATE
 40
2451830.623329236
  9
$TDINDWG
 40
0.0764131829
  9
$TDUSRTIMER
 40
0.0764131829
  9
$USRTIMER
 70
     1
  9
$ANGBASE
 50
0.0
  9
$ANGDIR
 70
     0
  9
$PDMODE
 70
     0
  9
$PDSIZE
 40
0.0
  9
$PLINEWID
 40
0.0
  9
$COORDS
 70
     1
  9
$SPLFRAME
 70
     0
  9
$SPLINETYPE
 70
     6
  9
$SPLINESEGS
 70
     8
  9
$ATTDIA
 70
     0
  9
$ATTREQ
 70
     1
  9
$HANDLING
 70
 10241
  9
$HANDSEED
  5
1107
  9
$SURFTAB1
 70
     6
  9
$SURFTAB2
 70
     6
  9
$SURFTYPE
 70
     6
  9
$SURFU
 70
     6
  9
$SURFV
 70
     6
  9
$UCSNAME
  2

  9
$UCSORG
 10
0.0
 20
0.0
 30
0.0
  9
$UCSXDIR
 10
1.0
 20
0.0
 30
0.0
  9
$UCSYDIR
 10
0.0
 20
1.0
 30
0.0
  9
$PUCSNAME
  2

  9
$PUCSORG
 10
0.0
 20
0.0
 30
0.0
  9
$PUCSXDIR
 10
1.0
 20
0.0
 30
0.0
  9
$PUCSYDIR
 10
0.0
 20
1.0
 30
0.0
  9
$USERI1
 70
     0
  9
$USERI2
 70
     0
  9
$USERI3
 70
     0
  9
$USERI4
 70
     0
  9
$USERI5
 70
     0
  9
$USERR1
 40
841.0
  9
$USERR2
 40
594.0
  9
$USERR3
 40
1.0
  9
$USERR4
 40
0.0
  9
$USERR5
 40
0.0
  9
$WORLDVIEW
 70
     1
  9
$SHADEDGE
 70
     3
  9
$SHADEDIF
 70
    70
  9
$TILEMODE
 70
     1
  9
$MAXACTVP
 70
    48
  9
$PINSBASE
 10
0.0
 20
0.0
 30
0.0
  9
$PLIMCHECK
 70
     0
  9
$PEXTMIN
 10
-5.662975978526674
 20
-6.331907780761866
 30
-0.0015258207003583
  9
$PEXTMAX
 10
834.4213426047982
 20
560.9663709967471
 30
0.0000000349246037
  9
$PLIMMIN
 10
-7.500000000000001
 20
-20.0
  9
$PLIMMAX
 10
833.5000000000002
 20
574.0000000000001
  9
$UNITMODE
 70
     0
  9
$VISRETAIN
 70
     1
  9
$PLINEGEN
 70
     0
  9
$PSLTSCALE
 70
     1
  9
$TREEDEPTH
 70
  3020
  9
$PICKSTYLE
 70
     1
  9
$CMLSTYLE
  2
STANDARD
  9
$CMLJUST
 70
     0
  9
$CMLSCALE
 40
20.0
  9
$SAVEIMAGES
 70
     1
  0
ENDSEC
  0
SECTION
  2
CLASSES
  0
CLASS
  1
ACDBDICTIONARYWDFLT
  2
AcDbDictionaryWithDefault
  3
AutoCAD 2000
 90
    32768
280
     0
281
     0
  0
CLASS
  1
ACDBPLACEHOLDER
  2
AcDbPlaceHolder
  3
AutoCAD 2000
 90
    32768
280
     0
281
     0
  0
CLASS
  1
LAYOUT
  2
AcDbLayout
  3
AutoCAD 2000
 90
    32768
280
     0
281
     0
  0
CLASS
  1
RTEXT
  2
RText
  3
RText|AutoCAD Express Tool|expresstools@autodesk.com
 90
    32768
280
     0
281
     1
  0
CLASS
  1
DICTIONARYVAR
  2
AcDbDictionaryVar
  3
AutoCAD 2000
 90
    32768
280
     0
281
     0
  0
CLASS
  1
LONG_TRANSACTION
  2
AcDbLongTransaction
  3
AutoCAD 2000
 90
    32768
280
     0
281
     0
  0
CLASS
  1
LWPOLYLINE
  2
AcDbPolyline
  3
AutoCAD 2000
 90
    32768
280
     0
281
     1
  0
CLASS
  1
HATCH
  2
AcDbHatch
  3
AutoCAD 2000
 90
    32768
280
     0
281
     1
  0
CLASS
  1
XRECORD
  2
AcDbXrecord
  3
AutoCAD 2000
 90
    32768
280
     0
281
     0
  0
CLASS
  1
LONG_TRANSACTION
  2
AcDbLongTransaction
  3
AutoCAD 2000
 90
    32768
280
     0
281
     0
  0
CLASS
  1
LWPOLYLINE
  2
AcDbPolyline
  3
AutoCAD 2000
 90
    32768
280
     0
281
     1
  0
CLASS
  1
HATCH
  2
AcDbHatch
  3
AutoCAD 2000
 90
    32768
280
     0
281
     1
  0
CLASS
  1
XRECORD
  2
AcDbXrecord
  3
AutoCAD 2000
 90
    32768
280
     0
281
     0
  0
ENDSEC
  0
SECTION
  2
TABLES
  0
TABLE
  2
VPORT
  5
8
330
0
100
AcDbSymbolTable
 70
     4
  0
VPORT
  5
10F1
330
8
100
AcDbSymbolTableRecord
100
AcDbViewportTableRecord
  2
*ACTIVE
 70
     0
 10
0.0
 20
0.0
 11
1.0
 21
1.0
 12
1864.440823846947
 22
1185.395328342101
 13
0.0
 23
0.0
 14
10.0
 24
10.0
 15
10.0
 25
10.0
 16
0.0
 26
0.0
 36
1.0
 17
0.0
 27
0.0
 37
0.0
 40
7880.296817272391
 41
1.577075098814229
 42
50.0
 43
0.0
 44
0.0
 50
0.0
 51
0.0
 71
     0
 72
   100
 73
     1
 74
     1
 75
     0
 76
     0
 77
     0
 78
     0
  0
ENDTAB
  0
TABLE
  2
LTYPE
  5
5
330
0
100
AcDbSymbolTable
 70
    10
  0
LTYPE
  5
14
330
5
100
AcDbSymbolTableRecord
100
AcDbLinetypeTableRecord
  2
BYBLOCK
 70
     0
  3

 72
    65
 73
     0
 40
0.0
  0
LTYPE
  5
15
330
5
100
AcDbSymbolTableRecord
100
AcDbLinetypeTableRecord
  2
BYLAYER
 70
     0
  3

 72
    65
 73
     0
 40
0.0
  0
LTYPE
  5
16
330
5
100
AcDbSymbolTableRecord
100
AcDbLinetypeTableRecord
  2
CONTINUOUS
 70
     0
  3
Solid line
 72
    65
 73
     0
 40
0.0
  0
LTYPE
  5
555
330
5
100
AcDbSymbolTableRecord
100
AcDbLinetypeTableRecord
  2
CENTER
 70
     0
  3
Center ____ _ ____ _ ____ _ ____ _ ____ _ ____
 72
    65
 73
     4
 40
50.8
 49
31.75
 74
     0
 49
-6.349999999999999
 74
     0
 49
6.349999999999999
 74
     0
 49
-6.349999999999999
 74
     0
  0
LTYPE
  5
556
330
5
100
AcDbSymbolTableRecord
100
AcDbLinetypeTableRecord
  2
HIDDEN
 70
     0
  3
Hidden __ __ __ __ __ __ __ __ __ __ __ __ __ _
 72
    65
 73
     2
 40
9.524999999999998
 49
6.349999999999999
 74
     0
 49
-3.174999999999999
 74
     0
  0
LTYPE
  5
557
330
5
100
AcDbSymbolTableRecord
100
AcDbLinetypeTableRecord
  2
HIDDEN2
 70
     0
  3
Hidden (.5x) _ _ _ _ _ _ _ _ _ _ _ _ _ _ _ _ _
 72
    65
 73
     2
 40
4.762499999999999
 49
3.174999999999999
 74
     0
 49
-1.587499999999999
 74
     0
  0
LTYPE
  5
558
330
5
100
AcDbSymbolTableRecord
100
AcDbLinetypeTableRecord
  2
PHANTOM
 70
     0
  3
Phantom ______  __  __  ______  __  __  ______
 72
    65
 73
     6
 40
63.5
 49
31.75
 74
     0
 49
-6.349999999999999
 74
     0
 49
6.349999999999999
 74
     0
 49
-6.349999999999999
 74
     0
 49
6.349999999999999
 74
     0
 49
-6.349999999999999
 74
     0
  0
LTYPE
  5
E7F
330
5
100
AcDbSymbolTableRecord
100
AcDbLinetypeTableRecord
  2
DOT
 70
     0
  3
--  --  --  --  --  --  --  --     
 72
    65
 73
     2
 40
10.0
 49
4.0
 74
     0
 49
-6.0
 74
     0
  0
LTYPE
  5
E80
330
5
100
AcDbSymbolTableRecord
100
AcDbLinetypeTableRecord
  2
DASHED
 70
     0
  3
----    ----    ----    ----    
 72
    65
 73
     2
 40
10.0
 49
6.0
 74
     0
 49
-4.0
 74
     0
  0
LTYPE
  5
E81
330
5
100
AcDbSymbolTableRecord
100
AcDbLinetypeTableRecord
  2
DASHED2
 70
     0
  3
------  ------  ------  ------ 
 72
    65
 73
     2
 40
15.0
 49
10.0
 74
     0
 49
-5.0
 74
     0
  0
LTYPE
  5
E82
330
5
100
AcDbSymbolTableRecord
100
AcDbLinetypeTableRecord
  2
CENTER2
 70
     0
  3
----------  --  ----------  --  
 72
    65
 73
     4
 40
18.0
 49
12.0
 74
     0
 49
-2.0
 74
     0
 49
2.0
 74
     0
 49
-2.0
 74
     0
  0
LTYPE
  5
E83
330
5
100
AcDbSymbolTableRecord
100
AcDbLinetypeTableRecord
  2
PHANTOM2
 70
     0
  3
--------  -  -  --------  -  - 
 72
    65
 73
     6
 40
16.0
 49
6.0
 74
     0
 49
-2.0
 74
     0
 49
2.0
 74
     0
 49
-2.0
 74
     0
 49
2.0
 74
     0
 49
-2.0
 74
     0
  0
ENDTAB
  0
TABLE
  2
LAYER
  5
2
330
0
100
AcDbSymbolTable
 70
    27
  0
LAYER
  5
10
330
2
100
AcDbSymbolTableRecord
100
AcDbLayerTableRecord
  2
0
 70
     0
 62
     7
  6
CONTINUOUS
  0
LAYER
  5
75
330
2
100
AcDbSymbolTableRecord
100
AcDbLayerTableRecord
  2
VIEWPORT
 70
     0
 62
     1
  6
CONTINUOUS
  0
LAYER
  5
504
330
2
100
AcDbSymbolTableRecord
100
AcDbLayerTableRecord
  2
DEFPOINTS
 70
     0
 62
     7
  6
CONTINUOUS
  0
LAYER
  5
505
330
2
100
AcDbSymbolTableRecord
100
AcDbLayerTableRecord
  2
1C1
 70
     0
 62
   254
  6
CONTINUOUS
  0
LAYER
  5
506
330
2
100
AcDbSymbolTableRecord
100
AcDbLayerTableRecord
  2
1C2
 70
     0
 62
   254
  6
CONTINUOUS
  0
LAYER
  5
507
330
2
100
AcDbSymbolTableRecord
100
AcDbLayerTableRecord
  2
2C1
 70
     0
 62
   144
  6
CONTINUOUS
  0
LAYER
  5
508
330
2
100
AcDbSymbolTableRecord
100
AcDbLayerTableRecord
  2
2C2
 70
     0
 62
   144
  6
CONTINUOUS
  0
LAYER
  5
509
330
2
100
AcDbSymbolTableRecord
100
AcDbLayerTableRecord
  2
2H1
 70
     0
 62
   144
  6
HIDDEN
  0
LAYER
  5
50A
330
2
100
AcDbSymbolTableRecord
100
AcDbLayerTableRecord
  2
2H2
 70
     0
 62
   144
  6
HIDDEN2
  0
LAYER
  5
50B
330
2
100
AcDbSymbolTableRecord
100
AcDbLayerTableRecord
  2
2P1
 70
     0
 62
   144
  6
PHANTOM
  0
LAYER
  5
50C
330
2
100
AcDbSymbolTableRecord
100
AcDbLayerTableRecord
  2
3C1
 70
     0
 62
     7
  6
CONTINUOUS
  0
LAYER
  5
50D
330
2
100
AcDbSymbolTableRecord
100
AcDbLayerTableRecord
  2
3C2
 70
     0
 62
     7
  6
CONTINUOUS
  0
LAYER
  5
50E
330
2
100
AcDbSymbolTableRecord
100
AcDbLayerTableRecord
  2
3C3
 70
     0
 62
     7
  6
CONTINUOUS
  0
LAYER
  5
50F
330
2
100
AcDbSymbolTableRecord
100
AcDbLayerTableRecord
  2
4H1
 70
     0
 62
     6
  6
HIDDEN
  0
LAYER
  5
510
330
2
100
AcDbSymbolTableRecord
100
AcDbLayerTableRecord
  2
4H2
 70
     0
 62
     6
  6
HIDDEN2
  0
LAYER
  5
511
330
2
100
AcDbSymbolTableRecord
100
AcDbLayerTableRecord
  2
5C1
 70
     0
 62
    55
  6
CONTINUOUS
  0
LAYER
  5
512
330
2
100
AcDbSymbolTableRecord
100
AcDbLayerTableRecord
  2
5C2
 70
     0
 62
    55
  6
CONTINUOUS
  0
LAYER
  5
513
330
2
100
AcDbSymbolTableRecord
100
AcDbLayerTableRecord
  2
8C1
 70
     0
 62
    92
  6
CONTINUOUS
  0
LAYER
  5
514
330
2
100
AcDbSymbolTableRecord
100
AcDbLayerTableRecord
  2
HOJO
 70
     0
 62
     5
  6
CONTINUOUS
  0
LAYER
  5
515
330
2
100
AcDbSymbolTableRecord
100
AcDbLayerTableRecord
  2
KIJUN
 70
     0
 62
     1
  6
CENTER
  0
LAYER
  5
516
330
2
100
AcDbSymbolTableRecord
100
AcDbLayerTableRecord
  2
MOJI
 70
     0
 62
     7
  6
CONTINUOUS
  0
LAYER
  5
517
330
2
100
AcDbSymbolTableRecord
100
AcDbLayerTableRecord
  2
SUNPO
 70
     0
 62
   144
  6
CONTINUOUS
  0
LAYER
  5
E84
330
2
100
AcDbSymbolTableRecord
100
AcDbLayerTableRecord
  2
0-3C1
 70
     0
 62
     7
  6
CONTINUOUS
  0
LAYER
  5
E85
330
2
100
AcDbSymbolTableRecord
100
AcDbLayerTableRecord
  2
1-HOJO
 70
     0
 62
     7
  6
CONTINUOUS
  0
LAYER
  5
E86
330
2
100
AcDbSymbolTableRecord
100
AcDbLayerTableRecord
  2
1-KIJUN
 70
     0
 62
     7
  6
CONTINUOUS
  0
LAYER
  5
E87
330
2
100
AcDbSymbolTableRecord
100
AcDbLayerTableRecord
  2
1-SUNPO
 70
     0
 62
     7
  6
CONTINUOUS
  0
LAYER
  5
E88
330
2
100
AcDbSymbolTableRecord
100
AcDbLayerTableRecord
  2
ADD_LINE
 70
     0
 62
    -7
  6
CONTINUOUS
  0
ENDTAB
  0
TABLE
  2
STYLE
  5
3
330
0
100
AcDbSymbolTable
 70
     9
  0
STYLE
  5
11
330
3
100
AcDbSymbolTableRecord
100
AcDbTextStyleTableRecord
  2
STANDARD
 70
     0
 40
0.0
 41
1.0
 50
0.0
 71
     0
 42
2.5
  3
txt
  4

  0
STYLE
  5
2C
330
3
100
AcDbSymbolTableRecord
100
AcDbTextStyleTableRecord
  2

 70
     1
 40
0.0
 41
1.0
 50
0.0
 71
     0
 42
2.5
  3
ltypeshp.shx
  4

  0
STYLE
  5
18E
330
3
100
AcDbSymbolTableRecord
100
AcDbTextStyleTableRecord
  2
ADD
 70
     0
 40
0.0
 41
1.0
 50
0.0
 71
     0
 42
50.0
  3
romans.shx
  4
bigfont.shx
  0
STYLE
  5
191
330
3
100
AcDbSymbolTableRecord
100
AcDbTextStyleTableRecord
  2
MSG
 70
     0
 40
0.0
 41
1.0
 50
0.0
 71
     0
 42
2.5
  3
MS Gothic.ttf
  4

1001
ACAD
1000
MS Gothic
1071
    32817
  0
STYLE
  5
5C8
330
3
100
AcDbSymbolTableRecord
100
AcDbTextStyleTableRecord
  2
STANDARD15
 70
     0
 40
0.0
 41
1.0
 50
15.0
 71
     0
 42
2.5
  3
ROMANS
  4
bigfont
  0
STYLE
  5
5C9
330
3
100
AcDbSymbolTableRecord
100
AcDbTextStyleTableRecord
  2
ROMANS15
 70
     0
 40
0.0
 41
1.0
 50
15.0
 71
     0
 42
2.5
  3
romans
  4

  0
STYLE
  5
E89
330
3
100
AcDbSymbolTableRecord
100
AcDbTextStyleTableRecord
  2
TATEGAKI
 70
     4
 40
0.0
 41
1.0
 50
0.0
 71
     0
 42
0.0
  3
txt.shx
  4
extfont.shx
  0
STYLE
  5
E8A
330
3
100
AcDbSymbolTableRecord
100
AcDbTextStyleTableRecord
  2
MT
 70
     0
 40
0.0
 41
1.0
 50
0.0
 71
     0
 42
0.0
  3
MS Gothic
  4

  0
STYLE
  5
E8B
330
3
100
AcDbSymbolTableRecord
100
AcDbTextStyleTableRecord
  2
TMT
 70
     4
 40
0.0
 41
1.0
 50
0.0
 71
     0
 42
0.0
  3
@MS Gothic
  4

  0
ENDTAB
  0
TABLE
  2
VIEW
  5
6
330
0
100
AcDbSymbolTable
 70
     1
  0
VIEW
  5
54D
330
6
100
AcDbSymbolTableRecord
100
AcDbViewTableRecord
  2
ALL
 70
     0
 40
594.0
 10
420.5
 20
297.0
 41
865.125
 11
0.0
 21
0.0
 31
1.0
 12
0.0
 22
0.0
 32
0.0
 42
50.0
 43
0.0
 44
0.0
 50
0.0
 71
     0
  0
ENDTAB
  0
TABLE
  2
UCS
  5
7
330
0
100
AcDbSymbolTable
 70
     0
  0
ENDTAB
  0
TABLE
  2
APPID
  5
9
330
0
100
AcDbSymbolTable
 70
     4
  0
APPID
  5
12
330
9
100
AcDbSymbolTableRecord
100
AcDbRegAppTableRecord
  2
ACAD
 70
     0
  0
APPID
  5
5CB
330
9
100
AcDbSymbolTableRecord
100
AcDbRegAppTableRecord
  2
ARAIGUMI_YOHEKI
 70
     0
  0
APPID
  5
5CC
330
9
100
AcDbSymbolTableRecord
100
AcDbRegAppTableRecord
  2
CONTENTTABDATA
 70
     0
  0
APPID
  5
5CD
330
9
100
AcDbSymbolTableRecord
100
AcDbRegAppTableRecord
  2
CONTENTCURRENTTAB
 70
     0
  0
ENDTAB
  0
TABLE
  2
DIMSTYLE
  5
A
330
0
100
AcDbSymbolTable
 70
    10
  0
DIMSTYLE
105
27
330
A
100
AcDbSymbolTableRecord
100
AcDbDimStyleTableRecord
  2
ISO-25
 70
     0
  3

  4

  5

  6

  7

 40
1.0
 41
2.5
 42
0.625
 43
3.75
 44
1.25
 45
0.0
 46
0.0
 47
0.0
 48
0.0
140
2.5
141
2.5
142
0.0
143
0.03937007874016
144
1.0
145
0.0
146
1.0
147
0.625
 71
     0
 72
     0
 73
     0
 74
     0
 75
     0
 76
     0
 77
     1
 78
     8
170
     0
171
     3
172
     1
173
     0
174
     0
175
     0
176
     0
177
     0
178
     0
270
     2
271
     2
272
     2
273
     2
274
     3
340
11
275
     0
280
     0
281
     0
282
     0
283
     0
284
     8
285
     0
286
     0
287
     3
288
     0
  0
DIMSTYLE
105
197
330
A
100
AcDbSymbolTableRecord
100
AcDbDimStyleTableRecord
  2
ADD
 70
     0
  3

  4

  5

  6

  7

 40
1.0
 41
2.5
 42
1.0
 43
7.0
 44
0.5
 45
0.0
 46
0.0
 47
0.0
 48
0.0
140
2.5
141
2.5
142
0.0
143
0.03937007874016
144
1.0
145
0.7
146
1.0
147
0.625
 71
     0
 72
     0
 73
     0
 74
     0
 75
     0
 76
     0
 77
     1
 78
     8
170
     0
171
     3
172
     1
173
     0
174
     1
175
     0
176
   144
177
   144
178
     7
270
     2
271
     1
272
     1
273
     2
274
     3
340
18E
275
     0
280
     0
281
     0
282
     0
283
     2
284
     8
285
     0
286
     0
287
     5
288
     0
  0
DIMSTYLE
105
3E6
330
A
100
AcDbSymbolTableRecord
100
AcDbDimStyleTableRecord
  2
ADD$2
 70
     0
  3

  4

  5

  6

  7

 40
1.0
 41
2.5
 42
1.0
 43
7.0
 44
0.5
 45
0.0
 46
0.0
 47
0.0
 48
0.0
140
2.5
141
2.5
142
0.0
143
0.03937007874016
144
1.0
145
0.7
146
1.0
147
0.625
 71
     0
 72
     0
 73
     0
 74
     0
 75
     0
 76
     0
 77
     1
 78
     8
170
     0
171
     3
172
     1
173
     0
174
     1
175
     0
176
   144
177
   144
178
     7
270
     2
271
     1
272
     1
273
     2
274
     3
340
18E
275
     0
280
     0
281
     0
282
     0
283
     2
284
     8
285
     0
286
     0
287
     5
288
     0
  0
DIMSTYLE
105
3E7
330
A
100
AcDbSymbolTableRecord
100
AcDbDimStyleTableRecord
  2
ADD$4
 70
     0
  3

  4

  5

  6

  7

 40
1.0
 41
2.5
 42
1.0
 43
7.0
 44
0.5
 45
0.0
 46
0.0
 47
0.0
 48
0.0
140
2.5
141
2.5
142
0.0
143
0.03937007874016
144
1.0
145
0.0
146
1.0
147
0.625
 71
     0
 72
     0
 73
     0
 74
     0
 75
     0
 76
     0
 77
     1
 78
     8
170
     0
171
     3
172
     1
173
     0
174
     1
175
     0
176
   144
177
   144
178
     7
270
     2
271
     1
272
     1
273
     2
274
     3
340
18E
275
     0
280
     0
281
     0
282
     0
283
     2
284
     8
285
     0
286
     0
287
     5
288
     0
  0
DIMSTYLE
105
3E8
330
A
100
AcDbSymbolTableRecord
100
AcDbDimStyleTableRecord
  2
ADD$3
 70
     0
  3

  4

  5

  6

  7

 40
1.0
 41
2.5
 42
1.0
 43
7.0
 44
0.5
 45
0.0
 46
0.0
 47
0.0
 48
0.0
140
2.5
141
2.5
142
0.0
143
0.03937007874016
144
1.0
145
0.0
146
1.0
147
0.625
 71
     0
 72
     0
 73
     0
 74
     0
 75
     0
 76
     0
 77
     1
 78
     8
170
     0
171
     3
172
     1
173
     0
174
     1
175
     0
176
   144
177
   144
178
     7
270
     2
271
     1
272
     1
273
     2
274
     3
340
18E
275
     0
280
     0
281
     0
282
     0
283
     2
284
     8
285
     0
286
     0
287
     5
288
     0
  0
DIMSTYLE
105
3E9
330
A
100
AcDbSymbolTableRecord
100
AcDbDimStyleTableRecord
  2
ADD$6
 70
     0
  3

  4

  5

  6

  7

 40
1.0
 41
2.5
 42
1.0
 43
7.0
 44
0.5
 45
0.0
 46
0.0
 47
0.0
 48
0.0
140
2.5
141
2.5
142
0.0
143
0.03937007874016
144
1.0
145
0.0
146
1.0
147
0.625
 71
     0
 72
     0
 73
     0
 74
     0
 75
     0
 76
     0
 77
     1
 78
     8
170
     0
171
     3
172
     1
173
     0
174
     1
175
     0
176
   144
177
   144
178
     7
270
     2
271
     1
272
     1
273
     2
274
     3
340
18E
275
     0
280
     0
281
     0
282
     0
283
     2
284
     8
285
     0
286
     0
287
     5
288
     0
  0
DIMSTYLE
105
3EA
330
A
100
AcDbSymbolTableRecord
100
AcDbDimStyleTableRecord
  2
ADD$7
 70
     0
  3

  4

  5

  6

  7

 40
1.0
 41
2.5
 42
1.0
 43
7.0
 44
0.5
 45
0.0
 46
0.0
 47
0.0
 48
0.0
140
2.5
141
2.5
142
0.0
143
0.03937007874016
144
1.0
145
0.0
146
1.0
147
0.625
 71
     0
 72
     0
 73
     0
 74
     0
 75
     0
 76
     0
 77
     0
 78
     8
170
     0
171
     3
172
     1
173
     0
174
     1
175
     0
176
   144
177
   144
178
     7
270
     2
271
     1
272
     1
273
     2
274
     3
340
18E
275
     0
280
     0
281
     0
282
     0
283
     2
284
     8
285
     0
286
     0
287
     5
288
     0
  0
DIMSTYLE
105
518
330
A
100
AcDbSymbolTableRecord
100
AcDbDimStyleTableRecord
  2
STANDARD
 70
     0
  3

  4

  5

  6

  7

 40
1.0
 41
0.18
 42
0.0625
 43
0.38
 44
0.18
 45
0.0
 46
0.0
 47
0.0
 48
0.0
140
0.18
141
0.09
142
0.0
143
25.4
144
1.0
145
0.0
146
1.0
147
0.09
 71
     0
 72
     0
 73
     1
 74
     1
 75
     0
 76
     0
 77
     0
 78
     0
170
     0
171
     2
172
     0
173
     0
174
     0
175
     0
176
     0
177
     0
178
     0
270
     2
271
     4
272
     4
273
     2
274
     2
340
11
275
     0
280
     0
281
     0
282
     0
283
     1
284
     0
285
     0
286
     0
287
     3
288
     0
  0
DIMSTYLE
105
550
330
A
100
AcDbSymbolTableRecord
100
AcDbDimStyleTableRecord
  2
ADD$0
 70
     0
  3

  4

  5

  6

  7

 40
1.0
 41
2.2
 42
1.0
 43
7.0
 44
0.5
 45
0.0
 46
0.0
 47
0.0
 48
0.0
140
2.5
141
2.5
142
0.0
143
0.03937007874016
144
1.0
145
0.7
146
1.0
147
0.625
 71
     0
 72
     0
 73
     0
 74
     0
 75
     0
 76
     0
 77
     1
 78
     8
170
     0
171
     3
172
     1
173
     0
174
     1
175
     0
176
   144
177
   144
178
     7
270
     2
271
     1
272
     1
273
     2
274
     3
340
18E
275
     0
280
     0
281
     0
282
     0
283
     2
284
     8
285
     0
286
     0
287
     5
288
     0
  0
DIMSTYLE
105
59B
330
A
100
AcDbSymbolTableRecord
100
AcDbDimStyleTableRecord
  2
ADD_M
 70
     0
  3

  4

  5

  6

  7

 40
1.0
 41
2.5
 42
1.0
 43
7.0
 44
0.5
 45
0.0
 46
0.0
 47
0.0
 48
0.0
140
2.5
141
2.5
142
0.0
143
0.03937007874016
144
1.0
145
0.7
146
1.0
147
0.625
 71
     0
 72
     0
 73
     0
 74
     0
 75
     0
 76
     0
 77
     1
 78
     8
170
     0
171
     3
172
     1
173
     0
174
     1
175
     0
176
   144
177
   144
178
     7
270
     2
271
     1
272
     1
273
     2
274
     3
340
18E
275
     0
280
     0
281
     0
282
     0
283
     2
284
     8
285
     0
286
     0
287
     5
288
     0
  0
ENDTAB
  0
TABLE
  2
BLOCK_RECORD
  5
1
330
0
100
AcDbSymbolTable
 70
     6
  0
BLOCK_RECORD
  5
1F
102
{ACAD_XDICTIONARY
360
F23
102
}
330
1
100
AcDbSymbolTableRecord
100
AcDbBlockTableRecord
  2
*MODEL_SPACE
  0
BLOCK_RECORD
  5
1B
102
{ACAD_XDICTIONARY
360
F25
102
}
330
1
100
AcDbSymbolTableRecord
100
AcDbBlockTableRecord
  2
*PAPER_SPACE
  0
BLOCK_RECORD
  5
192
330
1
100
AcDbSymbolTableRecord
100
AcDbBlockTableRecord
  2
_DOT
  0
BLOCK_RECORD
  5
5CE
330
1
100
AcDbSymbolTableRecord
100
AcDbBlockTableRecord
  2
A4
  0
BLOCK_RECORD
  5
636
330
1
100
AcDbSymbolTableRecord
100
AcDbBlockTableRecord
  2
_OPEN90
  0
BLOCK_RECORD
  5
63C
330
1
100
AcDbSymbolTableRecord
100
AcDbBlockTableRecord
  2
_OPEN30
  0
BLOCK_RECORD
  5
E79
330
1
100
AcDbSymbolTableRecord
100
AcDbBlockTableRecord
  2
REVDATE
  0
BLOCK_RECORD
  5
E8C
330
1
100
AcDbSymbolTableRecord
100
AcDbBlockTableRecord
  2
LDU300B
  0
ENDTAB
  0
ENDSEC
  0
SECTION
  2
BLOCKS
  0
BLOCK
  5
20
330
1F
100
AcDbEntity
  8
0
100
AcDbBlockBegin
  2
*MODEL_SPACE
 70
     0
 10
0.0
 20
0.0
 30
0.0
  3
*MODEL_SPACE
  1

  0
ENDBLK
  5
21
330
1F
100
AcDbEntity
  8
0
100
AcDbBlockEnd
  0
BLOCK
  5
1C
330
1B
100
AcDbEntity
 67
     1
  8
0
100
AcDbBlockBegin
  2
*PAPER_SPACE
 70
     0
 10
0.0
 20
0.0
 30
0.0
  3
*PAPER_SPACE
  1

  0
ENDBLK
  5
1D
330
1B
100
AcDbEntity
 67
     1
  8
0
100
AcDbBlockEnd
  0
BLOCK
  5
195
330
192
100
AcDbEntity
  8
0
100
AcDbBlockBegin
  2
_DOT
 70
     0
 10
0.0
 20
0.0
 30
0.0
  3
_DOT
  1

  0
POLYLINE
  5
193
330
192
100
AcDbEntity
  8
0
 62
     0
100
AcDb2dPolyline
 66
     1
 10
0.0
 20
0.0
 30
0.0
 70
     1
 40
0.5
 41
0.5
  0
VERTEX
  5
10F4
330
193
100
AcDbEntity
  8
0
 62
     0
100
AcDbVertex
100
AcDb2dVertex
 10
-0.25
 20
0.0
 30
0.0
 42
1.0
  0
VERTEX
  5
10F5
330
193
100
AcDbEntity
  8
0
 62
     0
100
AcDbVertex
100
AcDb2dVertex
 10
0.25
 20
0.0
 30
0.0
 42
1.0
  0
SEQEND
  5
10F6
330
193
100
AcDbEntity
  8
0
 62
     0
  0
LINE
  5
194
330
192
100
AcDbEntity
  8
0
 62
     0
100
AcDbLine
 10
-0.5
 20
0.0
 30
0.0
 11
-1.0
 21
0.0
 31
0.0
  0
ENDBLK
  5
196
330
192
100
AcDbEntity
  8
0
100
AcDbBlockEnd
  0
BLOCK
  5
5D1
330
5CE
100
AcDbEntity
  8
0
100
AcDbBlockBegin
  2
A4
 70
     0
 10
0.0
 20
0.0
 30
0.0
  3
A4
  1

  0
POLYLINE
  5
5CF
330
5CE
100
AcDbEntity
  8
HOJO
100
AcDb2dPolyline
 66
     1
 10
0.0
 20
0.0
 30
0.0
 70
     1
  0
VERTEX
  5
10F7
330
5CF
100
AcDbEntity
  8
HOJO
100
AcDbVertex
100
AcDb2dVertex
 10
0.0
 20
0.0
 30
0.0
  0
VERTEX
  5
10F8
330
5CF
100
AcDbEntity
  8
HOJO
100
AcDbVertex
100
AcDb2dVertex
 10
297.0
 20
0.0
 30
0.0
  0
VERTEX
  5
10F9
330
5CF
100
AcDbEntity
  8
HOJO
100
AcDbVertex
100
AcDb2dVertex
 10
297.0
 20
210.0
 30
0.0
  0
VERTEX
  5
10FA
330
5CF
100
AcDbEntity
  8
HOJO
100
AcDbVertex
100
AcDb2dVertex
 10
0.0
 20
210.0
 30
0.0
  0
SEQEND
  5
10FB
330
5CF
100
AcDbEntity
  8
HOJO
  0
POLYLINE
  5
5D0
330
5CE
100
AcDbEntity
  8
HOJO
100
AcDb2dPolyline
 66
     1
 10
0.0
 20
0.0
 30
0.0
 70
     1
  0
VERTEX
  5
10FC
330
5D0
100
AcDbEntity
  8
HOJO
100
AcDbVertex
100
AcDb2dVertex
 10
18.0
 20
13.0
 30
0.0
  0
VERTEX
  5
10FD
330
5D0
100
AcDbEntity
  8
HOJO
100
AcDbVertex
100
AcDb2dVertex
 10
279.0
 20
13.0
 30
0.0
  0
VERTEX
  5
10FE
330
5D0
100
AcDbEntity
  8
HOJO
100
AcDbVertex
100
AcDb2dVertex
 10
279.0
 20
197.0
 30
0.0
  0
VERTEX
  5
10FF
330
5D0
100
AcDbEntity
  8
HOJO
100
AcDbVertex
100
AcDb2dVertex
 10
18.0
 20
197.0
 30
0.0
  0
SEQEND
  5
1100
330
5D0
100
AcDbEntity
  8
HOJO
  0
ENDBLK
  5
5D2
330
5CE
100
AcDbEntity
  8
0
100
AcDbBlockEnd
  0
BLOCK
  5
63A
330
636
100
AcDbEntity
  8
0
100
AcDbBlockBegin
  2
_OPEN90
 70
     0
 10
0.0
 20
0.0
 30
0.0
  3
_OPEN90
  1

  0
LINE
  5
637
330
636
100
AcDbEntity
  8
SUNPO
 62
     0
100
AcDbLine
 10
-0.5
 20
0.5
 30
0.0
 11
0.0
 21
0.0
 31
0.0
  0
LINE
  5
638
330
636
100
AcDbEntity
  8
SUNPO
 62
     0
100
AcDbLine
 10
0.0
 20
0.0
 30
0.0
 11
-0.5
 21
-0.5
 31
0.0
  0
LINE
  5
639
330
636
100
AcDbEntity
  8
SUNPO
 62
     0
100
AcDbLine
 10
0.0
 20
0.0
 30
0.0
 11
-1.0
 21
0.0
 31
0.0
  0
ENDBLK
  5
63B
330
636
100
AcDbEntity
  8
0
100
AcDbBlockEnd
  0
BLOCK
  5
640
330
63C
100
AcDbEntity
  8
0
100
AcDbBlockBegin
  2
_OPEN30
 70
     0
 10
0.0
 20
0.0
 30
0.0
  3
_OPEN30
  1

  0
LINE
  5
63D
330
63C
100
AcDbEntity
  8
SUNPO
 62
     0
100
AcDbLine
 10
-1.0
 20
0.26794919
 30
0.0
 11
0.0
 21
0.0
 31
0.0
  0
LINE
  5
63E
330
63C
100
AcDbEntity
  8
SUNPO
 62
     0
100
AcDbLine
 10
0.0
 20
0.0
 30
0.0
 11
-1.0
 21
-0.26794919
 31
0.0
  0
LINE
  5
63F
330
63C
100
AcDbEntity
  8
SUNPO
 62
     0
100
AcDbLine
 10
0.0
 20
0.0
 30
0.0
 11
-1.0
 21
0.0
 31
0.0
  0
ENDBLK
  5
641
330
63C
100
AcDbEntity
  8
0
100
AcDbBlockEnd
  0
BLOCK
  5
E7D
330
E79
100
AcDbEntity
  8
0
100
AcDbBlockBegin
  2
REVDATE
 70
     2
 10
0.0
 20
0.0
 30
0.0
  3
REVDATE
  1
REVDATE
  0
ATTDEF
  5
E7A
330
E79
100
AcDbEntity
  8
0
 62
     0
100
AcDbText
 10
0.0
 20
0.0
 30
0.0
 40
1.0
  1

100
AcDbAttributeDefinition
  3

  2
USER
 70
     8
  0
ATTDEF
  5
E7B
330
E79
100
AcDbEntity
  8
0
 62
     0
100
AcDbText
 10
0.0
 20
0.0
 30
0.0
 40
1.0
  1

100
AcDbAttributeDefinition
  3

  2
REVDATE
 70
     8
  0
ATTDEF
  5
E7C
330
E79
100
AcDbEntity
  8
0
 62
     0
100
AcDbText
 10
0.0
 20
0.0
 30
0.0
 40
1.0
  1

100
AcDbAttributeDefinition
  3

  2
FNAME
 70
     8
  0
ENDBLK
  5
E7E
330
E79
100
AcDbEntity
  8
0
100
AcDbBlockEnd
  0
BLOCK
  5
ED2
330
E8C
100
AcDbEntity
  8
0
100
AcDbBlockBegin
  2
LDU300B
 70
     0
 10
0.0
 20
0.0
 30
0.0
  3
LDU300B
  1

  0
LINE
  5
ED6
330
E8C
100
AcDbEntity
  8
0-3C1
  6
CONTINUOUS
 62
     2
100
AcDbLine
 10
2302.02
 20
2664.67
 30
0.0
 11
4302.02
 21
2664.67
 31
0.0
  0
LINE
  5
ED7
330
E8C
100
AcDbEntity
  8
1-SUNPO
  6
CONTINUOUS
 62
     4
100
AcDbLine
 10
1383.44
 20
2692.12
 30
0.0
 11
1383.44
 21
2864.67
 31
0.0
  0
LINE
  5
ED8
330
E8C
100
AcDbEntity
  8
1-SUNPO
  6
CONTINUOUS
 62
     4
100
AcDbLine
 10
1433.44
 20
2692.12
 30
0.0
 11
1433.44
 21
2864.67
 31
0.0
  0
LINE
  5
ED9
330
E8C
100
AcDbEntity
  8
1-SUNPO
  6
CONTINUOUS
 62
     4
100
AcDbLine
 10
1733.44
 20
2692.12
 30
0.0
 11
1733.44
 21
2864.67
 31
0.0
  0
LINE
  5
EDA
330
E8C
100
AcDbEntity
  8
1-SUNPO
  6
CONTINUOUS
 62
     4
100
AcDbLine
 10
1783.44
 20
2692.12
 30
0.0
 11
1783.44
 21
2864.67
 31
0.0
  0
LINE
  5
EDB
330
E8C
100
AcDbEntity
  8
1-SUNPO
  6
CONTINUOUS
 62
     4
100
AcDbLine
 10
2302.02
 20
2864.67
 30
0.0
 11
4302.02
 21
2864.67
 31
0.0
  0
LINE
  5
EDC
330
E8C
100
AcDbEntity
  8
1-SUNPO
  6
CONTINUOUS
 62
     4
100
AcDbLine
 10
2302.02
 20
2692.12
 30
0.0
 11
2302.02
 21
2864.67
 31
0.0
  0
LINE
  5
EDD
330
E8C
100
AcDbEntity
  8
1-SUNPO
  6
CONTINUOUS
 62
     4
100
AcDbLine
 10
4302.02
 20
2692.12
 30
0.0
 11
4302.02
 21
2864.67
 31
0.0
  0
LINE
  5
EDE
330
E8C
100
AcDbEntity
  8
1-SUNPO
  6
CONTINUOUS
 62
     4
100
AcDbLine
 10
1433.44
 20
2277.8
 30
0.0
 11
1433.44
 21
2104.67
 31
0.0
  0
LINE
  5
EDF
330
E8C
100
AcDbEntity
  8
1-SUNPO
  6
CONTINUOUS
 62
     4
100
AcDbLine
 10
1733.44
 20
2277.8
 30
0.0
 11
1733.44
 21
2104.67
 31
0.0
  0
LINE
  5
EE0
330
E8C
100
AcDbEntity
  8
1-SUNPO
  6
CONTINUOUS
 62
     4
100
AcDbLine
 10
1705.499999999999
 20
2383.179999999998
 30
0.0
 11
1679.52
 21
2398.179999999999
 31
0.0
  0
LINE
  5
EE1
330
E8C
100
AcDbEntity
  8
1-SUNPO
  6
CONTINUOUS
 62
     4
100
AcDbLine
 10
1705.499999999999
 20
2383.179999999998
 30
0.0
 11
1690.5
 21
2409.159999999999
 31
0.0
  0
LINE
  5
EE2
330
E8C
100
AcDbEntity
  8
1-SUNPO
  6
CONTINUOUS
 62
     4
100
AcDbLine
 10
1705.499999999999
 20
2383.179999999998
 30
0.0
 11
1661.359999999999
 21
2427.32
 31
0.0
  0
LINE
  5
EE3
330
E8C
100
AcDbEntity
  8
1-SUNPO
  6
CONTINUOUS
 62
     4
100
AcDbLine
 10
1741.159999999999
 20
2304.67
 30
0.0
 11
1896.01
 21
2304.67
 31
0.0
  0
LINE
  5
EE4
330
E8C
100
AcDbEntity
  8
1-SUNPO
  6
CONTINUOUS
 62
     4
100
AcDbLine
 10
1414.13
 20
2859.5
 30
0.0
 11
1452.76
 21
2869.849999999999
 31
0.0
  0
LINE
  5
EE5
330
E8C
100
AcDbEntity
  8
1-SUNPO
  6
CONTINUOUS
 62
     4
100
AcDbLine
 10
1414.13
 20
2869.849999999999
 30
0.0
 11
1452.76
 21
2859.5
 31
0.0
  0
LINE
  5
EE6
330
E8C
100
AcDbEntity
  8
1-SUNPO
  6
CONTINUOUS
 62
     4
100
AcDbLine
 10
1383.44
 20
2864.67
 30
0.0
 11
1402.759999999999
 21
2869.849999999999
 31
0.0
  0
LINE
  5
EE7
330
E8C
100
AcDbEntity
  8
1-SUNPO
  6
CONTINUOUS
 62
     4
100
AcDbLine
 10
1383.44
 20
2864.67
 30
0.0
 11
1402.759999999999
 21
2859.5
 31
0.0
  0
LINE
  5
EE8
330
E8C
100
AcDbEntity
  8
1-SUNPO
  6
CONTINUOUS
 62
     4
100
AcDbLine
 10
1714.13
 20
2859.5
 30
0.0
 11
1752.76
 21
2869.849999999999
 31
0.0
  0
LINE
  5
EE9
330
E8C
100
AcDbEntity
  8
1-SUNPO
  6
CONTINUOUS
 62
     4
100
AcDbLine
 10
1714.13
 20
2869.849999999999
 30
0.0
 11
1752.76
 21
2859.5
 31
0.0
  0
LINE
  5
EEA
330
E8C
100
AcDbEntity
  8
1-SUNPO
  6
CONTINUOUS
 62
     4
100
AcDbLine
 10
1783.44
 20
2864.67
 30
0.0
 11
1764.13
 21
2869.849999999999
 31
0.0
  0
LINE
  5
EEB
330
E8C
100
AcDbEntity
  8
1-SUNPO
  6
CONTINUOUS
 62
     4
100
AcDbLine
 10
1783.44
 20
2864.67
 30
0.0
 11
1764.13
 21
2859.5
 31
0.0
  0
LINE
  5
EEC
330
E8C
100
AcDbEntity
  8
1-SUNPO
  6
CONTINUOUS
 62
     4
100
AcDbLine
 10
1433.44
 20
2104.67
 30
0.0
 11
1452.76
 21
2109.849999999999
 31
0.0
  0
LINE
  5
EED
330
E8C
100
AcDbEntity
  8
1-SUNPO
  6
CONTINUOUS
 62
     4
100
AcDbLine
 10
1433.44
 20
2104.67
 30
0.0
 11
1452.76
 21
2099.5
 31
0.0
  0
LINE
  5
EEE
330
E8C
100
AcDbEntity
  8
1-SUNPO
  6
CONTINUOUS
 62
     4
100
AcDbLine
 10
1733.44
 20
2104.67
 30
0.0
 11
1714.13
 21
2109.849999999999
 31
0.0
  0
LINE
  5
EEF
330
E8C
100
AcDbEntity
  8
1-SUNPO
  6
CONTINUOUS
 62
     4
100
AcDbLine
 10
1733.44
 20
2104.67
 30
0.0
 11
1714.13
 21
2099.5
 31
0.0
  0
LINE
  5
EF0
330
E8C
100
AcDbEntity
  8
1-SUNPO
  6
CONTINUOUS
 62
     4
100
AcDbLine
 10
1532.7
 20
2383.989999999998
 30
0.0
 11
1543.06
 21
2345.349999999999
 31
0.0
  0
LINE
  5
EF1
330
E8C
100
AcDbEntity
  8
1-SUNPO
  6
CONTINUOUS
 62
     4
100
AcDbLine
 10
1543.06
 20
2383.989999999998
 30
0.0
 11
1532.7
 21
2345.349999999999
 31
0.0
  0
LINE
  5
EF2
330
E8C
100
AcDbEntity
  8
1-SUNPO
  6
CONTINUOUS
 62
     4
100
AcDbLine
 10
1537.88
 20
2304.67
 30
0.0
 11
1543.06
 21
2323.989999999998
 31
0.0
  0
LINE
  5
EF3
330
E8C
100
AcDbEntity
  8
1-SUNPO
  6
CONTINUOUS
 62
     4
100
AcDbLine
 10
1537.88
 20
2304.67
 30
0.0
 11
1532.7
 21
2323.989999999998
 31
0.0
  0
LINE
  5
EF4
330
E8C
100
AcDbEntity
  8
1-SUNPO
  6
CONTINUOUS
 62
     4
100
AcDbLine
 10
1537.88
 20
2664.67
 30
0.0
 11
1543.06
 21
2645.35
 31
0.0
  0
LINE
  5
EF5
330
E8C
100
AcDbEntity
  8
1-SUNPO
  6
CONTINUOUS
 62
     4
100
AcDbLine
 10
1537.88
 20
2664.67
 30
0.0
 11
1532.7
 21
2645.35
 31
0.0
  0
LINE
  5
EF6
330
E8C
100
AcDbEntity
  8
1-SUNPO
  6
CONTINUOUS
 62
     4
100
AcDbLine
 10
2302.02
 20
2864.67
 30
0.0
 11
2321.33
 21
2869.849999999999
 31
0.0
  0
LINE
  5
EF7
330
E8C
100
AcDbEntity
  8
1-SUNPO
  6
CONTINUOUS
 62
     4
100
AcDbLine
 10
2302.02
 20
2864.67
 30
0.0
 11
2321.33
 21
2859.5
 31
0.0
  0
LINE
  5
EF8
330
E8C
100
AcDbEntity
  8
1-SUNPO
  6
CONTINUOUS
 62
     4
100
AcDbLine
 10
4302.02
 20
2864.67
 30
0.0
 11
4282.7
 21
2869.849999999999
 31
0.0
  0
LINE
  5
EF9
330
E8C
100
AcDbEntity
  8
1-SUNPO
  6
CONTINUOUS
 62
     4
100
AcDbLine
 10
4302.02
 20
2864.67
 30
0.0
 11
4282.7
 21
2859.5
 31
0.0
  0
LINE
  5
EFA
330
E8C
100
AcDbEntity
  8
1-SUNPO
  6
CONTINUOUS
 62
     4
100
AcDbLine
 10
1383.44
 20
2864.67
 30
0.0
 11
1783.44
 21
2864.67
 31
0.0
  0
LINE
  5
EFB
330
E8C
100
AcDbEntity
  8
1-SUNPO
  6
CONTINUOUS
 62
     4
100
AcDbLine
 10
1433.44
 20
2104.67
 30
0.0
 11
1733.44
 21
2104.67
 31
0.0
  0
LINE
  5
EFC
330
E8C
100
AcDbEntity
  8
0-3C1
  6
CONTINUOUS
 62
     2
100
AcDbLine
 10
1433.44
 20
2304.67
 30
0.0
 11
1733.44
 21
2304.67
 31
0.0
  0
LINE
  5
EFD
330
E8C
100
AcDbEntity
  8
0-3C1
  6
CONTINUOUS
 62
     2
100
AcDbLine
 10
1383.44
 20
2664.67
 30
0.0
 11
1433.44
 21
2664.67
 31
0.0
  0
LINE
  5
EFE
330
E8C
100
AcDbEntity
  8
0-3C1
  6
CONTINUOUS
 62
     2
100
AcDbLine
 10
1783.44
 20
2664.67
 30
0.0
 11
1733.44
 21
2664.67
 31
0.0
  0
LINE
  5
EFF
330
E8C
100
AcDbEntity
  8
0-3C1
  6
CONTINUOUS
 62
     2
100
AcDbLine
 10
1450.33
 20
2411.35
 30
0.0
 11
1433.44
 21
2664.67
 31
0.0
  0
LINE
  5
F00
330
E8C
100
AcDbEntity
  8
0-3C1
  6
CONTINUOUS
 62
     2
100
AcDbLine
 10
1666.67
 20
2364.67
 30
0.0
 11
1500.22
 21
2364.67
 31
0.0
  0
LINE
  5
F01
330
E8C
100
AcDbEntity
  8
0-3C1
  6
CONTINUOUS
 62
     2
100
AcDbLine
 10
1716.56
 20
2411.35
 30
0.0
 11
1733.44
 21
2664.67
 31
0.0
  0
LINE
  5
F02
330
E8C
100
AcDbEntity
  8
1-KIJUN
  6
CENTER2
 62
     3
100
AcDbLine
 10
1453.44
 20
2664.67
 30
0.0
 11
1713.44
 21
2664.67
 31
0.0
  0
LINE
  5
F03
330
E8C
100
AcDbEntity
  8
1-SUNPO
  6
CONTINUOUS
 62
     4
100
AcDbLine
 10
1537.88
 20
2664.67
 30
0.0
 11
1537.88
 21
2304.67
 31
0.0
  0
LINE
  5
F04
330
E8C
100
AcDbEntity
  8
0-3C1
  6
CONTINUOUS
 62
     2
100
AcDbLine
 10
4302.02
 20
2664.67
 30
0.0
 11
4302.02
 21
2304.67
 31
0.0
  0
LINE
  5
F05
330
E8C
100
AcDbEntity
  8
0-3C1
  6
CONTINUOUS
 62
     2
100
AcDbLine
 10
2302.02
 20
2664.67
 30
0.0
 11
2302.02
 21
2304.67
 31
0.0
  0
LINE
  5
F06
330
E8C
100
AcDbEntity
  8
0-3C1
  6
CONTINUOUS
 62
     2
100
AcDbLine
 10
2302.02
 20
2304.67
 30
0.0
 11
4302.02
 21
2304.67
 31
0.0
  0
LINE
  5
F07
330
E8C
100
AcDbEntity
  8
0-3C1
  6
CONTINUOUS
 62
     2
100
AcDbLine
 10
2302.02
 20
2344.67
 30
0.0
 11
4302.02
 21
2344.67
 31
0.0
  0
LINE
  5
F08
330
E8C
100
AcDbEntity
  8
0-3C1
  6
DASHED2
 62
     2
100
AcDbLine
 10
2302.02
 20
2364.67
 30
0.0
 11
4302.02
 21
2364.67
 31
0.0
  0
LINE
  5
F09
330
E8C
100
AcDbEntity
  8
0-3C1
  6
CONTINUOUS
 62
     2
100
AcDbLine
 10
1733.44
 20
2304.67
 30
0.0
 11
1773.44
 21
2344.67
 31
0.0
  0
LINE
  5
F0A
330
E8C
100
AcDbEntity
  8
0-3C1
  6
CONTINUOUS
 62
     2
100
AcDbLine
 10
1773.44
 20
2344.67
 30
0.0
 11
1783.44
 21
2664.67
 31
0.0
  0
LINE
  5
F0B
330
E8C
100
AcDbEntity
  8
0-3C1
  6
CONTINUOUS
 62
     2
100
AcDbLine
 10
1393.44
 20
2344.67
 30
0.0
 11
1383.44
 21
2664.67
 31
0.0
  0
LINE
  5
F0C
330
E8C
100
AcDbEntity
  8
0-3C1
  6
CONTINUOUS
 62
     2
100
AcDbLine
 10
1433.44
 20
2304.67
 30
0.0
 11
1393.44
 21
2344.67
 31
0.0
  0
ARC
  5
F0D
330
E8C
100
AcDbEntity
  8
0-3C1
  6
CONTINUOUS
 62
     2
100
AcDbCircle
 10
1500.22
 20
2414.67
 30
0.0
 40
50.0
100
AcDbArc
 50
183.814041
 51
270.0
  0
ARC
  5
F0E
330
E8C
100
AcDbEntity
  8
0-3C1
  6
CONTINUOUS
 62
     2
100
AcDbCircle
 10
1666.67
 20
2414.67
 30
0.0
 40
50.0
100
AcDbArc
 50
270.0
 51
356.185974
  0
ARC
  5
F0F
330
E8C
100
AcDbEntity
  8
1-SUNPO
  6
CONTINUOUS
 62
     4
100
AcDbCircle
 10
1738.439999999999
 20
2304.67
 30
0.0
 40
42.0
100
AcDbArc
 50
0.0
 51
49.828934
  0
MTEXT
  5
F10
330
E8C
100
AcDbEntity
  8
1-SUNPO
 62
     4
100
AcDbMText
 10
1794.51
 20
2307.92
 30
0.0
 40
39.0
 41
0.0
 71
     7
 72
     1
  1
45°
1001
ACAD
1000
MTEXTBEGIN
1070
    73
1070
     1
1070
    44
1040
1.0
1070
    74
1070
     0
1000
MTEXTEND
1000
MTEXTBEGIN
1070
    73
1070
     1
1070
    44
1040
1.0
1070
    74
1070
     0
1000
MTEXTEND
1000
MTEXTBEGIN
1070
    73
1070
     1
1070
    44
1040
1.0
1070
    74
1070
     0
1000
MTEXTEND
  0
MTEXT
  5
F11
330
E8C
100
AcDbEntity
  8
1-SUNPO
 62
     4
100
AcDbMText
 10
1613.019999999999
 20
2433.75
 30
0.0
 40
39.0
 41
0.0
 71
     7
 72
     1
  1
\W0.700;50R
1001
ACAD
1000
MTEXTBEGIN
1070
    73
1070
     1
1070
    44
1040
1.0
1070
    74
1070
     0
1000
MTEXTEND
1000
MTEXTBEGIN
1070
    73
1070
     1
1070
    44
1040
1.0
1070
    74
1070
     0
1000
MTEXTEND
1000
MTEXTBEGIN
1070
    73
1070
     1
1070
    44
1040
1.0
1070
    74
1070
     0
1000
MTEXTEND
  0
MTEXT
  5
F12
330
E8C
100
AcDbEntity
  8
1-SUNPO
 62
     4
100
AcDbMText
 10
1383.44
 20
2874.67
 30
0.0
 40
39.0
 41
0.0
 71
     7
 72
     1
  1
\W0.800;50
1001
ACAD
1000
MTEXTBEGIN
1070
    73
1070
     1
1070
    44
1040
1.0
1070
    74
1070
     0
1000
MTEXTEND
1000
MTEXTBEGIN
1070
    73
1070
     1
1070
    44
1040
1.0
1070
    74
1070
     0
1000
MTEXTEND
1000
MTEXTBEGIN
1070
    73
1070
     1
1070
    44
1040
1.0
1070
    74
1070
     0
1000
MTEXTEND
  0
MTEXT
  5
F13
330
E8C
100
AcDbEntity
  8
1-SUNPO
 62
     4
100
AcDbMText
 10
1545.94
 20
2874.67
 30
0.0
 40
39.0
 41
0.0
 71
     7
 72
     1
  1
\W0.800;300
1001
ACAD
1000
MTEXTBEGIN
1070
    73
1070
     1
1070
    44
1040
1.0
1070
    74
1070
     0
1000
MTEXTEND
1000
MTEXTBEGIN
1070
    73
1070
     1
1070
    44
1040
1.0
1070
    74
1070
     0
1000
MTEXTEND
1000
MTEXTBEGIN
1070
    73
1070
     1
1070
    44
1040
1.0
1070
    74
1070
     0
1000
MTEXTEND
  0
MTEXT
  5
F14
330
E8C
100
AcDbEntity
  8
1-SUNPO
 62
     4
100
AcDbMText
 10
1733.44
 20
2874.67
 30
0.0
 40
39.0
 41
0.0
 71
     7
 72
     1
  1
\W0.800;50
1001
ACAD
1000
MTEXTBEGIN
1070
    73
1070
     1
1070
    44
1040
1.0
1070
    74
1070
     0
1000
MTEXTEND
1000
MTEXTBEGIN
1070
    73
1070
     1
1070
    44
1040
1.0
1070
    74
1070
     0
1000
MTEXTEND
1000
MTEXTBEGIN
1070
    73
1070
     1
1070
    44
1040
1.0
1070
    74
1070
     0
1000
MTEXTEND
  0
MTEXT
  5
F15
330
E8C
100
AcDbEntity
  8
1-SUNPO
 62
     4
100
AcDbMText
 10
1545.94
 20
2114.67
 30
0.0
 40
39.0
 41
0.0
 71
     7
 72
     1
  1
\W0.800;300
1001
ACAD
1000
MTEXTBEGIN
1070
    73
1070
     1
1070
    44
1040
1.0
1070
    74
1070
     0
1000
MTEXTEND
1000
MTEXTBEGIN
1070
    73
1070
     1
1070
    44
1040
1.0
1070
    74
1070
     0
1000
MTEXTEND
1000
MTEXTBEGIN
1070
    73
1070
     1
1070
    44
1040
1.0
1070
    74
1070
     0
1000
MTEXTEND
  0
MTEXT
  5
F16
330
E8C
100
AcDbEntity
  8
1-SUNPO
 62
     4
100
AcDbMText
 10
1527.88
 20
2477.17
 30
0.0
 40
39.0
 41
0.0
 71
     7
 72
     1
  1
\W0.800;300
 11
0.0
 21
1.0
 31
0.0
1001
ACAD
1000
MTEXTBEGIN
1070
    73
1070
     1
1070
    44
1040
1.0
1070
    74
1070
     0
1000
MTEXTEND
1000
MTEXTBEGIN
1070
    73
1070
     1
1070
    44
1040
1.0
1070
    74
1070
     0
1000
MTEXTEND
1000
MTEXTBEGIN
1070
    73
1070
     1
1070
    44
1040
1.0
1070
    74
1070
     0
1000
MTEXTEND
  0
MTEXT
  5
F17
330
E8C
100
AcDbEntity
  8
1-SUNPO
 62
     4
100
AcDbMText
 10
1527.88
 20
2309.67
 30
0.0
 40
39.0
 41
0.0
 71
     7
 72
     1
  1
\W0.800;60
 11
0.0
 21
1.0
 31
0.0
1001
ACAD
1000
MTEXTBEGIN
1070
    73
1070
     1
1070
    44
1040
1.0
1070
    74
1070
     0
1000
MTEXTEND
1000
MTEXTBEGIN
1070
    73
1070
     1
1070
    44
1040
1.0
1070
    74
1070
     0
1000
MTEXTEND
1000
MTEXTBEGIN
1070
    73
1070
     1
1070
    44
1040
1.0
1070
    74
1070
     0
1000
MTEXTEND
  0
MTEXT
  5
F18
330
E8C
100
AcDbEntity
  8
1-SUNPO
 62
     4
100
AcDbMText
 10
3252.02
 20
2874.67
 30
0.0
 40
39.0
 41
0.0
 71
     7
 72
     1
  1
\W0.800;2000
1001
ACAD
1000
MTEXTBEGIN
1070
    73
1070
     1
1070
    44
1040
1.0
1070
    74
1070
     0
1000
MTEXTEND
1000
MTEXTBEGIN
1070
    73
1070
     1
1070
    44
1040
1.0
1070
    74
1070
     0
1000
MTEXTEND
1000
MTEXTBEGIN
1070
    73
1070
     1
1070
    44
1040
1.0
1070
    74
1070
     0
1000
MTEXTEND
  0
POLYLINE
  5
F19
330
E8C
100
AcDbEntity
  8
1-SUNPO
  6
CONTINUOUS
 62
     4
100
AcDb2dPolyline
 66
     1
 10
0.0
 20
0.0
 30
0.0
 70
     1
 40
1600.0
 41
1600.0
  0
VERTEX
  5
1101
330
F19
100
AcDbEntity
  8
1-SUNPO
  6
CONTINUOUS
 62
     4
100
AcDbVertex
100
AcDb2dVertex
 10
1776.44
 20
2304.67
 30
0.0
 42
1.0
  0
VERTEX
  5
1102
330
F19
100
AcDbEntity
  8
1-SUNPO
  6
CONTINUOUS
 62
     4
100
AcDbVertex
100
AcDb2dVertex
 10
1784.44
 20
2304.67
 30
0.0
 42
1.0
  0
SEQEND
  5
1103
330
F19
100
AcDbEntity
  8
1-SUNPO
  6
CONTINUOUS
 62
     4
  0
POLYLINE
  5
F1A
330
E8C
100
AcDbEntity
  8
1-SUNPO
  6
CONTINUOUS
 62
     4
100
AcDb2dPolyline
 66
     1
 10
0.0
 20
0.0
 30
0.0
 70
     1
 40
1600.0
 41
1600.0
  0
VERTEX
  5
1104
330
F1A
100
AcDbEntity
  8
1-SUNPO
  6
CONTINUOUS
 62
     4
100
AcDbVertex
100
AcDb2dVertex
 10
1761.53
 20
2336.76
 30
0.0
 42
1.0
  0
VERTEX
  5
1105
330
F1A
100
AcDbEntity
  8
1-SUNPO
  6
CONTINUOUS
 62
     4
100
AcDbVertex
100
AcDb2dVertex
 10
1769.53
 20
2336.76
 30
0.0
 42
1.0
  0
SEQEND
  5
1106
330
F1A
100
AcDbEntity
  8
1-SUNPO
  6
CONTINUOUS
 62
     4
  0
ENDBLK
  5
ED3
330
E8C
100
AcDbEntity
  8
0
100
AcDbBlockEnd
  0
ENDSEC
  0
SECTION
  2
ENTITIES
  0
LINE
  5
60A
330
1F
100
AcDbEntity
  8
HOJO
100
AcDbLine
 10
360.0
 20
260.0
 30
0.0
 11
5580.0
 21
260.0
 31
0.0
  0
LINE
  5
60B
330
1F
100
AcDbEntity
  8
HOJO
100
AcDbLine
 10
360.0
 20
560.0
 30
0.0
 11
5580.0
 21
560.0
 31
0.0
  0
LINE
  5
60C
330
1F
100
AcDbEntity
  8
HOJO
100
AcDbLine
 10
360.0
 20
260.0
 30
0.0
 11
360.0
 21
560.0
 31
0.0
  0
LINE
  5
60D
330
1F
100
AcDbEntity
  8
HOJO
100
AcDbLine
 10
2360.0
 20
260.0
 30
0.0
 11
2360.0
 21
560.0
 31
0.0
  0
LINE
  5
60F
330
1F
100
AcDbEntity
  8
HOJO
100
AcDbLine
 10
3160.0
 20
260.0
 30
0.0
 11
3160.0
 21
560.0
 31
0.0
  0
LINE
  5
610
330
1F
100
AcDbEntity
  8
HOJO
100
AcDbLine
 10
3660.0
 20
260.0
 30
0.0
 11
3660.0
 21
560.0
 31
0.0
  0
LINE
  5
FAE
330
1F
100
AcDbEntity
  8
0-3C1
  6
CONTINUOUS
 62
   250
100
AcDbLine
 10
2398.475681434999
 20
2385.343363733229
 30
0.0
 11
4398.475681435001
 21
2385.343363733229
 31
0.0
  0
LINE
  5
FAF
330
1F
100
AcDbEntity
  8
1-SUNPO
  6
CONTINUOUS
 62
   250
100
AcDbLine
 10
1479.895681434999
 20
2412.793363733229
 30
0.0
 11
1479.895681434999
 21
2585.343363733229
 31
0.0
  0
LINE
  5
FB0
330
1F
100
AcDbEntity
  8
1-SUNPO
  6
CONTINUOUS
 62
   250
100
AcDbLine
 10
1529.895681434999
 20
2412.793363733229
 30
0.0
 11
1529.895681434999
 21
2585.343363733229
 31
0.0
  0
LINE
  5
FB1
330
1F
100
AcDbEntity
  8
1-SUNPO
  6
CONTINUOUS
 62
   250
100
AcDbLine
 10
1829.895681434999
 20
2412.793363733229
 30
0.0
 11
1829.895681434999
 21
2585.343363733229
 31
0.0
  0
LINE
  5
FB2
330
1F
100
AcDbEntity
  8
1-SUNPO
  6
CONTINUOUS
 62
   250
100
AcDbLine
 10
1879.895681435
 20
2412.793363733229
 30
0.0
 11
1879.895681435
 21
2585.343363733229
 31
0.0
  0
LINE
  5
FB3
330
1F
100
AcDbEntity
  8
1-SUNPO
  6
CONTINUOUS
 62
   250
100
AcDbLine
 10
2398.475681434999
 20
2585.343363733229
 30
0.0
 11
4398.475681435001
 21
2585.343363733229
 31
0.0
  0
LINE
  5
FB4
330
1F
100
AcDbEntity
  8
1-SUNPO
  6
CONTINUOUS
 62
   250
100
AcDbLine
 10
2398.475681434999
 20
2412.793363733229
 30
0.0
 11
2398.475681434999
 21
2585.343363733229
 31
0.0
  0
LINE
  5
FB5
330
1F
100
AcDbEntity
  8
1-SUNPO
  6
CONTINUOUS
 62
   250
100
AcDbLine
 10
4398.475681435001
 20
2412.793363733229
 30
0.0
 11
4398.475681435001
 21
2585.343363733229
 31
0.0
  0
LINE
  5
FB6
330
1F
100
AcDbEntity
  8
1-SUNPO
  6
CONTINUOUS
 62
   250
100
AcDbLine
 10
1529.895681434999
 20
1998.473363733229
 30
0.0
 11
1529.895681434999
 21
1825.343363733229
 31
0.0
  0
LINE
  5
FB7
330
1F
100
AcDbEntity
  8
1-SUNPO
  6
CONTINUOUS
 62
   250
100
AcDbLine
 10
1829.895681434999
 20
1998.473363733229
 30
0.0
 11
1829.895681434999
 21
1825.343363733229
 31
0.0
  0
LINE
  5
FB8
330
1F
100
AcDbEntity
  8
1-SUNPO
  6
CONTINUOUS
 62
   250
100
AcDbLine
 10
1801.955681434998
 20
2103.853363733227
 30
0.0
 11
1775.975681434999
 21
2118.853363733228
 31
0.0
  0
LINE
  5
FB9
330
1F
100
AcDbEntity
  8
1-SUNPO
  6
CONTINUOUS
 62
   250
100
AcDbLine
 10
1801.955681434998
 20
2103.853363733227
 30
0.0
 11
1786.955681434999
 21
2129.833363733228
 31
0.0
  0
LINE
  5
FBA
330
1F
100
AcDbEntity
  8
1-SUNPO
  6
CONTINUOUS
 62
   250
100
AcDbLine
 10
1801.955681434998
 20
2103.853363733227
 30
0.0
 11
1757.815681434999
 21
2147.993363733229
 31
0.0
  0
LINE
  5
FBB
330
1F
100
AcDbEntity
  8
1-SUNPO
  6
CONTINUOUS
 62
   250
100
AcDbLine
 10
1837.615681434999
 20
2025.343363733229
 30
0.0
 11
1992.465681434999
 21
2025.343363733229
 31
0.0
  0
LINE
  5
FBC
330
1F
100
AcDbEntity
  8
1-SUNPO
  6
CONTINUOUS
 62
   250
100
AcDbLine
 10
1510.585681435
 20
2580.173363733229
 30
0.0
 11
1549.215681435
 21
2590.523363733228
 31
0.0
  0
LINE
  5
FBD
330
1F
100
AcDbEntity
  8
1-SUNPO
  6
CONTINUOUS
 62
   250
100
AcDbLine
 10
1510.585681435
 20
2590.523363733228
 30
0.0
 11
1549.215681435
 21
2580.173363733229
 31
0.0
  0
LINE
  5
FBE
330
1F
100
AcDbEntity
  8
1-SUNPO
  6
CONTINUOUS
 62
   250
100
AcDbLine
 10
1479.895681434999
 20
2585.343363733229
 30
0.0
 11
1499.215681434999
 21
2590.523363733228
 31
0.0
  0
LINE
  5
FBF
330
1F
100
AcDbEntity
  8
1-SUNPO
  6
CONTINUOUS
 62
   250
100
AcDbLine
 10
1479.895681434999
 20
2585.343363733229
 30
0.0
 11
1499.215681434999
 21
2580.173363733229
 31
0.0
  0
LINE
  5
FC0
330
1F
100
AcDbEntity
  8
1-SUNPO
  6
CONTINUOUS
 62
   250
100
AcDbLine
 10
1810.585681435
 20
2580.173363733229
 30
0.0
 11
1849.215681435
 21
2590.523363733228
 31
0.0
  0
LINE
  5
FC1
330
1F
100
AcDbEntity
  8
1-SUNPO
  6
CONTINUOUS
 62
   250
100
AcDbLine
 10
1810.585681435
 20
2590.523363733228
 30
0.0
 11
1849.215681435
 21
2580.173363733229
 31
0.0
  0
LINE
  5
FC2
330
1F
100
AcDbEntity
  8
1-SUNPO
  6
CONTINUOUS
 62
   250
100
AcDbLine
 10
1879.895681435
 20
2585.343363733229
 30
0.0
 11
1860.585681435
 21
2590.523363733228
 31
0.0
  0
LINE
  5
FC3
330
1F
100
AcDbEntity
  8
1-SUNPO
  6
CONTINUOUS
 62
   250
100
AcDbLine
 10
1879.895681435
 20
2585.343363733229
 30
0.0
 11
1860.585681435
 21
2580.173363733229
 31
0.0
  0
LINE
  5
FC4
330
1F
100
AcDbEntity
  8
1-SUNPO
  6
CONTINUOUS
 62
   250
100
AcDbLine
 10
1529.895681434999
 20
1825.343363733229
 30
0.0
 11
1549.215681435
 21
1830.523363733228
 31
0.0
  0
LINE
  5
FC5
330
1F
100
AcDbEntity
  8
1-SUNPO
  6
CONTINUOUS
 62
   250
100
AcDbLine
 10
1529.895681434999
 20
1825.343363733229
 30
0.0
 11
1549.215681435
 21
1820.173363733229
 31
0.0
  0
LINE
  5
FC6
330
1F
100
AcDbEntity
  8
1-SUNPO
  6
CONTINUOUS
 62
   250
100
AcDbLine
 10
1829.895681434999
 20
1825.343363733229
 30
0.0
 11
1810.585681435
 21
1830.523363733228
 31
0.0
  0
LINE
  5
FC7
330
1F
100
AcDbEntity
  8
1-SUNPO
  6
CONTINUOUS
 62
   250
100
AcDbLine
 10
1829.895681434999
 20
1825.343363733229
 30
0.0
 11
1810.585681435
 21
1820.173363733229
 31
0.0
  0
LINE
  5
FC8
330
1F
100
AcDbEntity
  8
1-SUNPO
  6
CONTINUOUS
 62
   250
100
AcDbLine
 10
1629.155681434999
 20
2104.663363733228
 30
0.0
 11
1639.515681435
 21
2066.023363733227
 31
0.0
  0
LINE
  5
FC9
330
1F
100
AcDbEntity
  8
1-SUNPO
  6
CONTINUOUS
 62
   250
100
AcDbLine
 10
1639.515681435
 20
2104.663363733228
 30
0.0
 11
1629.155681434999
 21
2066.023363733227
 31
0.0
  0
LINE
  5
FCA
330
1F
100
AcDbEntity
  8
1-SUNPO
  6
CONTINUOUS
 62
   250
100
AcDbLine
 10
1634.335681435
 20
2025.343363733229
 30
0.0
 11
1639.515681435
 21
2044.663363733227
 31
0.0
  0
LINE
  5
FCB
330
1F
100
AcDbEntity
  8
1-SUNPO
  6
CONTINUOUS
 62
   250
100
AcDbLine
 10
1634.335681435
 20
2025.343363733229
 30
0.0
 11
1629.155681434999
 21
2044.663363733227
 31
0.0
  0
LINE
  5
FCC
330
1F
100
AcDbEntity
  8
1-SUNPO
  6
CONTINUOUS
 62
   250
100
AcDbLine
 10
1634.335681435
 20
2385.343363733229
 30
0.0
 11
1639.515681435
 21
2366.023363733229
 31
0.0
  0
LINE
  5
FCD
330
1F
100
AcDbEntity
  8
1-SUNPO
  6
CONTINUOUS
 62
   250
100
AcDbLine
 10
1634.335681435
 20
2385.343363733229
 30
0.0
 11
1629.155681434999
 21
2366.023363733229
 31
0.0
  0
LINE
  5
FCE
330
1F
100
AcDbEntity
  8
1-SUNPO
  6
CONTINUOUS
 62
   250
100
AcDbLine
 10
2398.475681434999
 20
2585.343363733229
 30
0.0
 11
2417.785681434999
 21
2590.523363733228
 31
0.0
  0
LINE
  5
FCF
330
1F
100
AcDbEntity
  8
1-SUNPO
  6
CONTINUOUS
 62
   250
100
AcDbLine
 10
2398.475681434999
 20
2585.343363733229
 30
0.0
 11
2417.785681434999
 21
2580.173363733229
 31
0.0
  0
LINE
  5
FD0
330
1F
100
AcDbEntity
  8
1-SUNPO
  6
CONTINUOUS
 62
   250
100
AcDbLine
 10
4398.475681435001
 20
2585.343363733229
 30
0.0
 11
4379.155681434999
 21
2590.523363733228
 31
0.0
  0
LINE
  5
FD1
330
1F
100
AcDbEntity
  8
1-SUNPO
  6
CONTINUOUS
 62
   250
100
AcDbLine
 10
4398.475681435001
 20
2585.343363733229
 30
0.0
 11
4379.155681434999
 21
2580.173363733229
 31
0.0
  0
LINE
  5
FD2
330
1F
100
AcDbEntity
  8
1-SUNPO
  6
CONTINUOUS
 62
   250
100
AcDbLine
 10
1479.895681434999
 20
2585.343363733229
 30
0.0
 11
1879.895681435
 21
2585.343363733229
 31
0.0
  0
LINE
  5
FD3
330
1F
100
AcDbEntity
  8
1-SUNPO
  6
CONTINUOUS
 62
   250
100
AcDbLine
 10
1529.895681434999
 20
1825.343363733229
 30
0.0
 11
1829.895681434999
 21
1825.343363733229
 31
0.0
  0
LINE
  5
FD4
330
1F
100
AcDbEntity
  8
0-3C1
  6
CONTINUOUS
 62
   250
100
AcDbLine
 10
1529.895681434999
 20
2025.343363733229
 30
0.0
 11
1829.895681434999
 21
2025.343363733229
 31
0.0
  0
LINE
  5
FD5
330
1F
100
AcDbEntity
  8
0-3C1
  6
CONTINUOUS
 62
   250
100
AcDbLine
 10
1479.895681434999
 20
2385.343363733229
 30
0.0
 11
1529.895681434999
 21
2385.343363733229
 31
0.0
  0
LINE
  5
FD6
330
1F
100
AcDbEntity
  8
0-3C1
  6
CONTINUOUS
 62
   250
100
AcDbLine
 10
1879.895681435
 20
2385.343363733229
 30
0.0
 11
1829.895681434999
 21
2385.343363733229
 31
0.0
  0
LINE
  5
FD7
330
1F
100
AcDbEntity
  8
0-3C1
  6
CONTINUOUS
 62
   250
100
AcDbLine
 10
1546.785681434999
 20
2132.023363733229
 30
0.0
 11
1529.895681434999
 21
2385.343363733229
 31
0.0
  0
LINE
  5
FD8
330
1F
100
AcDbEntity
  8
0-3C1
  6
CONTINUOUS
 62
   250
100
AcDbLine
 10
1763.125681435
 20
2085.343363733229
 30
0.0
 11
1596.675681435
 21
2085.343363733229
 31
0.0
  0
LINE
  5
FD9
330
1F
100
AcDbEntity
  8
0-3C1
  6
CONTINUOUS
 62
   250
100
AcDbLine
 10
1813.015681435
 20
2132.023363733229
 30
0.0
 11
1829.895681434999
 21
2385.343363733229
 31
0.0
  0
LINE
  5
FDA
330
1F
100
AcDbEntity
  8
1-KIJUN
  6
CENTER2
 62
   250
100
AcDbLine
 10
1549.895681435
 20
2385.343363733229
 30
0.0
 11
1809.895681435
 21
2385.343363733229
 31
0.0
  0
LINE
  5
FDB
330
1F
100
AcDbEntity
  8
1-SUNPO
  6
CONTINUOUS
 62
   250
100
AcDbLine
 10
1634.335681435
 20
2385.343363733229
 30
0.0
 11
1634.335681435
 21
2025.343363733229
 31
0.0
  0
LINE
  5
FDC
330
1F
100
AcDbEntity
  8
0-3C1
  6
CONTINUOUS
 62
   250
100
AcDbLine
 10
4398.475681435001
 20
2385.343363733229
 30
0.0
 11
4398.475681435001
 21
2025.343363733229
 31
0.0
  0
LINE
  5
FDD
330
1F
100
AcDbEntity
  8
0-3C1
  6
CONTINUOUS
 62
   250
100
AcDbLine
 10
2398.475681434999
 20
2385.343363733229
 30
0.0
 11
2398.475681434999
 21
2025.343363733229
 31
0.0
  0
LINE
  5
FDE
330
1F
100
AcDbEntity
  8
0-3C1
  6
CONTINUOUS
 62
   250
100
AcDbLine
 10
2398.475681434999
 20
2025.343363733229
 30
0.0
 11
4398.475681435001
 21
2025.343363733229
 31
0.0
  0
LINE
  5
FDF
330
1F
100
AcDbEntity
  8
0-3C1
  6
CONTINUOUS
 62
   250
100
AcDbLine
 10
2398.475681434999
 20
2065.343363733229
 30
0.0
 11
4398.475681435001
 21
2065.343363733229
 31
0.0
  0
LINE
  5
FE0
330
1F
100
AcDbEntity
  8
0-3C1
  6
DASHED2
 62
   250
100
AcDbLine
 10
2398.475681434999
 20
2085.343363733229
 30
0.0
 11
4398.475681435001
 21
2085.343363733229
 31
0.0
  0
LINE
  5
FE1
330
1F
100
AcDbEntity
  8
0-3C1
  6
CONTINUOUS
 62
   250
100
AcDbLine
 10
1829.895681434999
 20
2025.343363733229
 30
0.0
 11
1869.895681434999
 21
2065.343363733229
 31
0.0
  0
LINE
  5
FE2
330
1F
100
AcDbEntity
  8
0-3C1
  6
CONTINUOUS
 62
   250
100
AcDbLine
 10
1869.895681434999
 20
2065.343363733229
 30
0.0
 11
1879.895681435
 21
2385.343363733229
 31
0.0
  0
LINE
  5
FE3
330
1F
100
AcDbEntity
  8
0-3C1
  6
CONTINUOUS
 62
   250
100
AcDbLine
 10
1489.895681434999
 20
2065.343363733229
 30
0.0
 11
1479.895681434999
 21
2385.343363733229
 31
0.0
  0
LINE
  5
FE4
330
1F
100
AcDbEntity
  8
0-3C1
  6
CONTINUOUS
 62
   250
100
AcDbLine
 10
1529.895681434999
 20
2025.343363733229
 30
0.0
 11
1489.895681434999
 21
2065.343363733229
 31
0.0
  0
ARC
  5
FE5
330
1F
100
AcDbEntity
  8
0-3C1
  6
CONTINUOUS
 62
   250
100
AcDbCircle
 10
1596.675681435
 20
2135.343363733229
 30
0.0
 40
50.0
100
AcDbArc
 50
183.8140410000004
 51
270.0
  0
ARC
  5
FE6
330
1F
100
AcDbEntity
  8
0-3C1
  6
CONTINUOUS
 62
   250
100
AcDbCircle
 10
1763.125681435
 20
2135.343363733229
 30
0.0
 40
50.0
100
AcDbArc
 50
270.0
 51
356.1859739999994
  0
ARC
  5
FE7
330
1F
100
AcDbEntity
  8
1-SUNPO
  6
CONTINUOUS
 62
   250
100
AcDbCircle
 10
1834.895681434998
 20
2025.343363733229
 30
0.0
 40
42.0
100
AcDbArc
 50
0.0
 51
49.82893399999943
  0
ARC
  5
FF3
330
1F
100
AcDbEntity
  8
1-SUNPO
  6
CONTINUOUS
 62
   250
100
AcDbCircle
 10
1861.985681434999
 20
2057.433363733229
 30
0.0
 40
4.0
100
AcDbArc
 50
180.0
 51
0.0
  0
ARC
  5
FF4
330
1F
100
AcDbEntity
  8
1-SUNPO
  6
CONTINUOUS
 62
   250
100
AcDbCircle
 10
1861.985681434999
 20
2057.433363733229
 30
0.0
 40
4.0
100
AcDbArc
 50
0.0
 51
180.0
  0
ARC
  5
FF5
330
1F
100
AcDbEntity
  8
1-SUNPO
  6
CONTINUOUS
 62
   250
100
AcDbCircle
 10
1876.895681435
 20
2025.343363733229
 30
0.0
 40
4.0
100
AcDbArc
 50
180.0
 51
0.0
  0
ARC
  5
FF6
330
1F
100
AcDbEntity
  8
1-SUNPO
  6
CONTINUOUS
 62
   250
100
AcDbCircle
 10
1876.895681435
 20
2025.343363733229
 30
0.0
 40
4.0
100
AcDbArc
 50
0.0
 51
180.0
  0
TEXT
  5
FF7
330
1F
100
AcDbEntity
  8
MOJI
 62
   250
100
AcDbText
 10
3348.475681435
 20
2595.343363733229
 30
0.0
 40
39.0
  1
2000
 41
0.8
100
AcDbText
1001
ACAD
1000
MTEXTBEGIN
1070
    73
1070
     1
1070
    44
1040
1.0
1070
    74
1070
     0
1000
MTEXTEND
1000
MTEXTBEGIN
1070
    73
1070
     1
1070
    44
1040
1.0
1070
    74
1070
     0
1000
MTEXTEND
  0
TEXT
  5
FF8
330
1F
100
AcDbEntity
  8
MOJI
 62
   250
100
AcDbText
 10
1624.335681435
 20
2030.343363733229
 30
0.0
 40
39.0
  1
60
 50
90.0
 41
0.8
100
AcDbText
1001
ACAD
1000
MTEXTBEGIN
1070
    73
1070
     1
1070
    44
1040
1.0
1070
    74
1070
     0
1000
MTEXTEND
1000
MTEXTBEGIN
1070
    73
1070
     1
1070
    44
1040
1.0
1070
    74
1070
     0
1000
MTEXTEND
  0
TEXT
  5
FF9
330
1F
100
AcDbEntity
  8
MOJI
 62
   250
100
AcDbText
 10
1624.335681435
 20
2197.843363733229
 30
0.0
 40
39.0
  1
300
 50
90.0
 41
0.8
100
AcDbText
1001
ACAD
1000
MTEXTBEGIN
1070
    73
1070
     1
1070
    44
1040
1.0
1070
    74
1070
     0
1000
MTEXTEND
1000
MTEXTBEGIN
1070
    73
1070
     1
1070
    44
1040
1.0
1070
    74
1070
     0
1000
MTEXTEND
  0
TEXT
  5
FFA
330
1F
100
AcDbEntity
  8
MOJI
 62
   250
100
AcDbText
 10
1642.395681435
 20
1835.343363733229
 30
0.0
 40
39.0
  1
300
 41
0.8
100
AcDbText
1001
ACAD
1000
MTEXTBEGIN
1070
    73
1070
     1
1070
    44
1040
1.0
1070
    74
1070
     0
1000
MTEXTEND
1000
MTEXTBEGIN
1070
    73
1070
     1
1070
    44
1040
1.0
1070
    74
1070
     0
1000
MTEXTEND
  0
TEXT
  5
FFB
330
1F
100
AcDbEntity
  8
MOJI
 62
   250
100
AcDbText
 10
1829.895681434999
 20
2595.343363733229
 30
0.0
 40
39.0
  1
50
 41
0.8
100
AcDbText
1001
ACAD
1000
MTEXTBEGIN
1070
    73
1070
     1
1070
    44
1040
1.0
1070
    74
1070
     0
1000
MTEXTEND
1000
MTEXTBEGIN
1070
    73
1070
     1
1070
    44
1040
1.0
1070
    74
1070
     0
1000
MTEXTEND
  0
TEXT
  5
FFC
330
1F
100
AcDbEntity
  8
MOJI
 62
   250
100
AcDbText
 10
1642.395681435
 20
2595.343363733229
 30
0.0
 40
39.0
  1
300
 41
0.8
100
AcDbText
1001
ACAD
1000
MTEXTBEGIN
1070
    73
1070
     1
1070
    44
1040
1.0
1070
    74
1070
     0
1000
MTEXTEND
1000
MTEXTBEGIN
1070
    73
1070
     1
1070
    44
1040
1.0
1070
    74
1070
     0
1000
MTEXTEND
  0
TEXT
  5
FFD
330
1F
100
AcDbEntity
  8
MOJI
 62
   250
100
AcDbText
 10
1479.895681434999
 20
2595.343363733229
 30
0.0
 40
39.0
  1
50
 41
0.8
100
AcDbText
1001
ACAD
1000
MTEXTBEGIN
1070
    73
1070
     1
1070
    44
1040
1.0
1070
    74
1070
     0
1000
MTEXTEND
1000
MTEXTBEGIN
1070
    73
1070
     1
1070
    44
1040
1.0
1070
    74
1070
     0
1000
MTEXTEND
  0
TEXT
  5
FFE
330
1F
100
AcDbEntity
  8
MOJI
 62
   250
100
AcDbText
 10
1709.475681434998
 20
2154.423363733229
 30
0.0
 40
39.0
  1
50R
 41
0.7
100
AcDbText
1001
ACAD
1000
MTEXTBEGIN
1070
    73
1070
     1
1070
    44
1040
1.0
1070
    74
1070
     0
1000
MTEXTEND
1000
MTEXTBEGIN
1070
    73
1070
     1
1070
    44
1040
1.0
1070
    74
1070
     0
1000
MTEXTEND
  0
TEXT
  5
FFF
330
1F
100
AcDbEntity
  8
MOJI
 62
   250
100
AcDbText
 10
1890.965681434999
 20
2028.593363733229
 30
0.0
 40
39.0
  1
45°
100
AcDbText
1001
ACAD
1000
MTEXTBEGIN
1070
    73
1070
     1
1070
    44
1040
1.0
1070
    74
1070
     0
1000
MTEXTEND
1000
MTEXTBEGIN
1070
    73
1070
     1
1070
    44
1040
1.0
1070
    74
1070
     0
1000
MTEXTEND
  0
TEXT
  5
1000
330
1F
100
AcDbEntity
  8
MOJI
100
AcDbText
 10
778.533429450792
 20
367.5274627661638
 30
0.0
 40
80.0
  1
長尺Ｕ形
  7
ADD
100
AcDbText
1001
ACAD
1000
MTEXTBEGIN
1070
    73
1070
     1
1070
    44
1040
1.0
1070
    74
1070
     0
1000
MTEXTEND
  0
TEXT
  5
1001
330
1F
100
AcDbEntity
  8
MOJI
100
AcDbText
 10
2550.183493816603
 20
354.5664316062466
 30
0.0
 40
80.0
  1
LDU300B
  7
ADD
100
AcDbText
1001
ACAD
1000
MTEXTBEGIN
1070
    73
1070
     1
1070
    44
1040
1.0
1070
    74
1070
     0
1000
MTEXTEND
  0
TEXT
  5
1002
330
1F
100
AcDbEntity
  8
MOJI
100
AcDbText
 10
3246.680311730542
 20
359.2274732162223
 30
0.0
 40
70.0
  1
１／２０
  7
ADD
100
AcDbText
1001
ACAD
1000
MTEXTBEGIN
1070
    73
1070
     1
1070
    44
1040
1.0
1070
    74
1070
     0
1000
MTEXTEND
  0
TEXT
  5
1003
330
1F
100
AcDbEntity
  8
MOJI
100
AcDbText
 10
381.8862574011546
 20
488.6918916770627
 30
0.0
 40
50.0
  1
製品名
  7
ADD
100
AcDbText
1001
ACAD
1000
MTEXTBEGIN
1070
    73
1070
     1
1070
    44
1040
1.0
1070
    74
1070
     0
1000
MTEXTEND
  0
TEXT
  5
1004
330
1F
100
AcDbEntity
  8
MOJI
100
AcDbText
 10
2376.290169028722
 20
494.4531736811823
 30
0.0
 40
50.0
  1
型式
  7
ADD
100
AcDbText
1001
ACAD
1000
MTEXTBEGIN
1070
    73
1070
     1
1070
    44
1040
1.0
1070
    74
1070
     0
1000
MTEXTEND
  0
TEXT
  5
1005
330
1F
100
AcDbEntity
  8
MOJI
100
AcDbText
 10
3177.510249231658
 20
488.6918916770627
 30
0.0
 40
50.0
  1
縮尺
  7
ADD
100
AcDbText
1001
ACAD
1000
MTEXTBEGIN
1070
    73
1070
     1
1070
    44
1040
1.0
1070
    74
1070
     0
1000
MTEXTEND
  0
TEXT
  5
1006
330
1F
100
AcDbEntity
  8
MOJI
100
AcDbText
 10
3730.870883051572
 20
352.2726133092145
 30
0.0
 40
100.0
  1
千葉県コンクリート製品協同組合
  7
ADD
100
AcDbText
1001
ACAD
1000
MTEXTBEGIN
1070
    73
1070
     1
1070
    44
1040
1.0
1070
    74
1070
     0
1000
MTEXTEND
  0
LINE
  5
1007
330
1F
100
AcDbEntity
  8
HOJO
100
AcDbLine
 10
360.0
 20
260.0
 30
0.0
 11
5580.0
 21
260.0
 31
0.0
  0
LINE
  5
1008
330
1F
100
AcDbEntity
  8
HOJO
100
AcDbLine
 10
5580.0
 20
260.0
 30
0.0
 11
5580.0
 21
3940.0
 31
0.0
  0
LINE
  5
1009
330
1F
100
AcDbEntity
  8
HOJO
100
AcDbLine
 10
5580.0
 20
3940.0
 30
0.0
 11
360.0
 21
3940.0
 31
0.0
  0
LINE
  5
100A
330
1F
100
AcDbEntity
  8
HOJO
100
AcDbLine
 10
360.0
 20
3940.0
 30
0.0
 11
360.0
 21
260.0
 31
0.0
  0
LINE
  5
100B
330
1F
100
AcDbEntity
  8
HOJO
100
AcDbLine
 10
0.0
 20
0.0
 30
0.0
 11
5940.0
 21
0.0
 31
0.0
  0
LINE
  5
100C
330
1F
100
AcDbEntity
  8
HOJO
100
AcDbLine
 10
5940.0
 20
0.0
 30
0.0
 11
5940.0
 21
4200.0
 31
0.0
  0
LINE
  5
100D
330
1F
100
AcDbEntity
  8
HOJO
100
AcDbLine
 10
5940.0
 20
4200.0
 30
0.0
 11
0.0
 21
4200.0
 31
0.0
  0
LINE
  5
100E
330
1F
100
AcDbEntity
  8
HOJO
100
AcDbLine
 10
0.0
 20
4200.0
 30
0.0
 11
0.0
 21
0.0
 31
0.0
  0
VIEWPORT
  5
72
330
1B
100
AcDbEntity
 67
     1
  8
0
100
AcDbViewport
 10
429.8380103383459
 20
277.0
 30
0.0
 40
948.9782706766918
 41
628.4520000000001
 68
     1
 69
     1
1001
ACAD
1000
MVIEW
1002
{
1070
    16
1010
0.0
1020
0.0
1030
0.0
1010
0.0
1020
0.0
1030
1.0
1040
0.0
1040
628.4520000000001
1040
429.8380103383459
1040
277.0
1040
50.0
1040
0.0
1040
0.0
1070
     0
1070
   100
1070
     1
1070
     1
1070
     0
1070
     0
1070
     0
1070
     0
1040
0.0
1040
0.0
1040
0.0
1040
10.0
1040
10.0
1040
10.0
1040
10.0
1070
     0
1002
{
1002
}
1002
}
  0
VIEWPORT
  5
74
330
1B
100
AcDbEntity
 67
     1
  8
VIEWPORT
100
AcDbViewport
 10
414.3779638919211
 20
277.3177265058034
 30
0.0
 40
840.0353682728887
 41
567.2285469943826
 68
     2
 69
     2
1001
ACAD
1000
MVIEW
1002
{
1070
    16
1010
0.0
1020
0.0
1030
0.0
1010
0.0
1020
0.0
1030
1.0
1040
0.0
1040
579.5583043546323
1040
424.4938908624541
1040
286.1973242720074
1040
50.0
1040
0.0
1040
0.0
1070
     0
1070
   100
1070
     1
1070
     1
1070
     0
1070
     0
1070
     0
1070
     0
1040
0.0
1040
0.0
1040
0.0
1040
10.0
1040
10.0
1040
10.0
1040
10.0
1070
     0
1002
{
1002
}
1002
}
  0
ENDSEC
  0
SECTION
  2
OBJECTS
  0
DICTIONARY
  5
C
330
0
100
AcDbDictionary
  3
ACAD_GROUP
350
D
  3
ACAD_LAYOUT
350
1A
  3
ACAD_MLINESTYLE
350
17
  3
ACAD_PLOTSETTINGS
350
19
  3
DWGPROPS
350
4C7
1001
ACAD
1000
TREAT_AS_HARD
1070
     0
  0
DICTIONARY
  5
F23
330
1F
100
AcDbDictionary
  3
ACAD_LAYOUTSELFREF
350
10F3
1001
ACAD
1000
TREAT_AS_HARD
1070
     1
  0
DICTIONARY
  5
F25
330
1B
100
AcDbDictionary
  3
ACAD_LAYOUTSELFREF
350
10F2
1001
ACAD
1000
TREAT_AS_HARD
1070
     1
  0
DICTIONARY
  5
D
102
{ACAD_REACTORS
330
C
102
}
330
C
100
AcDbDictionary
1001
ACAD
1000
TREAT_AS_HARD
1070
     0
  0
DICTIONARY
  5
1A
102
{ACAD_REACTORS
330
C
102
}
330
C
100
AcDbDictionary
1001
ACAD
1000
TREAT_AS_HARD
1070
     0
  0
DICTIONARY
  5
17
102
{ACAD_REACTORS
330
C
102
}
330
C
100
AcDbDictionary
  3
STANDARD
350
18
1001
ACAD
1000
TREAT_AS_HARD
1070
     0
  0
DICTIONARY
  5
19
102
{ACAD_REACTORS
330
C
102
}
330
C
100
AcDbDictionary
1001
ACAD
1000
TREAT_AS_HARD
1070
     0
  0
XRECORD
  5
4C7
102
{ACAD_REACTORS
330
C
102
}
330
C
100
AcDbXrecord
  1
DWGPROPS COOKIE
  2
印刷用テスト
  3
AutoCAD2000による建築設計
  4
鈴木 裕二
  6

  7

  8
U2
  9

300
=
301
=
302
=
303
=
304
=
305
=
306
=
307
=
308
=
309
=
 40
0.7653446875
 41
2451285.4846114
 42
2451333.689743032
  1

 90
        0
  0
XRECORD
  5
10F3
102
{ACAD_REACTORS
330
F23
102
}
330
F23
100
AcDbXrecord
340
1F
  0
XRECORD
  5
10F2
102
{ACAD_REACTORS
330
F25
102
}
330
F25
100
AcDbXrecord
340
1B
  0
MLINESTYLE
  5
18
102
{ACAD_REACTORS
330
17
102
}
330
17
100
AcDbMlineStyle
  2
STANDARD
 70
     0
  3

 62
   256
 51
90.0
 52
90.0
 71
     2
 49
0.5
 62
   256
  6
BYLAYER
 49
-0.5
 62
   256
  6
BYLAYER
  0
ENDSEC
  0
EOF
