  0
SECTION
  2
HEADER
  9
$ACADVER
  1
AC1012
  9
$DWGCODEPAGE
  3
dos932
  9
$INSBASE
 10
0.0
 20
0.0
 30
0.0
  9
$EXTMIN
 10
-0.1812605841350887
 20
-0.1281640493871237
 30
-0.0015258207003583
  9
$EXTMAX
 10
5940.181288244414
 20
4200.128183607161
 30
0.0000000349246037
  9
$LIMMIN
 10
0.0
 20
0.0
  9
$LIMMAX
 10
5940.0
 20
4200.0
  9
$ORTHOMODE
 70
     0
  9
$REGENMODE
 70
     1
  9
$FILLMODE
 70
     1
  9
$QTEXTMODE
 70
     0
  9
$MIRRTEXT
 70
     0
  9
$DRAGMODE
 70
     2
  9
$LTSCALE
 40
10.0
  9
$OSMODE
 70
  3071
  9
$ATTMODE
 70
     1
  9
$TEXTSIZE
 40
50.0
  9
$TRACEWID
 40
1.0
  9
$TEXTSTYLE
  7
ADD
  9
$CLAYER
  8
MOJI
  9
$CELTYPE
  6
BYLAYER
  9
$CECOLOR
 62
   256
  9
$CELTSCALE
 40
1.0
  9
$DELOBJ
 70
     1
  9
$DISPSILH
 70
     0
  9
$DIMSCALE
 40
20.0
  9
$DIMASZ
 40
2.5
  9
$DIMEXO
 40
1.0
  9
$DIMDLI
 40
7.0
  9
$DIMRND
 40
0.0
  9
$DIMDLE
 40
0.0
  9
$DIMEXE
 40
0.5
  9
$DIMTP
 40
0.0
  9
$DIMTM
 40
0.0
  9
$DIMTXT
 40
2.5
  9
$DIMCEN
 40
2.5
  9
$DIMTSZ
 40
0.0
  9
$DIMTOL
 70
     0
  9
$DIMLIM
 70
     0
  9
$DIMTIH
 70
     0
  9
$DIMTOH
 70
     0
  9
$DIMSE1
 70
     0
  9
$DIMSE2
 70
     0
  9
$DIMTAD
 70
     1
  9
$DIMZIN
 70
     8
  9
$DIMBLK
  1
OPEN
  9
$DIMASO
 70
     1
  9
$DIMSHO
 70
     1
  9
$DIMPOST
  1

  9
$DIMAPOST
  1

  9
$DIMALT
 70
     0
  9
$DIMALTD
 70
     3
  9
$DIMALTF
 40
0.03937007874016
  9
$DIMLFAC
 40
1.0
  9
$DIMTOFL
 70
     1
  9
$DIMTVP
 40
0.7
  9
$DIMTIX
 70
     1
  9
$DIMSOXD
 70
     0
  9
$DIMSAH
 70
     0
  9
$DIMBLK1
  1

  9
$DIMBLK2
  1

  9
$DIMSTYLE
  2
ADD
  9
$DIMCLRD
 70
   144
  9
$DIMCLRE
 70
   144
  9
$DIMCLRT
 70
     7
  9
$DIMTFAC
 40
1.0
  9
$DIMGAP
 40
0.625
  9
$DIMJUST
 70
     0
  9
$DIMSD1
 70
     0
  9
$DIMSD2
 70
     0
  9
$DIMTOLJ
 70
     2
  9
$DIMTZIN
 70
     8
  9
$DIMALTZ
 70
     0
  9
$DIMALTTZ
 70
     0
  9
$DIMFIT
 70
     5
  9
$DIMUPT
 70
     0
  9
$DIMUNIT
 70
     2
  9
$DIMDEC
 70
     1
  9
$DIMTDEC
 70
     1
  9
$DIMALTU
 70
     2
  9
$DIMALTTD
 70
     3
  9
$DIMTXSTY
  7
ADD
  9
$DIMAUNIT
 70
     0
  9
$LUNITS
 70
     2
  9
$LUPREC
 70
     4
  9
$SKETCHINC
 40
1.0
  9
$FILLETRAD
 40
10.0
  9
$AUNITS
 70
     0
  9
$AUPREC
 70
     1
  9
$MENU
  1
.
  9
$ELEVATION
 40
0.0
  9
$PELEVATION
 40
0.0
  9
$THICKNESS
 40
0.0
  9
$LIMCHECK
 70
     0
  9
$BLIPMODE
 70
     0
  9
$CHAMFERA
 40
10.0
  9
$CHAMFERB
 40
10.0
  9
$CHAMFERC
 40
20.0
  9
$CHAMFERD
 40
0.0
  9
$SKPOLY
 70
     0
  9
$TDCREATE
 40
2451801.142532870
  9
$TDUPDATE
 40
2452537.561661250
  9
$TDINDWG
 40
0.0853981366
  9
$TDUSRTIMER
 40
0.0853981366
  9
$USRTIMER
 70
     1
  9
$ANGBASE
 50
0.0
  9
$ANGDIR
 70
     0
  9
$PDMODE
 70
     0
  9
$PDSIZE
 40
0.0
  9
$PLINEWID
 40
0.0
  9
$COORDS
 70
     1
  9
$SPLFRAME
 70
     0
  9
$SPLINETYPE
 70
     6
  9
$SPLINESEGS
 70
     8
  9
$ATTDIA
 70
     0
  9
$ATTREQ
 70
     1
  9
$HANDLING
 70
 22529
  9
$HANDSEED
  5
12BF
  9
$SURFTAB1
 70
     6
  9
$SURFTAB2
 70
     6
  9
$SURFTYPE
 70
     6
  9
$SURFU
 70
     6
  9
$SURFV
 70
     6
  9
$UCSNAME
  2

  9
$UCSORG
 10
0.0
 20
0.0
 30
0.0
  9
$UCSXDIR
 10
1.0
 20
0.0
 30
0.0
  9
$UCSYDIR
 10
0.0
 20
1.0
 30
0.0
  9
$PUCSNAME
  2

  9
$PUCSORG
 10
0.0
 20
0.0
 30
0.0
  9
$PUCSXDIR
 10
1.0
 20
0.0
 30
0.0
  9
$PUCSYDIR
 10
0.0
 20
1.0
 30
0.0
  9
$USERI1
 70
     0
  9
$USERI2
 70
     0
  9
$USERI3
 70
     0
  9
$USERI4
 70
     0
  9
$USERI5
 70
     0
  9
$USERR1
 40
841.0
  9
$USERR2
 40
594.0
  9
$USERR3
 40
1.0
  9
$USERR4
 40
0.0
  9
$USERR5
 40
0.0
  9
$WORLDVIEW
 70
     1
  9
$SHADEDGE
 70
     3
  9
$SHADEDIF
 70
    70
  9
$TILEMODE
 70
     1
  9
$MAXACTVP
 70
    48
  9
$PINSBASE
 10
0.0
 20
0.0
 30
0.0
  9
$PLIMCHECK
 70
     0
  9
$PEXTMIN
 10
-5.662975978526674
 20
-6.331907780761866
 30
-0.0015258207003583
  9
$PEXTMAX
 10
834.4213426047982
 20
560.9663709967471
 30
0.0000000349246037
  9
$PLIMMIN
 10
-7.500000000000001
 20
-20.0
  9
$PLIMMAX
 10
833.5000000000002
 20
574.0000000000001
  9
$UNITMODE
 70
     0
  9
$VISRETAIN
 70
     1
  9
$PLINEGEN
 70
     0
  9
$PSLTSCALE
 70
     1
  9
$TREEDEPTH
 70
  3020
  9
$PICKSTYLE
 70
     1
  9
$CMLSTYLE
  2
STANDARD
  9
$CMLJUST
 70
     0
  9
$CMLSCALE
 40
20.0
  9
$SAVEIMAGES
 70
     1
  0
ENDSEC
  0
SECTION
  2
CLASSES
  0
CLASS
  1
ACDBDICTIONARYWDFLT
  2
AcDbDictionaryWithDefault
  3
AutoCAD 2000
 90
    32768
280
     0
281
     0
  0
CLASS
  1
ACDBPLACEHOLDER
  2
AcDbPlaceHolder
  3
AutoCAD 2000
 90
    32768
280
     0
281
     0
  0
CLASS
  1
LAYOUT
  2
AcDbLayout
  3
AutoCAD 2000
 90
    32768
280
     0
281
     0
  0
CLASS
  1
RTEXT
  2
RText
  3
RText|AutoCAD Express Tool|expresstools@autodesk.com
 90
    32768
280
     0
281
     1
  0
CLASS
  1
DICTIONARYVAR
  2
AcDbDictionaryVar
  3
AutoCAD 2000
 90
    32768
280
     0
281
     0
  0
CLASS
  1
LONG_TRANSACTION
  2
AcDbLongTransaction
  3
AutoCAD 2000
 90
    32768
280
     0
281
     0
  0
CLASS
  1
LWPOLYLINE
  2
AcDbPolyline
  3
AutoCAD 2000
 90
    32768
280
     0
281
     1
  0
CLASS
  1
HATCH
  2
AcDbHatch
  3
AutoCAD 2000
 90
    32768
280
     0
281
     1
  0
CLASS
  1
XRECORD
  2
AcDbXrecord
  3
AutoCAD 2000
 90
    32768
280
     0
281
     0
  0
CLASS
  1
LONG_TRANSACTION
  2
AcDbLongTransaction
  3
AutoCAD 2000
 90
    32768
280
     0
281
     0
  0
CLASS
  1
LWPOLYLINE
  2
AcDbPolyline
  3
AutoCAD 2000
 90
    32768
280
     0
281
     1
  0
CLASS
  1
HATCH
  2
AcDbHatch
  3
AutoCAD 2000
 90
    32768
280
     0
281
     1
  0
CLASS
  1
XRECORD
  2
AcDbXrecord
  3
AutoCAD 2000
 90
    32768
280
     0
281
     0
  0
CLASS
  1
LONG_TRANSACTION
  2
AcDbLongTransaction
  3
AutoCAD 2000
 90
    32768
280
     0
281
     0
  0
CLASS
  1
LWPOLYLINE
  2
AcDbPolyline
  3
AutoCAD 2000
 90
    32768
280
     0
281
     1
  0
CLASS
  1
HATCH
  2
AcDbHatch
  3
AutoCAD 2000
 90
    32768
280
     0
281
     1
  0
CLASS
  1
XRECORD
  2
AcDbXrecord
  3
AutoCAD 2000
 90
    32768
280
     0
281
     0
  0
CLASS
  1
LONG_TRANSACTION
  2
AcDbLongTransaction
  3
AutoCAD 2000
 90
    32768
280
     0
281
     0
  0
CLASS
  1
LWPOLYLINE
  2
AcDbPolyline
  3
AutoCAD 2000
 90
    32768
280
     0
281
     1
  0
CLASS
  1
HATCH
  2
AcDbHatch
  3
AutoCAD 2000
 90
    32768
280
     0
281
     1
  0
CLASS
  1
XRECORD
  2
AcDbXrecord
  3
AutoCAD 2000
 90
    32768
280
     0
281
     0
  0
ENDSEC
  0
SECTION
  2
TABLES
  0
TABLE
  2
VPORT
  5
8
330
0
100
AcDbSymbolTable
 70
     3
  0
VPORT
  5
129D
330
8
100
AcDbSymbolTableRecord
100
AcDbViewportTableRecord
  2
*ACTIVE
 70
     0
 10
0.0
 20
0.0
 11
1.0
 21
1.0
 12
2970.000013830139
 22
2100.000009778887
 13
0.0
 23
0.0
 14
10.0
 24
10.0
 15
10.0
 25
10.0
 16
0.0
 26
0.0
 36
1.0
 17
0.0
 27
0.0
 37
0.0
 40
4233.680138221454
 41
1.563081009296148
 42
50.0
 43
0.0
 44
0.0
 50
0.0
 51
0.0
 71
     0
 72
   100
 73
     1
 74
     1
 75
     0
 76
     0
 77
     0
 78
     0
  0
ENDTAB
  0
TABLE
  2
LTYPE
  5
5
330
0
100
AcDbSymbolTable
 70
    10
  0
LTYPE
  5
14
330
5
100
AcDbSymbolTableRecord
100
AcDbLinetypeTableRecord
  2
BYBLOCK
 70
     0
  3

 72
    65
 73
     0
 40
0.0
  0
LTYPE
  5
15
330
5
100
AcDbSymbolTableRecord
100
AcDbLinetypeTableRecord
  2
BYLAYER
 70
     0
  3

 72
    65
 73
     0
 40
0.0
  0
LTYPE
  5
16
330
5
100
AcDbSymbolTableRecord
100
AcDbLinetypeTableRecord
  2
CONTINUOUS
 70
     0
  3
Solid line
 72
    65
 73
     0
 40
0.0
  0
LTYPE
  5
555
330
5
100
AcDbSymbolTableRecord
100
AcDbLinetypeTableRecord
  2
CENTER
 70
     0
  3
Center ____ _ ____ _ ____ _ ____ _ ____ _ ____
 72
    65
 73
     4
 40
50.8
 49
31.75
 74
     0
 49
-6.349999999999999
 74
     0
 49
6.349999999999999
 74
     0
 49
-6.349999999999999
 74
     0
  0
LTYPE
  5
556
330
5
100
AcDbSymbolTableRecord
100
AcDbLinetypeTableRecord
  2
HIDDEN
 70
     0
  3
Hidden __ __ __ __ __ __ __ __ __ __ __ __ __ _
 72
    65
 73
     2
 40
9.524999999999998
 49
6.349999999999999
 74
     0
 49
-3.174999999999999
 74
     0
  0
LTYPE
  5
557
330
5
100
AcDbSymbolTableRecord
100
AcDbLinetypeTableRecord
  2
HIDDEN2
 70
     0
  3
Hidden (.5x) _ _ _ _ _ _ _ _ _ _ _ _ _ _ _ _ _
 72
    65
 73
     2
 40
4.762499999999999
 49
3.174999999999999
 74
     0
 49
-1.587499999999999
 74
     0
  0
LTYPE
  5
558
330
5
100
AcDbSymbolTableRecord
100
AcDbLinetypeTableRecord
  2
PHANTOM
 70
     0
  3
Phantom ______  __  __  ______  __  __  ______
 72
    65
 73
     6
 40
63.5
 49
31.75
 74
     0
 49
-6.349999999999999
 74
     0
 49
6.349999999999999
 74
     0
 49
-6.349999999999999
 74
     0
 49
6.349999999999999
 74
     0
 49
-6.349999999999999
 74
     0
  0
LTYPE
  5
E7F
330
5
100
AcDbSymbolTableRecord
100
AcDbLinetypeTableRecord
  2
DOT
 70
     0
  3
--  --  --  --  --  --  --  --     
 72
    65
 73
     2
 40
10.0
 49
4.0
 74
     0
 49
-6.0
 74
     0
  0
LTYPE
  5
E80
330
5
100
AcDbSymbolTableRecord
100
AcDbLinetypeTableRecord
  2
DASHED
 70
     0
  3
----    ----    ----    ----    
 72
    65
 73
     2
 40
10.0
 49
6.0
 74
     0
 49
-4.0
 74
     0
  0
LTYPE
  5
E81
330
5
100
AcDbSymbolTableRecord
100
AcDbLinetypeTableRecord
  2
DASHED2
 70
     0
  3
------  ------  ------  ------ 
 72
    65
 73
     2
 40
15.0
 49
10.0
 74
     0
 49
-5.0
 74
     0
  0
LTYPE
  5
E82
330
5
100
AcDbSymbolTableRecord
100
AcDbLinetypeTableRecord
  2
CENTER2
 70
     0
  3
----------  --  ----------  --  
 72
    65
 73
     4
 40
18.0
 49
12.0
 74
     0
 49
-2.0
 74
     0
 49
2.0
 74
     0
 49
-2.0
 74
     0
  0
LTYPE
  5
E83
330
5
100
AcDbSymbolTableRecord
100
AcDbLinetypeTableRecord
  2
PHANTOM2
 70
     0
  3
--------  -  -  --------  -  - 
 72
    65
 73
     6
 40
16.0
 49
6.0
 74
     0
 49
-2.0
 74
     0
 49
2.0
 74
     0
 49
-2.0
 74
     0
 49
2.0
 74
     0
 49
-2.0
 74
     0
  0
ENDTAB
  0
TABLE
  2
LAYER
  5
2
330
0
100
AcDbSymbolTable
 70
    27
  0
LAYER
  5
10
330
2
100
AcDbSymbolTableRecord
100
AcDbLayerTableRecord
  2
0
 70
     0
 62
     7
  6
CONTINUOUS
  0
LAYER
  5
75
330
2
100
AcDbSymbolTableRecord
100
AcDbLayerTableRecord
  2
VIEWPORT
 70
     0
 62
     1
  6
CONTINUOUS
  0
LAYER
  5
504
330
2
100
AcDbSymbolTableRecord
100
AcDbLayerTableRecord
  2
DEFPOINTS
 70
     0
 62
     7
  6
CONTINUOUS
  0
LAYER
  5
505
330
2
100
AcDbSymbolTableRecord
100
AcDbLayerTableRecord
  2
1C1
 70
     0
 62
   254
  6
CONTINUOUS
  0
LAYER
  5
506
330
2
100
AcDbSymbolTableRecord
100
AcDbLayerTableRecord
  2
1C2
 70
     0
 62
   254
  6
CONTINUOUS
  0
LAYER
  5
507
330
2
100
AcDbSymbolTableRecord
100
AcDbLayerTableRecord
  2
2C1
 70
     0
 62
   144
  6
CONTINUOUS
  0
LAYER
  5
508
330
2
100
AcDbSymbolTableRecord
100
AcDbLayerTableRecord
  2
2C2
 70
     0
 62
   144
  6
CONTINUOUS
  0
LAYER
  5
509
330
2
100
AcDbSymbolTableRecord
100
AcDbLayerTableRecord
  2
2H1
 70
     0
 62
   144
  6
HIDDEN
  0
LAYER
  5
50A
330
2
100
AcDbSymbolTableRecord
100
AcDbLayerTableRecord
  2
2H2
 70
     0
 62
   144
  6
HIDDEN2
  0
LAYER
  5
50B
330
2
100
AcDbSymbolTableRecord
100
AcDbLayerTableRecord
  2
2P1
 70
     0
 62
   144
  6
PHANTOM
  0
LAYER
  5
50C
330
2
100
AcDbSymbolTableRecord
100
AcDbLayerTableRecord
  2
3C1
 70
     0
 62
     7
  6
CONTINUOUS
  0
LAYER
  5
50D
330
2
100
AcDbSymbolTableRecord
100
AcDbLayerTableRecord
  2
3C2
 70
     0
 62
     7
  6
CONTINUOUS
  0
LAYER
  5
50E
330
2
100
AcDbSymbolTableRecord
100
AcDbLayerTableRecord
  2
3C3
 70
     0
 62
     7
  6
CONTINUOUS
  0
LAYER
  5
50F
330
2
100
AcDbSymbolTableRecord
100
AcDbLayerTableRecord
  2
4H1
 70
     0
 62
     6
  6
HIDDEN
  0
LAYER
  5
510
330
2
100
AcDbSymbolTableRecord
100
AcDbLayerTableRecord
  2
4H2
 70
     0
 62
     6
  6
HIDDEN2
  0
LAYER
  5
511
330
2
100
AcDbSymbolTableRecord
100
AcDbLayerTableRecord
  2
5C1
 70
     0
 62
    55
  6
CONTINUOUS
  0
LAYER
  5
512
330
2
100
AcDbSymbolTableRecord
100
AcDbLayerTableRecord
  2
5C2
 70
     0
 62
    55
  6
CONTINUOUS
  0
LAYER
  5
513
330
2
100
AcDbSymbolTableRecord
100
AcDbLayerTableRecord
  2
8C1
 70
     0
 62
    92
  6
CONTINUOUS
  0
LAYER
  5
514
330
2
100
AcDbSymbolTableRecord
100
AcDbLayerTableRecord
  2
HOJO
 70
     0
 62
     5
  6
CONTINUOUS
  0
LAYER
  5
515
330
2
100
AcDbSymbolTableRecord
100
AcDbLayerTableRecord
  2
KIJUN
 70
     0
 62
     1
  6
CENTER
  0
LAYER
  5
516
330
2
100
AcDbSymbolTableRecord
100
AcDbLayerTableRecord
  2
MOJI
 70
     0
 62
     7
  6
CONTINUOUS
  0
LAYER
  5
517
330
2
100
AcDbSymbolTableRecord
100
AcDbLayerTableRecord
  2
SUNPO
 70
     0
 62
   144
  6
CONTINUOUS
  0
LAYER
  5
E84
330
2
100
AcDbSymbolTableRecord
100
AcDbLayerTableRecord
  2
0-3C1
 70
     0
 62
     7
  6
CONTINUOUS
  0
LAYER
  5
E85
330
2
100
AcDbSymbolTableRecord
100
AcDbLayerTableRecord
  2
1-HOJO
 70
     0
 62
     7
  6
CONTINUOUS
  0
LAYER
  5
E86
330
2
100
AcDbSymbolTableRecord
100
AcDbLayerTableRecord
  2
1-KIJUN
 70
     0
 62
     7
  6
CONTINUOUS
  0
LAYER
  5
E87
330
2
100
AcDbSymbolTableRecord
100
AcDbLayerTableRecord
  2
1-SUNPO
 70
     0
 62
     7
  6
CONTINUOUS
  0
LAYER
  5
E88
330
2
100
AcDbSymbolTableRecord
100
AcDbLayerTableRecord
  2
ADD_LINE
 70
     0
 62
    -7
  6
CONTINUOUS
  0
ENDTAB
  0
TABLE
  2
STYLE
  5
3
330
0
100
AcDbSymbolTable
 70
     9
  0
STYLE
  5
11
330
3
100
AcDbSymbolTableRecord
100
AcDbTextStyleTableRecord
  2
STANDARD
 70
     0
 40
0.0
 41
1.0
 50
0.0
 71
     0
 42
2.5
  3
txt
  4

  0
STYLE
  5
2C
330
3
100
AcDbSymbolTableRecord
100
AcDbTextStyleTableRecord
  2

 70
     1
 40
0.0
 41
1.0
 50
0.0
 71
     0
 42
2.5
  3
ltypeshp.shx
  4

  0
STYLE
  5
18E
330
3
100
AcDbSymbolTableRecord
100
AcDbTextStyleTableRecord
  2
ADD
 70
     0
 40
0.0
 41
1.0
 50
0.0
 71
     0
 42
50.0
  3
romans.shx
  4
bigfont.shx
  0
STYLE
  5
191
330
3
100
AcDbSymbolTableRecord
100
AcDbTextStyleTableRecord
  2
MSG
 70
     0
 40
0.0
 41
1.0
 50
0.0
 71
     0
 42
2.5
  3
MS Gothic.ttf
  4

1001
ACAD
1000
MS Gothic
1071
    32817
  0
STYLE
  5
5C8
330
3
100
AcDbSymbolTableRecord
100
AcDbTextStyleTableRecord
  2
STANDARD15
 70
     0
 40
0.0
 41
1.0
 50
15.0
 71
     0
 42
2.5
  3
ROMANS
  4
bigfont
  0
STYLE
  5
5C9
330
3
100
AcDbSymbolTableRecord
100
AcDbTextStyleTableRecord
  2
ROMANS15
 70
     0
 40
0.0
 41
1.0
 50
15.0
 71
     0
 42
2.5
  3
romans
  4

  0
STYLE
  5
E89
330
3
100
AcDbSymbolTableRecord
100
AcDbTextStyleTableRecord
  2
TATEGAKI
 70
     4
 40
0.0
 41
1.0
 50
0.0
 71
     0
 42
0.0
  3
txt.shx
  4
extfont.shx
  0
STYLE
  5
E8A
330
3
100
AcDbSymbolTableRecord
100
AcDbTextStyleTableRecord
  2
MT
 70
     0
 40
0.0
 41
1.0
 50
0.0
 71
     0
 42
0.0
  3
MS Gothic
  4

  0
STYLE
  5
E8B
330
3
100
AcDbSymbolTableRecord
100
AcDbTextStyleTableRecord
  2
TMT
 70
     4
 40
0.0
 41
1.0
 50
0.0
 71
     0
 42
0.0
  3
@MS Gothic
  4

  0
ENDTAB
  0
TABLE
  2
VIEW
  5
6
330
0
100
AcDbSymbolTable
 70
     1
  0
VIEW
  5
54D
330
6
100
AcDbSymbolTableRecord
100
AcDbViewTableRecord
  2
ALL
 70
     0
 40
594.0
 10
420.5
 20
297.0
 41
865.125
 11
0.0
 21
0.0
 31
1.0
 12
0.0
 22
0.0
 32
0.0
 42
50.0
 43
0.0
 44
0.0
 50
0.0
 71
     0
  0
ENDTAB
  0
TABLE
  2
UCS
  5
7
330
0
100
AcDbSymbolTable
 70
     0
  0
ENDTAB
  0
TABLE
  2
APPID
  5
9
330
0
100
AcDbSymbolTable
 70
     4
  0
APPID
  5
12
330
9
100
AcDbSymbolTableRecord
100
AcDbRegAppTableRecord
  2
ACAD
 70
     0
  0
APPID
  5
5CB
330
9
100
AcDbSymbolTableRecord
100
AcDbRegAppTableRecord
  2
ARAIGUMI_YOHEKI
 70
     0
  0
APPID
  5
5CC
330
9
100
AcDbSymbolTableRecord
100
AcDbRegAppTableRecord
  2
CONTENTTABDATA
 70
     0
  0
APPID
  5
5CD
330
9
100
AcDbSymbolTableRecord
100
AcDbRegAppTableRecord
  2
CONTENTCURRENTTAB
 70
     0
  0
ENDTAB
  0
TABLE
  2
DIMSTYLE
  5
A
330
0
100
AcDbSymbolTable
 70
    10
  0
DIMSTYLE
105
27
330
A
100
AcDbSymbolTableRecord
100
AcDbDimStyleTableRecord
  2
ISO-25
 70
     0
  3

  4

  5

  6

  7

 40
1.0
 41
2.5
 42
0.625
 43
3.75
 44
1.25
 45
0.0
 46
0.0
 47
0.0
 48
0.0
140
2.5
141
2.5
142
0.0
143
0.03937007874016
144
1.0
145
0.0
146
1.0
147
0.625
 71
     0
 72
     0
 73
     0
 74
     0
 75
     0
 76
     0
 77
     1
 78
     8
170
     0
171
     3
172
     1
173
     0
174
     0
175
     0
176
     0
177
     0
178
     0
270
     2
271
     2
272
     2
273
     2
274
     3
340
11
275
     0
280
     0
281
     0
282
     0
283
     0
284
     8
285
     0
286
     0
287
     3
288
     0
  0
DIMSTYLE
105
197
330
A
100
AcDbSymbolTableRecord
100
AcDbDimStyleTableRecord
  2
ADD
 70
     0
  3

  4

  5

  6

  7

 40
1.0
 41
2.5
 42
1.0
 43
7.0
 44
0.5
 45
0.0
 46
0.0
 47
0.0
 48
0.0
140
2.5
141
2.5
142
0.0
143
0.03937007874016
144
1.0
145
0.7
146
1.0
147
0.625
 71
     0
 72
     0
 73
     0
 74
     0
 75
     0
 76
     0
 77
     1
 78
     8
170
     0
171
     3
172
     1
173
     0
174
     1
175
     0
176
   144
177
   144
178
     7
270
     2
271
     1
272
     1
273
     2
274
     3
340
18E
275
     0
280
     0
281
     0
282
     0
283
     2
284
     8
285
     0
286
     0
287
     5
288
     0
  0
DIMSTYLE
105
3E6
330
A
100
AcDbSymbolTableRecord
100
AcDbDimStyleTableRecord
  2
ADD$2
 70
     0
  3

  4

  5

  6

  7

 40
1.0
 41
2.5
 42
1.0
 43
7.0
 44
0.5
 45
0.0
 46
0.0
 47
0.0
 48
0.0
140
2.5
141
2.5
142
0.0
143
0.03937007874016
144
1.0
145
0.7
146
1.0
147
0.625
 71
     0
 72
     0
 73
     0
 74
     0
 75
     0
 76
     0
 77
     1
 78
     8
170
     0
171
     3
172
     1
173
     0
174
     1
175
     0
176
   144
177
   144
178
     7
270
     2
271
     1
272
     1
273
     2
274
     3
340
18E
275
     0
280
     0
281
     0
282
     0
283
     2
284
     8
285
     0
286
     0
287
     5
288
     0
  0
DIMSTYLE
105
3E7
330
A
100
AcDbSymbolTableRecord
100
AcDbDimStyleTableRecord
  2
ADD$4
 70
     0
  3

  4

  5

  6

  7

 40
1.0
 41
2.5
 42
1.0
 43
7.0
 44
0.5
 45
0.0
 46
0.0
 47
0.0
 48
0.0
140
2.5
141
2.5
142
0.0
143
0.03937007874016
144
1.0
145
0.0
146
1.0
147
0.625
 71
     0
 72
     0
 73
     0
 74
     0
 75
     0
 76
     0
 77
     1
 78
     8
170
     0
171
     3
172
     1
173
     0
174
     1
175
     0
176
   144
177
   144
178
     7
270
     2
271
     1
272
     1
273
     2
274
     3
340
18E
275
     0
280
     0
281
     0
282
     0
283
     2
284
     8
285
     0
286
     0
287
     5
288
     0
  0
DIMSTYLE
105
3E8
330
A
100
AcDbSymbolTableRecord
100
AcDbDimStyleTableRecord
  2
ADD$3
 70
     0
  3

  4

  5

  6

  7

 40
1.0
 41
2.5
 42
1.0
 43
7.0
 44
0.5
 45
0.0
 46
0.0
 47
0.0
 48
0.0
140
2.5
141
2.5
142
0.0
143
0.03937007874016
144
1.0
145
0.0
146
1.0
147
0.625
 71
     0
 72
     0
 73
     0
 74
     0
 75
     0
 76
     0
 77
     1
 78
     8
170
     0
171
     3
172
     1
173
     0
174
     1
175
     0
176
   144
177
   144
178
     7
270
     2
271
     1
272
     1
273
     2
274
     3
340
18E
275
     0
280
     0
281
     0
282
     0
283
     2
284
     8
285
     0
286
     0
287
     5
288
     0
  0
DIMSTYLE
105
3E9
330
A
100
AcDbSymbolTableRecord
100
AcDbDimStyleTableRecord
  2
ADD$6
 70
     0
  3

  4

  5

  6

  7

 40
1.0
 41
2.5
 42
1.0
 43
7.0
 44
0.5
 45
0.0
 46
0.0
 47
0.0
 48
0.0
140
2.5
141
2.5
142
0.0
143
0.03937007874016
144
1.0
145
0.0
146
1.0
147
0.625
 71
     0
 72
     0
 73
     0
 74
     0
 75
     0
 76
     0
 77
     1
 78
     8
170
     0
171
     3
172
     1
173
     0
174
     1
175
     0
176
   144
177
   144
178
     7
270
     2
271
     1
272
     1
273
     2
274
     3
340
18E
275
     0
280
     0
281
     0
282
     0
283
     2
284
     8
285
     0
286
     0
287
     5
288
     0
  0
DIMSTYLE
105
3EA
330
A
100
AcDbSymbolTableRecord
100
AcDbDimStyleTableRecord
  2
ADD$7
 70
     0
  3

  4

  5

  6

  7

 40
1.0
 41
2.5
 42
1.0
 43
7.0
 44
0.5
 45
0.0
 46
0.0
 47
0.0
 48
0.0
140
2.5
141
2.5
142
0.0
143
0.03937007874016
144
1.0
145
0.0
146
1.0
147
0.625
 71
     0
 72
     0
 73
     0
 74
     0
 75
     0
 76
     0
 77
     0
 78
     8
170
     0
171
     3
172
     1
173
     0
174
     1
175
     0
176
   144
177
   144
178
     7
270
     2
271
     1
272
     1
273
     2
274
     3
340
18E
275
     0
280
     0
281
     0
282
     0
283
     2
284
     8
285
     0
286
     0
287
     5
288
     0
  0
DIMSTYLE
105
518
330
A
100
AcDbSymbolTableRecord
100
AcDbDimStyleTableRecord
  2
STANDARD
 70
     0
  3

  4

  5

  6

  7

 40
1.0
 41
0.18
 42
0.0625
 43
0.38
 44
0.18
 45
0.0
 46
0.0
 47
0.0
 48
0.0
140
0.18
141
0.09
142
0.0
143
25.4
144
1.0
145
0.0
146
1.0
147
0.09
 71
     0
 72
     0
 73
     1
 74
     1
 75
     0
 76
     0
 77
     0
 78
     0
170
     0
171
     2
172
     0
173
     0
174
     0
175
     0
176
     0
177
     0
178
     0
270
     2
271
     4
272
     4
273
     2
274
     2
340
11
275
     0
280
     0
281
     0
282
     0
283
     1
284
     0
285
     0
286
     0
287
     3
288
     0
  0
DIMSTYLE
105
550
330
A
100
AcDbSymbolTableRecord
100
AcDbDimStyleTableRecord
  2
ADD$0
 70
     0
  3

  4

  5

  6

  7

 40
1.0
 41
2.5
 42
1.0
 43
7.0
 44
0.5
 45
0.0
 46
0.0
 47
0.0
 48
0.0
140
2.5
141
2.5
142
0.0
143
0.03937007874016
144
1.0
145
0.7
146
1.0
147
0.625
 71
     0
 72
     0
 73
     0
 74
     0
 75
     0
 76
     0
 77
     1
 78
     8
170
     0
171
     3
172
     1
173
     0
174
     1
175
     0
176
   144
177
   144
178
     7
270
     2
271
     1
272
     1
273
     2
274
     3
340
18E
275
     0
280
     0
281
     0
282
     0
283
     2
284
     8
285
     0
286
     0
287
     5
288
     0
  0
DIMSTYLE
105
59B
330
A
100
AcDbSymbolTableRecord
100
AcDbDimStyleTableRecord
  2
ADD_M
 70
     0
  3

  4

  5

  6

  7

 40
1.0
 41
2.5
 42
1.0
 43
7.0
 44
0.5
 45
0.0
 46
0.0
 47
0.0
 48
0.0
140
2.5
141
2.5
142
0.0
143
0.03937007874016
144
1.0
145
0.7
146
1.0
147
0.625
 71
     0
 72
     0
 73
     0
 74
     0
 75
     0
 76
     0
 77
     1
 78
     8
170
     0
171
     3
172
     1
173
     0
174
     1
175
     0
176
   144
177
   144
178
     7
270
     2
271
     1
272
     1
273
     2
274
     3
340
18E
275
     0
280
     0
281
     0
282
     0
283
     2
284
     8
285
     0
286
     0
287
     5
288
     0
  0
ENDTAB
  0
TABLE
  2
BLOCK_RECORD
  5
1
330
0
100
AcDbSymbolTable
 70
    12
  0
BLOCK_RECORD
  5
1F
102
{ACAD_XDICTIONARY
360
F7B
102
}
330
1
100
AcDbSymbolTableRecord
100
AcDbBlockTableRecord
  2
*MODEL_SPACE
  0
BLOCK_RECORD
  5
1B
102
{ACAD_XDICTIONARY
360
F7D
102
}
330
1
100
AcDbSymbolTableRecord
100
AcDbBlockTableRecord
  2
*PAPER_SPACE
  0
BLOCK_RECORD
  5
192
330
1
100
AcDbSymbolTableRecord
100
AcDbBlockTableRecord
  2
_DOT
  0
BLOCK_RECORD
  5
5CE
330
1
100
AcDbSymbolTableRecord
100
AcDbBlockTableRecord
  2
A4
  0
BLOCK_RECORD
  5
636
330
1
100
AcDbSymbolTableRecord
100
AcDbBlockTableRecord
  2
_OPEN90
  0
BLOCK_RECORD
  5
63C
330
1
100
AcDbSymbolTableRecord
100
AcDbBlockTableRecord
  2
_OPEN30
  0
BLOCK_RECORD
  5
E79
330
1
100
AcDbSymbolTableRecord
100
AcDbBlockTableRecord
  2
REVDATE
  0
BLOCK_RECORD
  5
E8C
330
1
100
AcDbSymbolTableRecord
100
AcDbBlockTableRecord
  2
LDU300C
  0
BLOCK_RECORD
  5
F2D
330
1
100
AcDbSymbolTableRecord
100
AcDbBlockTableRecord
  2
LDU360B
  0
BLOCK_RECORD
  5
1007
330
1
100
AcDbSymbolTableRecord
100
AcDbBlockTableRecord
  2
LDU450
  0
BLOCK_RECORD
  5
11C8
330
1
100
AcDbSymbolTableRecord
100
AcDbBlockTableRecord
  2
*D8
  0
BLOCK_RECORD
  5
11F3
330
1
100
AcDbSymbolTableRecord
100
AcDbBlockTableRecord
  2
_OPEN
  0
BLOCK_RECORD
  5
11F9
330
1
100
AcDbSymbolTableRecord
100
AcDbBlockTableRecord
  2
_CLOSED
  0
BLOCK_RECORD
  5
1201
330
1
100
AcDbSymbolTableRecord
100
AcDbBlockTableRecord
  2
*D11
  0
ENDTAB
  0
ENDSEC
  0
SECTION
  2
BLOCKS
  0
BLOCK
  5
20
330
1F
100
AcDbEntity
  8
0
100
AcDbBlockBegin
  2
*MODEL_SPACE
 70
     0
 10
0.0
 20
0.0
 30
0.0
  3
*MODEL_SPACE
  1

  0
ENDBLK
  5
21
330
1F
100
AcDbEntity
  8
0
100
AcDbBlockEnd
  0
BLOCK
  5
1C
330
1B
100
AcDbEntity
 67
     1
  8
0
100
AcDbBlockBegin
  2
*PAPER_SPACE
 70
     0
 10
0.0
 20
0.0
 30
0.0
  3
*PAPER_SPACE
  1

  0
ENDBLK
  5
1D
330
1B
100
AcDbEntity
 67
     1
  8
0
100
AcDbBlockEnd
  0
BLOCK
  5
195
330
192
100
AcDbEntity
  8
0
100
AcDbBlockBegin
  2
_DOT
 70
     0
 10
0.0
 20
0.0
 30
0.0
  3
_DOT
  1

  0
POLYLINE
  5
193
330
192
100
AcDbEntity
  8
0
 62
     0
100
AcDb2dPolyline
 66
     1
 10
0.0
 20
0.0
 30
0.0
 70
     1
 40
0.5
 41
0.5
  0
VERTEX
  5
12A0
330
193
100
AcDbEntity
  8
0
 62
     0
100
AcDbVertex
100
AcDb2dVertex
 10
-0.25
 20
0.0
 30
0.0
 42
1.0
  0
VERTEX
  5
12A1
330
193
100
AcDbEntity
  8
0
 62
     0
100
AcDbVertex
100
AcDb2dVertex
 10
0.25
 20
0.0
 30
0.0
 42
1.0
  0
SEQEND
  5
12A2
330
193
100
AcDbEntity
  8
0
 62
     0
  0
LINE
  5
194
330
192
100
AcDbEntity
  8
0
 62
     0
100
AcDbLine
 10
-0.5
 20
0.0
 30
0.0
 11
-1.0
 21
0.0
 31
0.0
  0
ENDBLK
  5
196
330
192
100
AcDbEntity
  8
0
100
AcDbBlockEnd
  0
BLOCK
  5
5D1
330
5CE
100
AcDbEntity
  8
0
100
AcDbBlockBegin
  2
A4
 70
     0
 10
0.0
 20
0.0
 30
0.0
  3
A4
  1

  0
POLYLINE
  5
5CF
330
5CE
100
AcDbEntity
  8
HOJO
100
AcDb2dPolyline
 66
     1
 10
0.0
 20
0.0
 30
0.0
 70
     1
  0
VERTEX
  5
12A3
330
5CF
100
AcDbEntity
  8
HOJO
100
AcDbVertex
100
AcDb2dVertex
 10
0.0
 20
0.0
 30
0.0
  0
VERTEX
  5
12A4
330
5CF
100
AcDbEntity
  8
HOJO
100
AcDbVertex
100
AcDb2dVertex
 10
297.0
 20
0.0
 30
0.0
  0
VERTEX
  5
12A5
330
5CF
100
AcDbEntity
  8
HOJO
100
AcDbVertex
100
AcDb2dVertex
 10
297.0
 20
210.0
 30
0.0
  0
VERTEX
  5
12A6
330
5CF
100
AcDbEntity
  8
HOJO
100
AcDbVertex
100
AcDb2dVertex
 10
0.0
 20
210.0
 30
0.0
  0
SEQEND
  5
12A7
330
5CF
100
AcDbEntity
  8
HOJO
  0
POLYLINE
  5
5D0
330
5CE
100
AcDbEntity
  8
HOJO
100
AcDb2dPolyline
 66
     1
 10
0.0
 20
0.0
 30
0.0
 70
     1
  0
VERTEX
  5
12A8
330
5D0
100
AcDbEntity
  8
HOJO
100
AcDbVertex
100
AcDb2dVertex
 10
18.0
 20
13.0
 30
0.0
  0
VERTEX
  5
12A9
330
5D0
100
AcDbEntity
  8
HOJO
100
AcDbVertex
100
AcDb2dVertex
 10
279.0
 20
13.0
 30
0.0
  0
VERTEX
  5
12AA
330
5D0
100
AcDbEntity
  8
HOJO
100
AcDbVertex
100
AcDb2dVertex
 10
279.0
 20
197.0
 30
0.0
  0
VERTEX
  5
12AB
330
5D0
100
AcDbEntity
  8
HOJO
100
AcDbVertex
100
AcDb2dVertex
 10
18.0
 20
197.0
 30
0.0
  0
SEQEND
  5
12AC
330
5D0
100
AcDbEntity
  8
HOJO
  0
ENDBLK
  5
5D2
330
5CE
100
AcDbEntity
  8
0
100
AcDbBlockEnd
  0
BLOCK
  5
63A
330
636
100
AcDbEntity
  8
0
100
AcDbBlockBegin
  2
_OPEN90
 70
     0
 10
0.0
 20
0.0
 30
0.0
  3
_OPEN90
  1

  0
LINE
  5
637
330
636
100
AcDbEntity
  8
SUNPO
 62
     0
100
AcDbLine
 10
-0.5
 20
0.5
 30
0.0
 11
0.0
 21
0.0
 31
0.0
  0
LINE
  5
638
330
636
100
AcDbEntity
  8
SUNPO
 62
     0
100
AcDbLine
 10
0.0
 20
0.0
 30
0.0
 11
-0.5
 21
-0.5
 31
0.0
  0
LINE
  5
639
330
636
100
AcDbEntity
  8
SUNPO
 62
     0
100
AcDbLine
 10
0.0
 20
0.0
 30
0.0
 11
-1.0
 21
0.0
 31
0.0
  0
ENDBLK
  5
63B
330
636
100
AcDbEntity
  8
0
100
AcDbBlockEnd
  0
BLOCK
  5
640
330
63C
100
AcDbEntity
  8
0
100
AcDbBlockBegin
  2
_OPEN30
 70
     0
 10
0.0
 20
0.0
 30
0.0
  3
_OPEN30
  1

  0
LINE
  5
63D
330
63C
100
AcDbEntity
  8
SUNPO
 62
     0
100
AcDbLine
 10
-1.0
 20
0.26794919
 30
0.0
 11
0.0
 21
0.0
 31
0.0
  0
LINE
  5
63E
330
63C
100
AcDbEntity
  8
SUNPO
 62
     0
100
AcDbLine
 10
0.0
 20
0.0
 30
0.0
 11
-1.0
 21
-0.26794919
 31
0.0
  0
LINE
  5
63F
330
63C
100
AcDbEntity
  8
SUNPO
 62
     0
100
AcDbLine
 10
0.0
 20
0.0
 30
0.0
 11
-1.0
 21
0.0
 31
0.0
  0
ENDBLK
  5
641
330
63C
100
AcDbEntity
  8
0
100
AcDbBlockEnd
  0
BLOCK
  5
E7D
330
E79
100
AcDbEntity
  8
0
100
AcDbBlockBegin
  2
REVDATE
 70
     2
 10
0.0
 20
0.0
 30
0.0
  3
REVDATE
  1
REVDATE
  0
ATTDEF
  5
E7A
330
E79
100
AcDbEntity
  8
0
 62
     0
100
AcDbText
 10
0.0
 20
0.0
 30
0.0
 40
1.0
  1

100
AcDbAttributeDefinition
  3

  2
USER
 70
     8
  0
ATTDEF
  5
E7B
330
E79
100
AcDbEntity
  8
0
 62
     0
100
AcDbText
 10
0.0
 20
0.0
 30
0.0
 40
1.0
  1

100
AcDbAttributeDefinition
  3

  2
REVDATE
 70
     8
  0
ATTDEF
  5
E7C
330
E79
100
AcDbEntity
  8
0
 62
     0
100
AcDbText
 10
0.0
 20
0.0
 30
0.0
 40
1.0
  1

100
AcDbAttributeDefinition
  3

  2
FNAME
 70
     8
  0
ENDBLK
  5
E7E
330
E79
100
AcDbEntity
  8
0
100
AcDbBlockEnd
  0
BLOCK
  5
ED2
330
E8C
100
AcDbEntity
  8
0
100
AcDbBlockBegin
  2
LDU300C
 70
     0
 10
0.0
 20
0.0
 30
0.0
  3
LDU300C
  1

  0
LINE
  5
ED6
330
E8C
100
AcDbEntity
  8
0-3C1
  6
CONTINUOUS
 62
     2
100
AcDbLine
 10
2302.02
 20
2724.67
 30
0.0
 11
4302.02
 21
2724.67
 31
0.0
  0
LINE
  5
ED7
330
E8C
100
AcDbEntity
  8
1-SUNPO
  6
CONTINUOUS
 62
     4
100
AcDbLine
 10
1383.44
 20
2752.12
 30
0.0
 11
1383.44
 21
2924.67
 31
0.0
  0
LINE
  5
ED8
330
E8C
100
AcDbEntity
  8
1-SUNPO
  6
CONTINUOUS
 62
     4
100
AcDbLine
 10
1433.44
 20
2752.12
 30
0.0
 11
1433.44
 21
2924.67
 31
0.0
  0
LINE
  5
ED9
330
E8C
100
AcDbEntity
  8
1-SUNPO
  6
CONTINUOUS
 62
     4
100
AcDbLine
 10
1733.44
 20
2752.12
 30
0.0
 11
1733.44
 21
2924.67
 31
0.0
  0
LINE
  5
EDA
330
E8C
100
AcDbEntity
  8
1-SUNPO
  6
CONTINUOUS
 62
     4
100
AcDbLine
 10
1783.44
 20
2752.12
 30
0.0
 11
1783.44
 21
2924.67
 31
0.0
  0
LINE
  5
EDB
330
E8C
100
AcDbEntity
  8
1-SUNPO
  6
CONTINUOUS
 62
     4
100
AcDbLine
 10
2302.02
 20
2924.67
 30
0.0
 11
4302.02
 21
2924.67
 31
0.0
  0
LINE
  5
EDC
330
E8C
100
AcDbEntity
  8
1-SUNPO
  6
CONTINUOUS
 62
     4
100
AcDbLine
 10
2302.02
 20
2752.12
 30
0.0
 11
2302.02
 21
2924.67
 31
0.0
  0
LINE
  5
EDD
330
E8C
100
AcDbEntity
  8
1-SUNPO
  6
CONTINUOUS
 62
     4
100
AcDbLine
 10
4302.02
 20
2752.12
 30
0.0
 11
4302.02
 21
2924.67
 31
0.0
  0
LINE
  5
EDE
330
E8C
100
AcDbEntity
  8
1-SUNPO
  6
CONTINUOUS
 62
     4
100
AcDbLine
 10
1433.44
 20
2272.8
 30
0.0
 11
1433.44
 21
2099.67
 31
0.0
  0
LINE
  5
EDF
330
E8C
100
AcDbEntity
  8
1-SUNPO
  6
CONTINUOUS
 62
     4
100
AcDbLine
 10
1733.44
 20
2272.8
 30
0.0
 11
1733.44
 21
2099.67
 31
0.0
  0
LINE
  5
EE0
330
E8C
100
AcDbEntity
  8
1-SUNPO
  6
CONTINUOUS
 62
     4
100
AcDbLine
 10
1705.21
 20
2383.469999999999
 30
0.0
 11
1679.23
 21
2398.47
 31
0.0
  0
LINE
  5
EE1
330
E8C
100
AcDbEntity
  8
1-SUNPO
  6
CONTINUOUS
 62
     4
100
AcDbLine
 10
1705.21
 20
2383.469999999999
 30
0.0
 11
1690.21
 21
2409.45
 31
0.0
  0
LINE
  5
EE2
330
E8C
100
AcDbEntity
  8
1-SUNPO
  6
CONTINUOUS
 62
     4
100
AcDbLine
 10
1741.159999999999
 20
2299.67
 30
0.0
 11
1896.01
 21
2299.67
 31
0.0
  0
LINE
  5
EE3
330
E8C
100
AcDbEntity
  8
1-SUNPO
  6
CONTINUOUS
 62
     4
100
AcDbLine
 10
1414.13
 20
2919.5
 30
0.0
 11
1452.76
 21
2929.85
 31
0.0
  0
LINE
  5
EE4
330
E8C
100
AcDbEntity
  8
1-SUNPO
  6
CONTINUOUS
 62
     4
100
AcDbLine
 10
1414.13
 20
2929.85
 30
0.0
 11
1452.76
 21
2919.5
 31
0.0
  0
LINE
  5
EE5
330
E8C
100
AcDbEntity
  8
1-SUNPO
  6
CONTINUOUS
 62
     4
100
AcDbLine
 10
1383.44
 20
2924.67
 30
0.0
 11
1402.759999999999
 21
2929.85
 31
0.0
  0
LINE
  5
EE6
330
E8C
100
AcDbEntity
  8
1-SUNPO
  6
CONTINUOUS
 62
     4
100
AcDbLine
 10
1383.44
 20
2924.67
 30
0.0
 11
1402.759999999999
 21
2919.5
 31
0.0
  0
LINE
  5
EE7
330
E8C
100
AcDbEntity
  8
1-SUNPO
  6
CONTINUOUS
 62
     4
100
AcDbLine
 10
1714.13
 20
2919.5
 30
0.0
 11
1752.76
 21
2929.85
 31
0.0
  0
LINE
  5
EE8
330
E8C
100
AcDbEntity
  8
1-SUNPO
  6
CONTINUOUS
 62
     4
100
AcDbLine
 10
1714.13
 20
2929.85
 30
0.0
 11
1752.76
 21
2919.5
 31
0.0
  0
LINE
  5
EE9
330
E8C
100
AcDbEntity
  8
1-SUNPO
  6
CONTINUOUS
 62
     4
100
AcDbLine
 10
1783.44
 20
2924.67
 30
0.0
 11
1764.13
 21
2929.85
 31
0.0
  0
LINE
  5
EEA
330
E8C
100
AcDbEntity
  8
1-SUNPO
  6
CONTINUOUS
 62
     4
100
AcDbLine
 10
1783.44
 20
2924.67
 30
0.0
 11
1764.13
 21
2919.5
 31
0.0
  0
LINE
  5
EEB
330
E8C
100
AcDbEntity
  8
1-SUNPO
  6
CONTINUOUS
 62
     4
100
AcDbLine
 10
1433.44
 20
2099.67
 30
0.0
 11
1452.76
 21
2104.85
 31
0.0
  0
LINE
  5
EEC
330
E8C
100
AcDbEntity
  8
1-SUNPO
  6
CONTINUOUS
 62
     4
100
AcDbLine
 10
1433.44
 20
2099.67
 30
0.0
 11
1452.76
 21
2094.5
 31
0.0
  0
LINE
  5
EED
330
E8C
100
AcDbEntity
  8
1-SUNPO
  6
CONTINUOUS
 62
     4
100
AcDbLine
 10
1733.44
 20
2099.67
 30
0.0
 11
1714.13
 21
2104.85
 31
0.0
  0
LINE
  5
EEE
330
E8C
100
AcDbEntity
  8
1-SUNPO
  6
CONTINUOUS
 62
     4
100
AcDbLine
 10
1733.44
 20
2099.67
 30
0.0
 11
1714.13
 21
2094.5
 31
0.0
  0
LINE
  5
EEF
330
E8C
100
AcDbEntity
  8
1-SUNPO
  6
CONTINUOUS
 62
     4
100
AcDbLine
 10
1532.7
 20
2383.989999999998
 30
0.0
 11
1543.06
 21
2345.349999999999
 31
0.0
  0
LINE
  5
EF0
330
E8C
100
AcDbEntity
  8
1-SUNPO
  6
CONTINUOUS
 62
     4
100
AcDbLine
 10
1543.06
 20
2383.989999999998
 30
0.0
 11
1532.7
 21
2345.349999999999
 31
0.0
  0
LINE
  5
EF1
330
E8C
100
AcDbEntity
  8
1-SUNPO
  6
CONTINUOUS
 62
     4
100
AcDbLine
 10
1537.88
 20
2299.67
 30
0.0
 11
1543.06
 21
2318.989999999998
 31
0.0
  0
LINE
  5
EF2
330
E8C
100
AcDbEntity
  8
1-SUNPO
  6
CONTINUOUS
 62
     4
100
AcDbLine
 10
1537.88
 20
2299.67
 30
0.0
 11
1532.7
 21
2318.989999999998
 31
0.0
  0
LINE
  5
EF3
330
E8C
100
AcDbEntity
  8
1-SUNPO
  6
CONTINUOUS
 62
     4
100
AcDbLine
 10
1537.88
 20
2724.67
 30
0.0
 11
1543.06
 21
2705.35
 31
0.0
  0
LINE
  5
EF4
330
E8C
100
AcDbEntity
  8
1-SUNPO
  6
CONTINUOUS
 62
     4
100
AcDbLine
 10
1537.88
 20
2724.67
 30
0.0
 11
1532.7
 21
2705.35
 31
0.0
  0
LINE
  5
EF5
330
E8C
100
AcDbEntity
  8
1-SUNPO
  6
CONTINUOUS
 62
     4
100
AcDbLine
 10
2302.02
 20
2924.67
 30
0.0
 11
2321.33
 21
2929.85
 31
0.0
  0
LINE
  5
EF6
330
E8C
100
AcDbEntity
  8
1-SUNPO
  6
CONTINUOUS
 62
     4
100
AcDbLine
 10
2302.02
 20
2924.67
 30
0.0
 11
2321.33
 21
2919.5
 31
0.0
  0
LINE
  5
EF7
330
E8C
100
AcDbEntity
  8
1-SUNPO
  6
CONTINUOUS
 62
     4
100
AcDbLine
 10
4302.02
 20
2924.67
 30
0.0
 11
4282.7
 21
2929.85
 31
0.0
  0
LINE
  5
EF8
330
E8C
100
AcDbEntity
  8
1-SUNPO
  6
CONTINUOUS
 62
     4
100
AcDbLine
 10
4302.02
 20
2924.67
 30
0.0
 11
4282.7
 21
2919.5
 31
0.0
  0
LINE
  5
EF9
330
E8C
100
AcDbEntity
  8
1-SUNPO
  6
CONTINUOUS
 62
     4
100
AcDbLine
 10
1383.44
 20
2924.67
 30
0.0
 11
1783.44
 21
2924.67
 31
0.0
  0
LINE
  5
EFA
330
E8C
100
AcDbEntity
  8
1-SUNPO
  6
CONTINUOUS
 62
     4
100
AcDbLine
 10
1433.44
 20
2099.67
 30
0.0
 11
1733.44
 21
2099.67
 31
0.0
  0
LINE
  5
EFB
330
E8C
100
AcDbEntity
  8
0-3C1
  6
CONTINUOUS
 62
     2
100
AcDbLine
 10
1433.44
 20
2299.67
 30
0.0
 11
1733.44
 21
2299.67
 31
0.0
  0
LINE
  5
EFC
330
E8C
100
AcDbEntity
  8
0-3C1
  6
CONTINUOUS
 62
     2
100
AcDbLine
 10
1383.44
 20
2724.67
 30
0.0
 11
1433.44
 21
2724.67
 31
0.0
  0
LINE
  5
EFD
330
E8C
100
AcDbEntity
  8
0-3C1
  6
CONTINUOUS
 62
     2
100
AcDbLine
 10
1783.44
 20
2724.67
 30
0.0
 11
1733.44
 21
2724.67
 31
0.0
  0
LINE
  5
EFE
330
E8C
100
AcDbEntity
  8
1-KIJUN
  6
CENTER2
 62
     3
100
AcDbLine
 10
1453.44
 20
2724.67
 30
0.0
 11
1713.44
 21
2724.67
 31
0.0
  0
LINE
  5
EFF
330
E8C
100
AcDbEntity
  8
1-SUNPO
  6
CONTINUOUS
 62
     4
100
AcDbLine
 10
1705.21
 20
2383.469999999999
 30
0.0
 11
1661.359999999999
 21
2427.32
 31
0.0
  0
LINE
  5
F00
330
E8C
100
AcDbEntity
  8
0-3C1
  6
CONTINUOUS
 62
     2
100
AcDbLine
 10
1433.44
 20
2299.67
 30
0.0
 11
1393.44
 21
2339.67
 31
0.0
  0
LINE
  5
F01
330
E8C
100
AcDbEntity
  8
0-3C1
  6
CONTINUOUS
 62
     2
100
AcDbLine
 10
1393.44
 20
2339.67
 30
0.0
 11
1383.44
 21
2724.67
 31
0.0
  0
LINE
  5
F02
330
E8C
100
AcDbEntity
  8
0-3C1
  6
CONTINUOUS
 62
     2
100
AcDbLine
 10
1450.82
 20
2411.9
 30
0.0
 11
1433.44
 21
2724.67
 31
0.0
  0
LINE
  5
F03
330
E8C
100
AcDbEntity
  8
0-3C1
  6
CONTINUOUS
 62
     2
100
AcDbLine
 10
1733.44
 20
2299.67
 30
0.0
 11
1773.44
 21
2339.67
 31
0.0
  0
LINE
  5
F04
330
E8C
100
AcDbEntity
  8
0-3C1
  6
CONTINUOUS
 62
     2
100
AcDbLine
 10
1773.44
 20
2339.67
 30
0.0
 11
1783.44
 21
2724.67
 31
0.0
  0
LINE
  5
F05
330
E8C
100
AcDbEntity
  8
0-3C1
  6
CONTINUOUS
 62
     2
100
AcDbLine
 10
1716.07
 20
2411.9
 30
0.0
 11
1733.44
 21
2724.67
 31
0.0
  0
LINE
  5
F06
330
E8C
100
AcDbEntity
  8
0-3C1
  6
CONTINUOUS
 62
     2
100
AcDbLine
 10
1500.74
 20
2364.67
 30
0.0
 11
1666.67
 21
2364.67
 31
0.0
  0
LINE
  5
F07
330
E8C
100
AcDbEntity
  8
1-SUNPO
  6
CONTINUOUS
 62
     4
100
AcDbLine
 10
1537.88
 20
2724.67
 30
0.0
 11
1537.88
 21
2299.67
 31
0.0
  0
LINE
  5
F08
330
E8C
100
AcDbEntity
  8
0-3C1
  6
CONTINUOUS
 62
     2
100
AcDbLine
 10
4302.02
 20
2724.67
 30
0.0
 11
4302.02
 21
2299.67
 31
0.0
  0
LINE
  5
F09
330
E8C
100
AcDbEntity
  8
0-3C1
  6
CONTINUOUS
 62
     2
100
AcDbLine
 10
2302.02
 20
2724.67
 30
0.0
 11
2302.02
 21
2299.67
 31
0.0
  0
LINE
  5
F0A
330
E8C
100
AcDbEntity
  8
0-3C1
  6
CONTINUOUS
 62
     2
100
AcDbLine
 10
2302.02
 20
2299.67
 30
0.0
 11
4302.02
 21
2299.67
 31
0.0
  0
LINE
  5
F0B
330
E8C
100
AcDbEntity
  8
0-3C1
  6
CONTINUOUS
 62
     2
100
AcDbLine
 10
2302.02
 20
2339.67
 30
0.0
 11
4302.02
 21
2339.67
 31
0.0
  0
LINE
  5
F0C
330
E8C
100
AcDbEntity
  8
0-3C1
  6
DASHED2
 62
     2
100
AcDbLine
 10
2302.02
 20
2364.67
 30
0.0
 11
4302.02
 21
2364.67
 31
0.0
  0
ARC
  5
F0D
330
E8C
100
AcDbEntity
  8
0-3C1
  6
CONTINUOUS
 62
     2
100
AcDbCircle
 10
1666.14
 20
2414.67
 30
0.0
 40
50.0
100
AcDbArc
 50
270.0
 51
356.820129
  0
ARC
  5
F0E
330
E8C
100
AcDbEntity
  8
0-3C1
  6
CONTINUOUS
 62
     2
100
AcDbCircle
 10
1500.74
 20
2414.67
 30
0.0
 40
50.0
100
AcDbArc
 50
183.1798709999999
 51
270.0
  0
ARC
  5
F0F
330
E8C
100
AcDbEntity
  8
1-SUNPO
  6
CONTINUOUS
 62
     4
100
AcDbCircle
 10
1738.439999999999
 20
2304.67
 30
0.0
 40
42.0
100
AcDbArc
 50
353.1624759999998
 51
45.0
  0
MTEXT
  5
F10
330
E8C
100
AcDbEntity
  8
1-SUNPO
 62
     4
100
AcDbMText
 10
1794.51
 20
2307.92
 30
0.0
 40
39.0
 41
0.0
 71
     7
 72
     1
  1
45°
1001
ACAD
1000
MTEXTBEGIN
1070
    73
1070
     1
1070
    44
1040
1.0
1070
    74
1070
     0
1000
MTEXTEND
  0
MTEXT
  5
F11
330
E8C
100
AcDbEntity
  8
1-SUNPO
 62
     4
100
AcDbMText
 10
1613.019999999999
 20
2433.75
 30
0.0
 40
39.0
 41
0.0
 71
     7
 72
     1
  1
\W0.700;50R
1001
ACAD
1000
MTEXTBEGIN
1070
    73
1070
     1
1070
    44
1040
1.0
1070
    74
1070
     0
1000
MTEXTEND
  0
MTEXT
  5
F12
330
E8C
100
AcDbEntity
  8
1-SUNPO
 62
     4
100
AcDbMText
 10
1383.44
 20
2934.67
 30
0.0
 40
39.0
 41
0.0
 71
     7
 72
     1
  1
\W0.800;50
1001
ACAD
1000
MTEXTBEGIN
1070
    73
1070
     1
1070
    44
1040
1.0
1070
    74
1070
     0
1000
MTEXTEND
  0
MTEXT
  5
F13
330
E8C
100
AcDbEntity
  8
1-SUNPO
 62
     4
100
AcDbMText
 10
1545.94
 20
2934.67
 30
0.0
 40
39.0
 41
0.0
 71
     7
 72
     1
  1
\W0.800;300
1001
ACAD
1000
MTEXTBEGIN
1070
    73
1070
     1
1070
    44
1040
1.0
1070
    74
1070
     0
1000
MTEXTEND
  0
MTEXT
  5
F14
330
E8C
100
AcDbEntity
  8
1-SUNPO
 62
     4
100
AcDbMText
 10
1733.44
 20
2934.67
 30
0.0
 40
39.0
 41
0.0
 71
     7
 72
     1
  1
\W0.800;50
1001
ACAD
1000
MTEXTBEGIN
1070
    73
1070
     1
1070
    44
1040
1.0
1070
    74
1070
     0
1000
MTEXTEND
  0
MTEXT
  5
F15
330
E8C
100
AcDbEntity
  8
1-SUNPO
 62
     4
100
AcDbMText
 10
1545.94
 20
2114.67
 30
0.0
 40
39.0
 41
0.0
 71
     7
 72
     1
  1
\W0.800;300
1001
ACAD
1000
MTEXTBEGIN
1070
    73
1070
     1
1070
    44
1040
1.0
1070
    74
1070
     0
1000
MTEXTEND
  0
MTEXT
  5
F16
330
E8C
100
AcDbEntity
  8
1-SUNPO
 62
     4
100
AcDbMText
 10
1527.88
 20
2507.17
 30
0.0
 40
39.0
 41
0.0
 71
     7
 72
     1
  1
\W0.800;360
 11
0.0
 21
1.0
 31
0.0
1001
ACAD
1000
MTEXTBEGIN
1070
    73
1070
     1
1070
    44
1040
1.0
1070
    74
1070
     0
1000
MTEXTEND
  0
MTEXT
  5
F17
330
E8C
100
AcDbEntity
  8
1-SUNPO
 62
     4
100
AcDbMText
 10
1527.88
 20
2307.17
 30
0.0
 40
39.0
 41
0.0
 71
     7
 72
     1
  1
\W0.800;65
 11
0.0
 21
1.0
 31
0.0
1001
ACAD
1000
MTEXTBEGIN
1070
    73
1070
     1
1070
    44
1040
1.0
1070
    74
1070
     0
1000
MTEXTEND
  0
MTEXT
  5
F18
330
E8C
100
AcDbEntity
  8
0-3C1
 62
     4
100
AcDbMText
 10
3252.02
 20
2934.67
 30
0.0
 40
39.0
 41
0.0
 71
     7
 72
     1
  1
\W0.800;2000
1001
ACAD
1000
MTEXTBEGIN
1070
    73
1070
     1
1070
    44
1040
1.0
1070
    74
1070
     0
1000
MTEXTEND
  0
POLYLINE
  5
F19
330
E8C
100
AcDbEntity
  8
1-SUNPO
  6
CONTINUOUS
 62
     4
100
AcDb2dPolyline
 66
     1
 10
0.0
 20
0.0
 30
0.0
 70
     1
 40
1600.0
 41
1600.0
  0
VERTEX
  5
12AD
330
F19
100
AcDbEntity
  8
1-SUNPO
  6
CONTINUOUS
 62
     4
100
AcDbVertex
100
AcDb2dVertex
 10
1776.14
 20
2299.67
 30
0.0
 42
1.0
  0
VERTEX
  5
12AE
330
F19
100
AcDbEntity
  8
1-SUNPO
  6
CONTINUOUS
 62
     4
100
AcDbVertex
100
AcDb2dVertex
 10
1784.14
 20
2299.67
 30
0.0
 42
1.0
  0
SEQEND
  5
12AF
330
F19
100
AcDbEntity
  8
1-SUNPO
  6
CONTINUOUS
 62
     4
  0
POLYLINE
  5
F1A
330
E8C
100
AcDbEntity
  8
1-SUNPO
  6
CONTINUOUS
 62
     4
100
AcDb2dPolyline
 66
     1
 10
0.0
 20
0.0
 30
0.0
 70
     1
 40
1600.0
 41
1600.0
  0
VERTEX
  5
12B0
330
F1A
100
AcDbEntity
  8
1-SUNPO
  6
CONTINUOUS
 62
     4
100
AcDbVertex
100
AcDb2dVertex
 10
1764.14
 20
2334.369999999999
 30
0.0
 42
1.0
  0
VERTEX
  5
12B1
330
F1A
100
AcDbEntity
  8
1-SUNPO
  6
CONTINUOUS
 62
     4
100
AcDbVertex
100
AcDb2dVertex
 10
1772.14
 20
2334.369999999999
 30
0.0
 42
1.0
  0
SEQEND
  5
12B2
330
F1A
100
AcDbEntity
  8
1-SUNPO
  6
CONTINUOUS
 62
     4
  0
ENDBLK
  5
ED3
330
E8C
100
AcDbEntity
  8
0
100
AcDbBlockEnd
  0
BLOCK
  5
F73
330
F2D
100
AcDbEntity
  8
0
100
AcDbBlockBegin
  2
LDU360B
 70
     0
 10
0.0
 20
0.0
 30
0.0
  3
LDU360B
  1

  0
LINE
  5
F2E
330
F2D
100
AcDbEntity
  8
0-3C1
  6
CONTINUOUS
 62
     2
100
AcDbLine
 10
2302.02
 20
2724.67
 30
0.0
 11
4302.02
 21
2724.67
 31
0.0
  0
LINE
  5
F2F
330
F2D
100
AcDbEntity
  8
1-SUNPO
  6
CONTINUOUS
 62
     4
100
AcDbLine
 10
1353.44
 20
2752.12
 30
0.0
 11
1353.44
 21
2924.67
 31
0.0
  0
LINE
  5
F30
330
F2D
100
AcDbEntity
  8
1-SUNPO
  6
CONTINUOUS
 62
     4
100
AcDbLine
 10
1403.44
 20
2752.12
 30
0.0
 11
1403.44
 21
2924.67
 31
0.0
  0
LINE
  5
F31
330
F2D
100
AcDbEntity
  8
1-SUNPO
  6
CONTINUOUS
 62
     4
100
AcDbLine
 10
1763.44
 20
2752.12
 30
0.0
 11
1763.44
 21
2924.67
 31
0.0
  0
LINE
  5
F32
330
F2D
100
AcDbEntity
  8
1-SUNPO
  6
CONTINUOUS
 62
     4
100
AcDbLine
 10
1813.439999999999
 20
2752.12
 30
0.0
 11
1813.439999999999
 21
2924.67
 31
0.0
  0
LINE
  5
F33
330
F2D
100
AcDbEntity
  8
1-SUNPO
  6
CONTINUOUS
 62
     4
100
AcDbLine
 10
2302.02
 20
2924.67
 30
0.0
 11
4302.02
 21
2924.67
 31
0.0
  0
LINE
  5
F34
330
F2D
100
AcDbEntity
  8
1-SUNPO
  6
CONTINUOUS
 62
     4
100
AcDbLine
 10
2302.02
 20
2752.12
 30
0.0
 11
2302.02
 21
2924.67
 31
0.0
  0
LINE
  5
F35
330
F2D
100
AcDbEntity
  8
1-SUNPO
  6
CONTINUOUS
 62
     4
100
AcDbLine
 10
4302.02
 20
2752.12
 30
0.0
 11
4302.02
 21
2924.67
 31
0.0
  0
LINE
  5
F36
330
F2D
100
AcDbEntity
  8
1-SUNPO
  6
CONTINUOUS
 62
     4
100
AcDbLine
 10
1403.44
 20
2272.8
 30
0.0
 11
1403.44
 21
2099.67
 31
0.0
  0
LINE
  5
F37
330
F2D
100
AcDbEntity
  8
1-SUNPO
  6
CONTINUOUS
 62
     4
100
AcDbLine
 10
1763.44
 20
2272.8
 30
0.0
 11
1763.44
 21
2099.67
 31
0.0
  0
LINE
  5
F38
330
F2D
100
AcDbEntity
  8
1-SUNPO
  6
CONTINUOUS
 62
     4
100
AcDbLine
 10
1732.73
 20
2385.96
 30
0.0
 11
1706.749999999999
 21
2400.96
 31
0.0
  0
LINE
  5
F39
330
F2D
100
AcDbEntity
  8
1-SUNPO
  6
CONTINUOUS
 62
     4
100
AcDbLine
 10
1732.73
 20
2385.96
 30
0.0
 11
1717.729999999999
 21
2411.94
 31
0.0
  0
LINE
  5
F3A
330
F2D
100
AcDbEntity
  8
1-SUNPO
  6
CONTINUOUS
 62
     4
100
AcDbLine
 10
1771.16
 20
2299.67
 30
0.0
 11
1926.01
 21
2299.67
 31
0.0
  0
LINE
  5
F3B
330
F2D
100
AcDbEntity
  8
1-SUNPO
  6
CONTINUOUS
 62
     4
100
AcDbLine
 10
1384.13
 20
2919.5
 30
0.0
 11
1422.76
 21
2929.85
 31
0.0
  0
LINE
  5
F3C
330
F2D
100
AcDbEntity
  8
1-SUNPO
  6
CONTINUOUS
 62
     4
100
AcDbLine
 10
1384.13
 20
2929.85
 30
0.0
 11
1422.76
 21
2919.5
 31
0.0
  0
LINE
  5
F3D
330
F2D
100
AcDbEntity
  8
1-SUNPO
  6
CONTINUOUS
 62
     4
100
AcDbLine
 10
1353.44
 20
2924.67
 30
0.0
 11
1372.76
 21
2929.85
 31
0.0
  0
LINE
  5
F3E
330
F2D
100
AcDbEntity
  8
1-SUNPO
  6
CONTINUOUS
 62
     4
100
AcDbLine
 10
1353.44
 20
2924.67
 30
0.0
 11
1372.76
 21
2919.5
 31
0.0
  0
LINE
  5
F3F
330
F2D
100
AcDbEntity
  8
1-SUNPO
  6
CONTINUOUS
 62
     4
100
AcDbLine
 10
1744.13
 20
2919.5
 30
0.0
 11
1782.76
 21
2929.85
 31
0.0
  0
LINE
  5
F40
330
F2D
100
AcDbEntity
  8
1-SUNPO
  6
CONTINUOUS
 62
     4
100
AcDbLine
 10
1744.13
 20
2929.85
 30
0.0
 11
1782.76
 21
2919.5
 31
0.0
  0
LINE
  5
F41
330
F2D
100
AcDbEntity
  8
1-SUNPO
  6
CONTINUOUS
 62
     4
100
AcDbLine
 10
1813.439999999999
 20
2924.67
 30
0.0
 11
1794.13
 21
2929.85
 31
0.0
  0
LINE
  5
F42
330
F2D
100
AcDbEntity
  8
1-SUNPO
  6
CONTINUOUS
 62
     4
100
AcDbLine
 10
1813.439999999999
 20
2924.67
 30
0.0
 11
1794.13
 21
2919.5
 31
0.0
  0
LINE
  5
F43
330
F2D
100
AcDbEntity
  8
1-SUNPO
  6
CONTINUOUS
 62
     4
100
AcDbLine
 10
1403.44
 20
2099.67
 30
0.0
 11
1422.76
 21
2104.85
 31
0.0
  0
LINE
  5
F44
330
F2D
100
AcDbEntity
  8
1-SUNPO
  6
CONTINUOUS
 62
     4
100
AcDbLine
 10
1403.44
 20
2099.67
 30
0.0
 11
1422.76
 21
2094.5
 31
0.0
  0
LINE
  5
F45
330
F2D
100
AcDbEntity
  8
1-SUNPO
  6
CONTINUOUS
 62
     4
100
AcDbLine
 10
1763.44
 20
2099.67
 30
0.0
 11
1744.13
 21
2104.85
 31
0.0
  0
LINE
  5
F46
330
F2D
100
AcDbEntity
  8
1-SUNPO
  6
CONTINUOUS
 62
     4
100
AcDbLine
 10
1763.44
 20
2099.67
 30
0.0
 11
1744.13
 21
2094.5
 31
0.0
  0
LINE
  5
F47
330
F2D
100
AcDbEntity
  8
1-SUNPO
  6
CONTINUOUS
 62
     4
100
AcDbLine
 10
1532.7
 20
2383.989999999998
 30
0.0
 11
1543.06
 21
2345.349999999999
 31
0.0
  0
LINE
  5
F48
330
F2D
100
AcDbEntity
  8
1-SUNPO
  6
CONTINUOUS
 62
     4
100
AcDbLine
 10
1543.06
 20
2383.989999999998
 30
0.0
 11
1532.7
 21
2345.349999999999
 31
0.0
  0
LINE
  5
F49
330
F2D
100
AcDbEntity
  8
1-SUNPO
  6
CONTINUOUS
 62
     4
100
AcDbLine
 10
1537.88
 20
2299.67
 30
0.0
 11
1543.06
 21
2318.989999999998
 31
0.0
  0
LINE
  5
F4A
330
F2D
100
AcDbEntity
  8
1-SUNPO
  6
CONTINUOUS
 62
     4
100
AcDbLine
 10
1537.88
 20
2299.67
 30
0.0
 11
1532.7
 21
2318.989999999998
 31
0.0
  0
LINE
  5
F4B
330
F2D
100
AcDbEntity
  8
1-SUNPO
  6
CONTINUOUS
 62
     4
100
AcDbLine
 10
1537.88
 20
2724.67
 30
0.0
 11
1543.06
 21
2705.35
 31
0.0
  0
LINE
  5
F4C
330
F2D
100
AcDbEntity
  8
1-SUNPO
  6
CONTINUOUS
 62
     4
100
AcDbLine
 10
1537.88
 20
2724.67
 30
0.0
 11
1532.7
 21
2705.35
 31
0.0
  0
LINE
  5
F4D
330
F2D
100
AcDbEntity
  8
1-SUNPO
  6
CONTINUOUS
 62
     4
100
AcDbLine
 10
2302.02
 20
2924.67
 30
0.0
 11
2321.33
 21
2929.85
 31
0.0
  0
LINE
  5
F4E
330
F2D
100
AcDbEntity
  8
1-SUNPO
  6
CONTINUOUS
 62
     4
100
AcDbLine
 10
2302.02
 20
2924.67
 30
0.0
 11
2321.33
 21
2919.5
 31
0.0
  0
LINE
  5
F4F
330
F2D
100
AcDbEntity
  8
1-SUNPO
  6
CONTINUOUS
 62
     4
100
AcDbLine
 10
4302.02
 20
2924.67
 30
0.0
 11
4282.7
 21
2929.85
 31
0.0
  0
LINE
  5
F50
330
F2D
100
AcDbEntity
  8
1-SUNPO
  6
CONTINUOUS
 62
     4
100
AcDbLine
 10
4302.02
 20
2924.67
 30
0.0
 11
4282.7
 21
2919.5
 31
0.0
  0
LINE
  5
F51
330
F2D
100
AcDbEntity
  8
1-SUNPO
  6
CONTINUOUS
 62
     4
100
AcDbLine
 10
1353.44
 20
2924.67
 30
0.0
 11
1813.439999999999
 21
2924.67
 31
0.0
  0
LINE
  5
F52
330
F2D
100
AcDbEntity
  8
0-3C1
  6
CONTINUOUS
 62
     2
100
AcDbLine
 10
1353.44
 20
2724.67
 30
0.0
 11
1403.44
 21
2724.67
 31
0.0
  0
LINE
  5
F53
330
F2D
100
AcDbEntity
  8
0-3C1
  6
CONTINUOUS
 62
     2
100
AcDbLine
 10
1813.439999999999
 20
2724.67
 30
0.0
 11
1763.44
 21
2724.67
 31
0.0
  0
LINE
  5
F54
330
F2D
100
AcDbEntity
  8
1-SUNPO
  6
CONTINUOUS
 62
     4
100
AcDbLine
 10
1732.73
 20
2385.96
 30
0.0
 11
1688.87
 21
2429.81
 31
0.0
  0
LINE
  5
F55
330
F2D
100
AcDbEntity
  8
1-SUNPO
  6
CONTINUOUS
 62
     4
100
AcDbLine
 10
1537.88
 20
2724.67
 30
0.0
 11
1537.88
 21
2299.67
 31
0.0
  0
LINE
  5
F56
330
F2D
100
AcDbEntity
  8
0-3C1
  6
CONTINUOUS
 62
     2
100
AcDbLine
 10
4302.02
 20
2724.67
 30
0.0
 11
4302.02
 21
2299.67
 31
0.0
  0
LINE
  5
F57
330
F2D
100
AcDbEntity
  8
0-3C1
  6
CONTINUOUS
 62
     2
100
AcDbLine
 10
2302.02
 20
2724.67
 30
0.0
 11
2302.02
 21
2299.67
 31
0.0
  0
LINE
  5
F58
330
F2D
100
AcDbEntity
  8
0-3C1
  6
CONTINUOUS
 62
     2
100
AcDbLine
 10
2302.02
 20
2299.67
 30
0.0
 11
4302.02
 21
2299.67
 31
0.0
  0
LINE
  5
F59
330
F2D
100
AcDbEntity
  8
0-3C1
  6
CONTINUOUS
 62
     2
100
AcDbLine
 10
2302.02
 20
2339.67
 30
0.0
 11
4302.02
 21
2339.67
 31
0.0
  0
LINE
  5
F5A
330
F2D
100
AcDbEntity
  8
0-3C1
  6
DASHED2
 62
     2
100
AcDbLine
 10
2302.02
 20
2364.67
 30
0.0
 11
4302.02
 21
2364.67
 31
0.0
  0
LINE
  5
F5B
330
F2D
100
AcDbEntity
  8
1-SUNPO
  6
CONTINUOUS
 62
     4
100
AcDbLine
 10
1403.44
 20
2099.67
 30
0.0
 11
1763.44
 21
2099.67
 31
0.0
  0
LINE
  5
F5C
330
F2D
100
AcDbEntity
  8
0-3C1
  6
CONTINUOUS
 62
     2
100
AcDbLine
 10
1741.68
 20
2411.21
 30
0.0
 11
1763.44
 21
2724.67
 31
0.0
  0
LINE
  5
F5D
330
F2D
100
AcDbEntity
  8
0-3C1
  6
CONTINUOUS
 62
     2
100
AcDbLine
 10
1425.21
 20
2411.21
 30
0.0
 11
1403.44
 21
2724.67
 31
0.0
  0
LINE
  5
F5E
330
F2D
100
AcDbEntity
  8
0-3C1
  6
CONTINUOUS
 62
     2
100
AcDbLine
 10
1691.799999999999
 20
2364.67
 30
0.0
 11
1475.089999999999
 21
2364.67
 31
0.0
  0
LINE
  5
F5F
330
F2D
100
AcDbEntity
  8
0-3C1
  6
CONTINUOUS
 62
     2
100
AcDbLine
 10
1363.44
 20
2339.67
 30
0.0
 11
1353.44
 21
2724.67
 31
0.0
  0
LINE
  5
F60
330
F2D
100
AcDbEntity
  8
0-3C1
  6
CONTINUOUS
 62
     2
100
AcDbLine
 10
1403.44
 20
2299.67
 30
0.0
 11
1363.44
 21
2339.67
 31
0.0
  0
LINE
  5
F61
330
F2D
100
AcDbEntity
  8
0-3C1
  6
CONTINUOUS
 62
     2
100
AcDbLine
 10
1403.44
 20
2299.67
 30
0.0
 11
1763.44
 21
2299.67
 31
0.0
  0
LINE
  5
F62
330
F2D
100
AcDbEntity
  8
0-3C1
  6
CONTINUOUS
 62
     2
100
AcDbLine
 10
1763.44
 20
2299.67
 30
0.0
 11
1803.44
 21
2339.67
 31
0.0
  0
LINE
  5
F63
330
F2D
100
AcDbEntity
  8
0-3C1
  6
CONTINUOUS
 62
     2
100
AcDbLine
 10
1803.44
 20
2339.67
 30
0.0
 11
1813.439999999999
 21
2724.67
 31
0.0
  0
LINE
  5
F64
330
F2D
100
AcDbEntity
  8
1-KIJUN
  6
CENTER2
 62
     3
100
AcDbLine
 10
1423.44
 20
2724.67
 30
0.0
 11
1743.44
 21
2724.67
 31
0.0
  0
ARC
  5
F65
330
F2D
100
AcDbEntity
  8
1-SUNPO
  6
CONTINUOUS
 62
     4
100
AcDbCircle
 10
1768.44
 20
2304.67
 30
0.0
 40
42.0
100
AcDbArc
 50
353.1624759999998
 51
45.0
  0
ARC
  5
F66
330
F2D
100
AcDbEntity
  8
0-3C1
  6
CONTINUOUS
 62
     2
100
AcDbCircle
 10
1691.799999999999
 20
2414.67
 30
0.0
 40
50.0
100
AcDbArc
 50
270.0
 51
356.027374
  0
ARC
  5
F67
330
F2D
100
AcDbEntity
  8
0-3C1
  6
CONTINUOUS
 62
     2
100
AcDbCircle
 10
1475.089999999999
 20
2414.67
 30
0.0
 40
50.0
100
AcDbArc
 50
183.9726259999999
 51
270.0
  0
MTEXT
  5
F68
330
F2D
100
AcDbEntity
  8
1-SUNPO
 62
     4
100
AcDbMText
 10
1824.51
 20
2307.92
 30
0.0
 40
39.0
 41
0.0
 71
     7
 72
     1
  1
45°
1001
ACAD
1000
MTEXTBEGIN
1070
    73
1070
     1
1070
    44
1040
1.0
1070
    74
1070
     0
1000
MTEXTEND
  0
MTEXT
  5
F69
330
F2D
100
AcDbEntity
  8
1-SUNPO
 62
     4
100
AcDbMText
 10
1640.53
 20
2436.239999999999
 30
0.0
 40
39.0
 41
0.0
 71
     7
 72
     1
  1
\W0.700;50R
1001
ACAD
1000
MTEXTBEGIN
1070
    73
1070
     1
1070
    44
1040
1.0
1070
    74
1070
     0
1000
MTEXTEND
  0
MTEXT
  5
F6A
330
F2D
100
AcDbEntity
  8
1-SUNPO
 62
     4
100
AcDbMText
 10
1353.44
 20
2934.67
 30
0.0
 40
39.0
 41
0.0
 71
     7
 72
     1
  1
\W0.800;50
1001
ACAD
1000
MTEXTBEGIN
1070
    73
1070
     1
1070
    44
1040
1.0
1070
    74
1070
     0
1000
MTEXTEND
  0
MTEXT
  5
F6B
330
F2D
100
AcDbEntity
  8
1-SUNPO
 62
     4
100
AcDbMText
 10
1763.44
 20
2934.67
 30
0.0
 40
39.0
 41
0.0
 71
     7
 72
     1
  1
\W0.800;50
1001
ACAD
1000
MTEXTBEGIN
1070
    73
1070
     1
1070
    44
1040
1.0
1070
    74
1070
     0
1000
MTEXTEND
  0
MTEXT
  5
F6C
330
F2D
100
AcDbEntity
  8
1-SUNPO
 62
     4
100
AcDbMText
 10
1527.88
 20
2507.17
 30
0.0
 40
39.0
 41
0.0
 71
     7
 72
     1
  1
\W0.800;360
 11
0.0
 21
1.0
 31
0.0
1001
ACAD
1000
MTEXTBEGIN
1070
    73
1070
     1
1070
    44
1040
1.0
1070
    74
1070
     0
1000
MTEXTEND
  0
MTEXT
  5
F6D
330
F2D
100
AcDbEntity
  8
1-SUNPO
 62
     4
100
AcDbMText
 10
1527.88
 20
2307.17
 30
0.0
 40
39.0
 41
0.0
 71
     7
 72
     1
  1
\W0.800;65
 11
0.0
 21
1.0
 31
0.0
1001
ACAD
1000
MTEXTBEGIN
1070
    73
1070
     1
1070
    44
1040
1.0
1070
    74
1070
     0
1000
MTEXTEND
  0
MTEXT
  5
F6E
330
F2D
100
AcDbEntity
  8
1-SUNPO
 62
     4
100
AcDbMText
 10
1545.94
 20
2934.67
 30
0.0
 40
39.0
 41
0.0
 71
     7
 72
     1
  1
\W0.800;360
1001
ACAD
1000
MTEXTBEGIN
1070
    73
1070
     1
1070
    44
1040
1.0
1070
    74
1070
     0
1000
MTEXTEND
  0
MTEXT
  5
F6F
330
F2D
100
AcDbEntity
  8
1-SUNPO
 62
     4
100
AcDbMText
 10
1545.94
 20
2109.67
 30
0.0
 40
39.0
 41
0.0
 71
     7
 72
     1
  1
\W0.800;360
1001
ACAD
1000
MTEXTBEGIN
1070
    73
1070
     1
1070
    44
1040
1.0
1070
    74
1070
     0
1000
MTEXTEND
  0
MTEXT
  5
F70
330
F2D
100
AcDbEntity
  8
1-SUNPO
 62
     4
100
AcDbMText
 10
3252.02
 20
2934.67
 30
0.0
 40
39.0
 41
0.0
 71
     7
 72
     1
  1
\W0.800;2000
1001
ACAD
1000
MTEXTBEGIN
1070
    73
1070
     1
1070
    44
1040
1.0
1070
    74
1070
     0
1000
MTEXTEND
  0
POLYLINE
  5
F71
330
F2D
100
AcDbEntity
  8
1-SUNPO
  6
CONTINUOUS
 62
     4
100
AcDb2dPolyline
 66
     1
 10
0.0
 20
0.0
 30
0.0
 70
     1
 40
1600.0
 41
1600.0
  0
VERTEX
  5
12B3
330
F71
100
AcDbEntity
  8
1-SUNPO
  6
CONTINUOUS
 62
     4
100
AcDbVertex
100
AcDb2dVertex
 10
1806.14
 20
2299.67
 30
0.0
 42
1.0
  0
VERTEX
  5
12B4
330
F71
100
AcDbEntity
  8
1-SUNPO
  6
CONTINUOUS
 62
     4
100
AcDbVertex
100
AcDb2dVertex
 10
1814.14
 20
2299.67
 30
0.0
 42
1.0
  0
SEQEND
  5
12B5
330
F71
100
AcDbEntity
  8
1-SUNPO
  6
CONTINUOUS
 62
     4
  0
POLYLINE
  5
F72
330
F2D
100
AcDbEntity
  8
1-SUNPO
  6
CONTINUOUS
 62
     4
100
AcDb2dPolyline
 66
     1
 10
0.0
 20
0.0
 30
0.0
 70
     1
 40
1600.0
 41
1600.0
  0
VERTEX
  5
12B6
330
F72
100
AcDbEntity
  8
1-SUNPO
  6
CONTINUOUS
 62
     4
100
AcDbVertex
100
AcDb2dVertex
 10
1794.14
 20
2334.369999999999
 30
0.0
 42
1.0
  0
VERTEX
  5
12B7
330
F72
100
AcDbEntity
  8
1-SUNPO
  6
CONTINUOUS
 62
     4
100
AcDbVertex
100
AcDb2dVertex
 10
1802.139999999999
 20
2334.369999999999
 30
0.0
 42
1.0
  0
SEQEND
  5
12B8
330
F72
100
AcDbEntity
  8
1-SUNPO
  6
CONTINUOUS
 62
     4
  0
ENDBLK
  5
F74
330
F2D
100
AcDbEntity
  8
0
100
AcDbBlockEnd
  0
BLOCK
  5
104D
330
1007
100
AcDbEntity
  8
0
100
AcDbBlockBegin
  2
LDU450
 70
     0
 10
0.0
 20
0.0
 30
0.0
  3
LDU450
  1

  0
LINE
  5
1008
330
1007
100
AcDbEntity
  8
0-3C1
  6
CONTINUOUS
 62
     2
100
AcDbLine
 10
2502.019999999999
 20
2814.67
 30
0.0
 11
4502.02
 21
2814.67
 31
0.0
  0
LINE
  5
1009
330
1007
100
AcDbEntity
  8
1-SUNPO
  6
CONTINUOUS
 62
     4
100
AcDbLine
 10
1303.44
 20
2842.119999999999
 30
0.0
 11
1303.44
 21
3014.67
 31
0.0
  0
LINE
  5
100A
330
1007
100
AcDbEntity
  8
1-SUNPO
  6
CONTINUOUS
 62
     4
100
AcDbLine
 10
1358.44
 20
2842.119999999999
 30
0.0
 11
1358.44
 21
3014.67
 31
0.0
  0
LINE
  5
100B
330
1007
100
AcDbEntity
  8
1-SUNPO
  6
CONTINUOUS
 62
     4
100
AcDbLine
 10
1808.44
 20
2842.119999999999
 30
0.0
 11
1808.44
 21
3014.67
 31
0.0
  0
LINE
  5
100C
330
1007
100
AcDbEntity
  8
1-SUNPO
  6
CONTINUOUS
 62
     4
100
AcDbLine
 10
1863.439999999999
 20
2842.119999999999
 30
0.0
 11
1863.439999999999
 21
3014.67
 31
0.0
  0
LINE
  5
100D
330
1007
100
AcDbEntity
  8
1-SUNPO
  6
CONTINUOUS
 62
     4
100
AcDbLine
 10
2502.019999999999
 20
3014.67
 30
0.0
 11
4502.02
 21
3014.67
 31
0.0
  0
LINE
  5
100E
330
1007
100
AcDbEntity
  8
1-SUNPO
  6
CONTINUOUS
 62
     4
100
AcDbLine
 10
2502.019999999999
 20
2842.119999999999
 30
0.0
 11
2502.019999999999
 21
3014.67
 31
0.0
  0
LINE
  5
100F
330
1007
100
AcDbEntity
  8
1-SUNPO
  6
CONTINUOUS
 62
     4
100
AcDbLine
 10
4502.02
 20
2842.119999999999
 30
0.0
 11
4502.02
 21
3014.67
 31
0.0
  0
LINE
  5
1010
330
1007
100
AcDbEntity
  8
1-SUNPO
  6
CONTINUOUS
 62
     4
100
AcDbLine
 10
1358.44
 20
2267.8
 30
0.0
 11
1358.44
 21
2094.67
 31
0.0
  0
LINE
  5
1011
330
1007
100
AcDbEntity
  8
1-SUNPO
  6
CONTINUOUS
 62
     4
100
AcDbLine
 10
1808.44
 20
2267.8
 30
0.0
 11
1808.44
 21
2094.67
 31
0.0
  0
LINE
  5
1012
330
1007
100
AcDbEntity
  8
1-SUNPO
  6
CONTINUOUS
 62
     4
100
AcDbLine
 10
1772.26
 20
2391.42
 30
0.0
 11
1746.28
 21
2406.42
 31
0.0
  0
LINE
  5
1013
330
1007
100
AcDbEntity
  8
1-SUNPO
  6
CONTINUOUS
 62
     4
100
AcDbLine
 10
1772.26
 20
2391.42
 30
0.0
 11
1757.26
 21
2417.4
 31
0.0
  0
LINE
  5
1014
330
1007
100
AcDbEntity
  8
1-SUNPO
  6
CONTINUOUS
 62
     4
100
AcDbLine
 10
1816.159999999999
 20
2294.669999999999
 30
0.0
 11
1971.01
 21
2294.669999999999
 31
0.0
  0
LINE
  5
1015
330
1007
100
AcDbEntity
  8
1-SUNPO
  6
CONTINUOUS
 62
     4
100
AcDbLine
 10
1339.13
 20
3009.5
 30
0.0
 11
1377.76
 21
3019.849999999999
 31
0.0
  0
LINE
  5
1016
330
1007
100
AcDbEntity
  8
1-SUNPO
  6
CONTINUOUS
 62
     4
100
AcDbLine
 10
1339.13
 20
3019.849999999999
 30
0.0
 11
1377.76
 21
3009.5
 31
0.0
  0
LINE
  5
1017
330
1007
100
AcDbEntity
  8
1-SUNPO
  6
CONTINUOUS
 62
     4
100
AcDbLine
 10
1303.44
 20
3014.67
 30
0.0
 11
1322.76
 21
3019.849999999999
 31
0.0
  0
LINE
  5
1018
330
1007
100
AcDbEntity
  8
1-SUNPO
  6
CONTINUOUS
 62
     4
100
AcDbLine
 10
1303.44
 20
3014.67
 30
0.0
 11
1322.76
 21
3009.5
 31
0.0
  0
LINE
  5
1019
330
1007
100
AcDbEntity
  8
1-SUNPO
  6
CONTINUOUS
 62
     4
100
AcDbLine
 10
1789.13
 20
3009.5
 30
0.0
 11
1827.759999999999
 21
3019.849999999999
 31
0.0
  0
LINE
  5
101A
330
1007
100
AcDbEntity
  8
1-SUNPO
  6
CONTINUOUS
 62
     4
100
AcDbLine
 10
1789.13
 20
3019.849999999999
 30
0.0
 11
1827.759999999999
 21
3009.5
 31
0.0
  0
LINE
  5
101B
330
1007
100
AcDbEntity
  8
1-SUNPO
  6
CONTINUOUS
 62
     4
100
AcDbLine
 10
1863.439999999999
 20
3014.67
 30
0.0
 11
1844.13
 21
3019.849999999999
 31
0.0
  0
LINE
  5
101C
330
1007
100
AcDbEntity
  8
1-SUNPO
  6
CONTINUOUS
 62
     4
100
AcDbLine
 10
1863.439999999999
 20
3014.67
 30
0.0
 11
1844.13
 21
3009.5
 31
0.0
  0
LINE
  5
101D
330
1007
100
AcDbEntity
  8
1-SUNPO
  6
CONTINUOUS
 62
     4
100
AcDbLine
 10
1358.44
 20
2094.67
 30
0.0
 11
1377.76
 21
2099.849999999999
 31
0.0
  0
LINE
  5
101E
330
1007
100
AcDbEntity
  8
1-SUNPO
  6
CONTINUOUS
 62
     4
100
AcDbLine
 10
1358.44
 20
2094.67
 30
0.0
 11
1377.76
 21
2089.5
 31
0.0
  0
LINE
  5
101F
330
1007
100
AcDbEntity
  8
1-SUNPO
  6
CONTINUOUS
 62
     4
100
AcDbLine
 10
1808.44
 20
2094.67
 30
0.0
 11
1789.13
 21
2099.849999999999
 31
0.0
  0
LINE
  5
1020
330
1007
100
AcDbEntity
  8
1-SUNPO
  6
CONTINUOUS
 62
     4
100
AcDbLine
 10
1808.44
 20
2094.67
 30
0.0
 11
1789.13
 21
2089.5
 31
0.0
  0
LINE
  5
1021
330
1007
100
AcDbEntity
  8
1-SUNPO
  6
CONTINUOUS
 62
     4
100
AcDbLine
 10
1532.7
 20
2383.989999999998
 30
0.0
 11
1543.06
 21
2345.349999999999
 31
0.0
  0
LINE
  5
1022
330
1007
100
AcDbEntity
  8
1-SUNPO
  6
CONTINUOUS
 62
     4
100
AcDbLine
 10
1543.06
 20
2383.989999999998
 30
0.0
 11
1532.7
 21
2345.349999999999
 31
0.0
  0
LINE
  5
1023
330
1007
100
AcDbEntity
  8
1-SUNPO
  6
CONTINUOUS
 62
     4
100
AcDbLine
 10
1537.88
 20
2294.669999999999
 30
0.0
 11
1543.06
 21
2313.989999999999
 31
0.0
  0
LINE
  5
1024
330
1007
100
AcDbEntity
  8
1-SUNPO
  6
CONTINUOUS
 62
     4
100
AcDbLine
 10
1537.88
 20
2294.669999999999
 30
0.0
 11
1532.7
 21
2313.989999999999
 31
0.0
  0
LINE
  5
1025
330
1007
100
AcDbEntity
  8
1-SUNPO
  6
CONTINUOUS
 62
     4
100
AcDbLine
 10
1537.88
 20
2814.67
 30
0.0
 11
1543.06
 21
2795.35
 31
0.0
  0
LINE
  5
1026
330
1007
100
AcDbEntity
  8
1-SUNPO
  6
CONTINUOUS
 62
     4
100
AcDbLine
 10
1537.88
 20
2814.67
 30
0.0
 11
1532.7
 21
2795.35
 31
0.0
  0
LINE
  5
1027
330
1007
100
AcDbEntity
  8
1-SUNPO
  6
CONTINUOUS
 62
     4
100
AcDbLine
 10
2502.019999999999
 20
3014.67
 30
0.0
 11
2521.33
 21
3019.849999999999
 31
0.0
  0
LINE
  5
1028
330
1007
100
AcDbEntity
  8
1-SUNPO
  6
CONTINUOUS
 62
     4
100
AcDbLine
 10
2502.019999999999
 20
3014.67
 30
0.0
 11
2521.33
 21
3009.5
 31
0.0
  0
LINE
  5
1029
330
1007
100
AcDbEntity
  8
1-SUNPO
  6
CONTINUOUS
 62
     4
100
AcDbLine
 10
4502.02
 20
3014.67
 30
0.0
 11
4482.7
 21
3019.849999999999
 31
0.0
  0
LINE
  5
102A
330
1007
100
AcDbEntity
  8
1-SUNPO
  6
CONTINUOUS
 62
     4
100
AcDbLine
 10
4502.02
 20
3014.67
 30
0.0
 11
4482.7
 21
3009.5
 31
0.0
  0
LINE
  5
102B
330
1007
100
AcDbEntity
  8
1-SUNPO
  6
CONTINUOUS
 62
     4
100
AcDbLine
 10
1772.26
 20
2391.42
 30
0.0
 11
1728.41
 21
2435.27
 31
0.0
  0
LINE
  5
102C
330
1007
100
AcDbEntity
  8
0-3C1
  6
CONTINUOUS
 62
     2
100
AcDbLine
 10
2502.019999999999
 20
2299.67
 30
0.0
 11
4502.02
 21
2299.67
 31
0.0
  0
LINE
  5
102D
330
1007
100
AcDbEntity
  8
0-3C1
  6
CONTINUOUS
 62
     2
100
AcDbLine
 10
1303.44
 20
2814.67
 30
0.0
 11
1358.44
 21
2814.67
 31
0.0
  0
LINE
  5
102E
330
1007
100
AcDbEntity
  8
0-3C1
  6
CONTINUOUS
 62
     2
100
AcDbLine
 10
2502.019999999999
 20
2814.67
 30
0.0
 11
2502.019999999999
 21
2299.67
 31
0.0
  0
LINE
  5
102F
330
1007
100
AcDbEntity
  8
0-3C1
  6
CONTINUOUS
 62
     2
100
AcDbLine
 10
4502.02
 20
2814.67
 30
0.0
 11
4502.02
 21
2299.67
 31
0.0
  0
LINE
  5
1030
330
1007
100
AcDbEntity
  8
1-SUNPO
  6
CONTINUOUS
 62
     4
100
AcDbLine
 10
1303.44
 20
3014.67
 30
0.0
 11
1863.439999999999
 21
3014.67
 31
0.0
  0
LINE
  5
1031
330
1007
100
AcDbEntity
  8
0-3C1
  6
CONTINUOUS
 62
     2
100
AcDbLine
 10
1863.439999999999
 20
2814.67
 30
0.0
 11
1808.44
 21
2814.67
 31
0.0
  0
LINE
  5
1032
330
1007
100
AcDbEntity
  8
1-SUNPO
  6
CONTINUOUS
 62
     4
100
AcDbLine
 10
1358.44
 20
2094.67
 30
0.0
 11
1808.44
 21
2094.67
 31
0.0
  0
LINE
  5
1033
330
1007
100
AcDbEntity
  8
0-3C1
  6
CONTINUOUS
 62
     2
100
AcDbLine
 10
1358.44
 20
2294.669999999999
 30
0.0
 11
1808.44
 21
2294.669999999999
 31
0.0
  0
LINE
  5
1034
330
1007
100
AcDbEntity
  8
0-3C1
  6
CONTINUOUS
 62
     2
100
AcDbLine
 10
1358.44
 20
2294.669999999999
 30
0.0
 11
1313.44
 21
2339.67
 31
0.0
  0
LINE
  5
1035
330
1007
100
AcDbEntity
  8
0-3C1
  6
CONTINUOUS
 62
     2
100
AcDbLine
 10
1303.44
 20
2814.67
 30
0.0
 11
1313.44
 21
2339.67
 31
0.0
  0
LINE
  5
1036
330
1007
100
AcDbEntity
  8
0-3C1
  6
CONTINUOUS
 62
     2
100
AcDbLine
 10
1379.77
 20
2430.79
 30
0.0
 11
1358.44
 21
2814.67
 31
0.0
  0
LINE
  5
1037
330
1007
100
AcDbEntity
  8
0-3C1
  6
CONTINUOUS
 62
     2
100
AcDbLine
 10
1449.66
 20
2364.67
 30
0.0
 11
1717.22
 21
2364.67
 31
0.0
  0
LINE
  5
1038
330
1007
100
AcDbEntity
  8
0-3C1
  6
CONTINUOUS
 62
     2
100
AcDbLine
 10
1787.119999999999
 20
2430.79
 30
0.0
 11
1808.44
 21
2814.67
 31
0.0
  0
LINE
  5
1039
330
1007
100
AcDbEntity
  8
1-KIJUN
  6
CENTER2
 62
     3
100
AcDbLine
 10
1378.44
 20
2814.67
 30
0.0
 11
1788.44
 21
2814.67
 31
0.0
  0
LINE
  5
103A
330
1007
100
AcDbEntity
  8
1-SUNPO
  6
CONTINUOUS
 62
     4
100
AcDbLine
 10
1537.88
 20
2814.67
 30
0.0
 11
1537.88
 21
2294.669999999999
 31
0.0
  0
LINE
  5
103B
330
1007
100
AcDbEntity
  8
0-3C1
  6
CONTINUOUS
 62
     2
100
AcDbLine
 10
1808.44
 20
2294.669999999999
 30
0.0
 11
1853.44
 21
2339.67
 31
0.0
  0
LINE
  5
103C
330
1007
100
AcDbEntity
  8
0-3C1
  6
CONTINUOUS
 62
     2
100
AcDbLine
 10
1863.439999999999
 20
2814.67
 30
0.0
 11
1853.44
 21
2339.67
 31
0.0
  0
LINE
  5
103D
330
1007
100
AcDbEntity
  8
0-3C1
  6
CONTINUOUS
 62
     2
100
AcDbLine
 10
2502.019999999999
 20
2339.67
 30
0.0
 11
4502.02
 21
2339.67
 31
0.0
  0
LINE
  5
103E
330
1007
100
AcDbEntity
  8
0-3C1
  6
DASHED2
 62
     2
100
AcDbLine
 10
2502.019999999999
 20
2364.67
 30
0.0
 11
4502.02
 21
2364.67
 31
0.0
  0
ARC
  5
103F
330
1007
100
AcDbEntity
  8
1-SUNPO
  6
CONTINUOUS
 62
     4
100
AcDbCircle
 10
1813.439999999999
 20
2299.67
 30
0.0
 40
42.0
100
AcDbArc
 50
353.1624759999998
 51
45.0
  0
ARC
  5
1040
330
1007
100
AcDbEntity
  8
0-3C1
  6
CONTINUOUS
 62
     2
100
AcDbCircle
 10
1449.66
 20
2434.67
 30
0.0
 40
70.0
100
AcDbArc
 50
183.17981
 51
270.0
  0
ARC
  5
1041
330
1007
100
AcDbEntity
  8
0-3C1
  6
CONTINUOUS
 62
     2
100
AcDbCircle
 10
1717.22
 20
2434.67
 30
0.0
 40
70.0
100
AcDbArc
 50
270.0
 51
356.8201899999998
  0
MTEXT
  5
1042
330
1007
100
AcDbEntity
  8
1-SUNPO
 62
     4
100
AcDbMText
 10
1869.51
 20
2302.919999999999
 30
0.0
 40
39.0
 41
0.0
 71
     7
 72
     1
  1
45°
1001
ACAD
1000
MTEXTBEGIN
1070
    73
1070
     1
1070
    44
1040
1.0
1070
    74
1070
     0
1000
MTEXTEND
  0
MTEXT
  5
1043
330
1007
100
AcDbEntity
  8
1-SUNPO
 62
     4
100
AcDbMText
 10
1527.88
 20
2304.67
 30
0.0
 40
39.0
 41
0.0
 71
     7
 72
     1
  1
\W0.800;70
 11
0.0
 21
1.0
 31
0.0
1001
ACAD
1000
MTEXTBEGIN
1070
    73
1070
     1
1070
    44
1040
1.0
1070
    74
1070
     0
1000
MTEXTEND
  0
MTEXT
  5
1044
330
1007
100
AcDbEntity
  8
1-SUNPO
 62
     4
100
AcDbMText
 10
1527.88
 20
2552.17
 30
0.0
 40
39.0
 41
0.0
 71
     7
 72
     1
  1
\W0.800;450
 11
0.0
 21
1.0
 31
0.0
1001
ACAD
1000
MTEXTBEGIN
1070
    73
1070
     1
1070
    44
1040
1.0
1070
    74
1070
     0
1000
MTEXTEND
  0
MTEXT
  5
1045
330
1007
100
AcDbEntity
  8
1-SUNPO
 62
     4
100
AcDbMText
 10
1305.94
 20
3024.67
 30
0.0
 40
39.0
 41
0.0
 71
     7
 72
     1
  1
\W0.800;55
1001
ACAD
1000
MTEXTBEGIN
1070
    73
1070
     1
1070
    44
1040
1.0
1070
    74
1070
     0
1000
MTEXTEND
  0
MTEXT
  5
1046
330
1007
100
AcDbEntity
  8
1-SUNPO
 62
     4
100
AcDbMText
 10
1545.94
 20
3024.67
 30
0.0
 40
39.0
 41
0.0
 71
     7
 72
     1
  1
\W0.800;450
1001
ACAD
1000
MTEXTBEGIN
1070
    73
1070
     1
1070
    44
1040
1.0
1070
    74
1070
     0
1000
MTEXTEND
  0
MTEXT
  5
1047
330
1007
100
AcDbEntity
  8
1-SUNPO
 62
     4
100
AcDbMText
 10
1810.94
 20
3024.67
 30
0.0
 40
39.0
 41
0.0
 71
     7
 72
     1
  1
\W0.800;55
1001
ACAD
1000
MTEXTBEGIN
1070
    73
1070
     1
1070
    44
1040
1.0
1070
    74
1070
     0
1000
MTEXTEND
  0
MTEXT
  5
1048
330
1007
100
AcDbEntity
  8
1-SUNPO
 62
     4
100
AcDbMText
 10
1652.779999999999
 20
2443.91
 30
0.0
 40
39.0
 41
0.0
 71
     7
 72
     1
  1
\W0.700;70R
1001
ACAD
1000
MTEXTBEGIN
1070
    73
1070
     1
1070
    44
1040
1.0
1070
    74
1070
     0
1000
MTEXTEND
  0
MTEXT
  5
1049
330
1007
100
AcDbEntity
  8
1-SUNPO
 62
     4
100
AcDbMText
 10
1545.94
 20
2104.67
 30
0.0
 40
39.0
 41
0.0
 71
     7
 72
     1
  1
\W0.800;450
1001
ACAD
1000
MTEXTBEGIN
1070
    73
1070
     1
1070
    44
1040
1.0
1070
    74
1070
     0
1000
MTEXTEND
  0
MTEXT
  5
104A
330
1007
100
AcDbEntity
  8
1-SUNPO
 62
     4
100
AcDbMText
 10
3452.02
 20
3024.67
 30
0.0
 40
39.0
 41
0.0
 71
     7
 72
     1
  1
\W0.800;2000
1001
ACAD
1000
MTEXTBEGIN
1070
    73
1070
     1
1070
    44
1040
1.0
1070
    74
1070
     0
1000
MTEXTEND
  0
POLYLINE
  5
104B
330
1007
100
AcDbEntity
  8
1-SUNPO
  6
CONTINUOUS
 62
     4
100
AcDb2dPolyline
 66
     1
 10
0.0
 20
0.0
 30
0.0
 70
     1
 40
1600.0
 41
1600.0
  0
VERTEX
  5
12B9
330
104B
100
AcDbEntity
  8
1-SUNPO
  6
CONTINUOUS
 62
     4
100
AcDbVertex
100
AcDb2dVertex
 10
1851.14
 20
2294.669999999999
 30
0.0
 42
1.0
  0
VERTEX
  5
12BA
330
104B
100
AcDbEntity
  8
1-SUNPO
  6
CONTINUOUS
 62
     4
100
AcDbVertex
100
AcDb2dVertex
 10
1859.14
 20
2294.669999999999
 30
0.0
 42
1.0
  0
SEQEND
  5
12BB
330
104B
100
AcDbEntity
  8
1-SUNPO
  6
CONTINUOUS
 62
     4
  0
POLYLINE
  5
104C
330
1007
100
AcDbEntity
  8
1-SUNPO
  6
CONTINUOUS
 62
     4
100
AcDb2dPolyline
 66
     1
 10
0.0
 20
0.0
 30
0.0
 70
     1
 40
1600.0
 41
1600.0
  0
VERTEX
  5
12BC
330
104C
100
AcDbEntity
  8
1-SUNPO
  6
CONTINUOUS
 62
     4
100
AcDbVertex
100
AcDb2dVertex
 10
1839.14
 20
2329.369999999999
 30
0.0
 42
1.0
  0
VERTEX
  5
12BD
330
104C
100
AcDbEntity
  8
1-SUNPO
  6
CONTINUOUS
 62
     4
100
AcDbVertex
100
AcDb2dVertex
 10
1847.14
 20
2329.369999999999
 30
0.0
 42
1.0
  0
SEQEND
  5
12BE
330
104C
100
AcDbEntity
  8
1-SUNPO
  6
CONTINUOUS
 62
     4
  0
ENDBLK
  5
104E
330
1007
100
AcDbEntity
  8
0
100
AcDbBlockEnd
  0
BLOCK
  5
11D2
330
11C8
100
AcDbEntity
  8
0
100
AcDbBlockBegin
  2
*D8
 70
     1
 10
0.0
 20
0.0
 30
0.0
  3
*D8
  1

  0
LINE
  5
11D4
330
11C8
100
AcDbEntity
  8
MOJI
 62
   144
100
AcDbLine
 10
1440.607001743551
 20
1915.360305913504
 30
0.0
 11
1440.607001743551
 21
1734.832073445966
 31
0.0
  0
LINE
  5
11D5
330
11C8
100
AcDbEntity
  8
MOJI
 62
   144
100
AcDbLine
 10
1870.607001743551
 20
1915.360305913504
 30
0.0
 11
1870.607001743551
 21
1734.832073445966
 31
0.0
  0
LINE
  5
11D6
330
11C8
100
AcDbEntity
  8
MOJI
 62
   144
100
AcDbLine
 10
1490.607001743551
 20
1744.832073445966
 30
0.0
 11
1820.607001743551
 21
1744.832073445966
 31
0.0
  0
SOLID
  5
11D7
330
11C8
100
AcDbEntity
  8
MOJI
 62
   144
100
AcDbTrace
 10
1490.607001743551
 20
1753.1654067793
 30
0.0
 11
1490.607001743551
 21
1736.498740112633
 31
0.0
 12
1440.607001743551
 22
1744.832073445966
 32
0.0
 13
1440.607001743551
 23
1744.832073445966
 33
0.0
  0
SOLID
  5
11D8
330
11C8
100
AcDbEntity
  8
MOJI
 62
   144
100
AcDbTrace
 10
1820.607001743551
 20
1753.1654067793
 30
0.0
 11
1820.607001743551
 21
1736.498740112633
 31
0.0
 12
1870.607001743551
 22
1744.832073445966
 32
0.0
 13
1870.607001743551
 23
1744.832073445966
 33
0.0
  0
MTEXT
  5
11D9
330
11C8
100
AcDbEntity
  8
MOJI
 62
     7
100
AcDbMText
 10
1655.607001743551
 20
1782.332073445966
 30
0.0
 40
50.0
 41
0.0
 71
     5
 72
     1
  1
\A2;430
  7
ADD
1001
ACAD
1000
MTEXTBEGIN
1070
    73
1070
     1
1070
    44
1040
1.0
1070
    74
1070
     0
1000
MTEXTEND
  0
POINT
  5
11DA
330
11C8
100
AcDbEntity
  8
DEFPOINTS
 62
     0
100
AcDbPoint
 10
1440.607001743551
 20
1935.360305913505
 30
0.0
  0
POINT
  5
11DB
330
11C8
100
AcDbEntity
  8
DEFPOINTS
 62
     0
100
AcDbPoint
 10
1870.607001743551
 20
1935.360305913504
 30
0.0
  0
POINT
  5
11DC
330
11C8
100
AcDbEntity
  8
DEFPOINTS
 62
     0
100
AcDbPoint
 10
1870.607001743551
 20
1744.832073445966
 30
0.0
  0
ENDBLK
  5
11D3
330
11C8
100
AcDbEntity
  8
0
100
AcDbBlockEnd
  0
BLOCK
  5
11F7
330
11F3
100
AcDbEntity
  8
0
100
AcDbBlockBegin
  2
_OPEN
 70
     0
 10
0.0
 20
0.0
 30
0.0
  3
_OPEN
  1

  0
LINE
  5
11F4
330
11F3
100
AcDbEntity
  8
0
  6
BYBLOCK
 62
     0
100
AcDbLine
 10
-1.0
 20
0.1666666666666666
 30
0.0
 11
0.0
 21
0.0
 31
0.0
  0
LINE
  5
11F5
330
11F3
100
AcDbEntity
  8
0
  6
BYBLOCK
 62
     0
100
AcDbLine
 10
-1.0
 20
-0.1666666666666666
 30
0.0
 11
0.0
 21
0.0
 31
0.0
  0
LINE
  5
11F6
330
11F3
100
AcDbEntity
  8
0
  6
BYBLOCK
 62
     0
100
AcDbLine
 10
0.0
 20
0.0
 30
0.0
 11
-1.0
 21
0.0
 31
0.0
  0
ENDBLK
  5
11F8
330
11F3
100
AcDbEntity
  8
0
100
AcDbBlockEnd
  0
BLOCK
  5
11FE
330
11F9
100
AcDbEntity
  8
0
100
AcDbBlockBegin
  2
_CLOSED
 70
     0
 10
0.0
 20
0.0
 30
0.0
  3
_CLOSED
  1

  0
LINE
  5
11FA
330
11F9
100
AcDbEntity
  8
0
  6
BYBLOCK
 62
     0
100
AcDbLine
 10
-1.0
 20
0.1666666666666666
 30
0.0
 11
0.0
 21
0.0
 31
0.0
  0
LINE
  5
11FB
330
11F9
100
AcDbEntity
  8
0
  6
BYBLOCK
 62
     0
100
AcDbLine
 10
0.0
 20
0.0
 30
0.0
 11
-1.0
 21
-0.1666666666666666
 31
0.0
  0
LINE
  5
11FC
330
11F9
100
AcDbEntity
  8
0
  6
BYBLOCK
 62
     0
100
AcDbLine
 10
-1.0
 20
0.1666666666666666
 30
0.0
 11
-1.0
 21
-0.1666666666666666
 31
0.0
  0
LINE
  5
11FD
330
11F9
100
AcDbEntity
  8
0
  6
BYBLOCK
 62
     0
100
AcDbLine
 10
0.0
 20
0.0
 30
0.0
 11
-1.0
 21
0.0
 31
0.0
  0
ENDBLK
  5
11FF
330
11F9
100
AcDbEntity
  8
0
100
AcDbBlockEnd
  0
BLOCK
  5
120B
330
1201
100
AcDbEntity
  8
0
100
AcDbBlockBegin
  2
*D11
 70
     1
 10
0.0
 20
0.0
 30
0.0
  3
*D11
  1

  0
LINE
  5
1202
330
1201
100
AcDbEntity
  8
MOJI
 62
   144
100
AcDbLine
 10
1440.607001743551
 20
1915.360305913504
 30
0.0
 11
1440.607001743551
 21
1706.831747409385
 31
0.0
  0
LINE
  5
1203
330
1201
100
AcDbEntity
  8
MOJI
 62
   144
100
AcDbLine
 10
1870.607001743551
 20
1915.360305913504
 30
0.0
 11
1870.607001743551
 21
1706.831747409385
 31
0.0
  0
LINE
  5
1204
330
1201
100
AcDbEntity
  8
MOJI
 62
   144
100
AcDbLine
 10
1490.607001743551
 20
1716.831747409385
 30
0.0
 11
1820.607001743551
 21
1716.831747409385
 31
0.0
  0
INSERT
  5
1205
330
1201
100
AcDbEntity
  8
MOJI
 62
   144
100
AcDbBlockReference
  2
_OPEN
 10
1440.607001743551
 20
1716.831747409385
 30
0.0
 41
50.0
 42
50.0
 43
50.0
 50
180.0
  0
INSERT
  5
1206
330
1201
100
AcDbEntity
  8
MOJI
 62
   144
100
AcDbBlockReference
  2
_OPEN
 10
1870.607001743551
 20
1716.831747409385
 30
0.0
 41
50.0
 42
50.0
 43
50.0
  0
MTEXT
  5
1207
330
1201
100
AcDbEntity
  8
MOJI
 62
     7
100
AcDbMText
 10
1655.607001743551
 20
1754.331747409385
 30
0.0
 40
50.0
 41
0.0
 71
     5
 72
     1
  1
\A2;430
  7
ADD
1001
ACAD
1000
MTEXTBEGIN
1070
    73
1070
     1
1070
    44
1040
1.0
1070
    74
1070
     0
1000
MTEXTEND
  0
POINT
  5
1208
330
1201
100
AcDbEntity
  8
DEFPOINTS
 62
     0
100
AcDbPoint
 10
1440.607001743551
 20
1935.360305913505
 30
0.0
  0
POINT
  5
1209
330
1201
100
AcDbEntity
  8
DEFPOINTS
 62
     0
100
AcDbPoint
 10
1870.607001743551
 20
1935.360305913504
 30
0.0
  0
POINT
  5
120A
330
1201
100
AcDbEntity
  8
DEFPOINTS
 62
     0
100
AcDbPoint
 10
1870.607001743551
 20
1716.831747409385
 30
0.0
  0
ENDBLK
  5
120C
330
1201
100
AcDbEntity
  8
0
100
AcDbBlockEnd
  0
ENDSEC
  0
SECTION
  2
ENTITIES
  0
LINE
  5
60A
330
1F
100
AcDbEntity
  8
HOJO
100
AcDbLine
 10
360.0
 20
260.0
 30
0.0
 11
5580.0
 21
260.0
 31
0.0
  0
LINE
  5
60B
330
1F
100
AcDbEntity
  8
HOJO
100
AcDbLine
 10
360.0
 20
560.0
 30
0.0
 11
5580.0
 21
560.0
 31
0.0
  0
LINE
  5
60C
330
1F
100
AcDbEntity
  8
HOJO
100
AcDbLine
 10
360.0
 20
260.0
 30
0.0
 11
360.0
 21
560.0
 31
0.0
  0
LINE
  5
60D
330
1F
100
AcDbEntity
  8
HOJO
100
AcDbLine
 10
2360.0
 20
260.0
 30
0.0
 11
2360.0
 21
560.0
 31
0.0
  0
LINE
  5
60F
330
1F
100
AcDbEntity
  8
HOJO
100
AcDbLine
 10
3160.0
 20
260.0
 30
0.0
 11
3160.0
 21
560.0
 31
0.0
  0
LINE
  5
610
330
1F
100
AcDbEntity
  8
HOJO
100
AcDbLine
 10
3660.0
 20
260.0
 30
0.0
 11
3660.0
 21
560.0
 31
0.0
  0
LINE
  5
10E1
330
1F
100
AcDbEntity
  8
0-3C1
  6
CONTINUOUS
 62
   250
100
AcDbLine
 10
2574.187001743551
 20
2455.360305913505
 30
0.0
 11
4574.187001743552
 21
2455.360305913505
 31
0.0
  0
LINE
  5
10E2
330
1F
100
AcDbEntity
  8
1-SUNPO
  6
CONTINUOUS
 62
   250
100
AcDbLine
 10
1375.607001743551
 20
2482.810305913504
 30
0.0
 11
1375.607001743551
 21
2655.360305913506
 31
0.0
  0
LINE
  5
10E3
330
1F
100
AcDbEntity
  8
1-SUNPO
  6
CONTINUOUS
 62
   250
100
AcDbLine
 10
1430.607001743551
 20
2482.810305913504
 30
0.0
 11
1430.607001743551
 21
2655.360305913506
 31
0.0
  0
LINE
  5
10E4
330
1F
100
AcDbEntity
  8
1-SUNPO
  6
CONTINUOUS
 62
   250
100
AcDbLine
 10
1880.607001743552
 20
2482.810305913504
 30
0.0
 11
1880.607001743552
 21
2655.360305913506
 31
0.0
  0
LINE
  5
10E5
330
1F
100
AcDbEntity
  8
1-SUNPO
  6
CONTINUOUS
 62
   250
100
AcDbLine
 10
1935.607001743551
 20
2482.810305913504
 30
0.0
 11
1935.607001743551
 21
2655.360305913506
 31
0.0
  0
LINE
  5
10E6
330
1F
100
AcDbEntity
  8
1-SUNPO
  6
CONTINUOUS
 62
   250
100
AcDbLine
 10
2574.187001743551
 20
2655.360305913506
 30
0.0
 11
4574.187001743552
 21
2655.360305913506
 31
0.0
  0
LINE
  5
10E7
330
1F
100
AcDbEntity
  8
1-SUNPO
  6
CONTINUOUS
 62
   250
100
AcDbLine
 10
2574.187001743551
 20
2482.810305913504
 30
0.0
 11
2574.187001743551
 21
2655.360305913506
 31
0.0
  0
LINE
  5
10E8
330
1F
100
AcDbEntity
  8
1-SUNPO
  6
CONTINUOUS
 62
   250
100
AcDbLine
 10
4574.187001743552
 20
2482.810305913504
 30
0.0
 11
4574.187001743552
 21
2655.360305913506
 31
0.0
  0
LINE
  5
10EB
330
1F
100
AcDbEntity
  8
1-SUNPO
  6
CONTINUOUS
 62
   250
100
AcDbLine
 10
1844.427001743551
 20
2032.110305913505
 30
0.0
 11
1818.447001743551
 21
2047.110305913505
 31
0.0
  0
LINE
  5
10EC
330
1F
100
AcDbEntity
  8
1-SUNPO
  6
CONTINUOUS
 62
   250
100
AcDbLine
 10
1844.427001743551
 20
2032.110305913505
 30
0.0
 11
1829.427001743551
 21
2058.090305913505
 31
0.0
  0
LINE
  5
10ED
330
1F
100
AcDbEntity
  8
1-SUNPO
  6
CONTINUOUS
 62
   250
100
AcDbLine
 10
1870.535396184118
 20
1935.360305913504
 30
0.0
 11
2025.385396184119
 21
1935.360305913504
 31
0.0
  0
LINE
  5
10EE
330
1F
100
AcDbEntity
  8
1-SUNPO
  6
CONTINUOUS
 62
   250
100
AcDbLine
 10
1411.297001743552
 20
2650.190305913505
 30
0.0
 11
1449.927001743551
 21
2660.540305913504
 31
0.0
  0
LINE
  5
10EF
330
1F
100
AcDbEntity
  8
1-SUNPO
  6
CONTINUOUS
 62
   250
100
AcDbLine
 10
1411.297001743552
 20
2660.540305913504
 30
0.0
 11
1449.927001743551
 21
2650.190305913505
 31
0.0
  0
LINE
  5
10F0
330
1F
100
AcDbEntity
  8
1-SUNPO
  6
CONTINUOUS
 62
   250
100
AcDbLine
 10
1375.607001743551
 20
2655.360305913506
 30
0.0
 11
1394.927001743551
 21
2660.540305913504
 31
0.0
  0
LINE
  5
10F1
330
1F
100
AcDbEntity
  8
1-SUNPO
  6
CONTINUOUS
 62
   250
100
AcDbLine
 10
1375.607001743551
 20
2655.360305913506
 30
0.0
 11
1394.927001743551
 21
2650.190305913505
 31
0.0
  0
LINE
  5
10F2
330
1F
100
AcDbEntity
  8
1-SUNPO
  6
CONTINUOUS
 62
   250
100
AcDbLine
 10
1861.297001743551
 20
2650.190305913505
 30
0.0
 11
1899.927001743551
 21
2660.540305913504
 31
0.0
  0
LINE
  5
10F3
330
1F
100
AcDbEntity
  8
1-SUNPO
  6
CONTINUOUS
 62
   250
100
AcDbLine
 10
1861.297001743551
 20
2660.540305913504
 30
0.0
 11
1899.927001743551
 21
2650.190305913505
 31
0.0
  0
LINE
  5
10F4
330
1F
100
AcDbEntity
  8
1-SUNPO
  6
CONTINUOUS
 62
   250
100
AcDbLine
 10
1935.607001743551
 20
2655.360305913506
 30
0.0
 11
1916.297001743552
 21
2660.540305913504
 31
0.0
  0
LINE
  5
10F5
330
1F
100
AcDbEntity
  8
1-SUNPO
  6
CONTINUOUS
 62
   250
100
AcDbLine
 10
1935.607001743551
 20
2655.360305913506
 30
0.0
 11
1916.297001743552
 21
2650.190305913505
 31
0.0
  0
LINE
  5
10FA
330
1F
100
AcDbEntity
  8
1-SUNPO
  6
CONTINUOUS
 62
   250
100
AcDbLine
 10
1604.867001743552
 20
2024.680305913504
 30
0.0
 11
1615.227001743551
 21
1986.040305913505
 31
0.0
  0
LINE
  5
10FB
330
1F
100
AcDbEntity
  8
1-SUNPO
  6
CONTINUOUS
 62
   250
100
AcDbLine
 10
1615.227001743551
 20
2024.680305913504
 30
0.0
 11
1604.867001743552
 21
1986.040305913505
 31
0.0
  0
LINE
  5
10FC
330
1F
100
AcDbEntity
  8
1-SUNPO
  6
CONTINUOUS
 62
   250
100
AcDbLine
 10
1610.047001743551
 20
1935.360305913505
 30
0.0
 11
1615.227001743551
 21
1954.680305913504
 31
0.0
  0
LINE
  5
10FD
330
1F
100
AcDbEntity
  8
1-SUNPO
  6
CONTINUOUS
 62
   250
100
AcDbLine
 10
1610.047001743551
 20
1935.360305913505
 30
0.0
 11
1604.867001743552
 21
1954.680305913504
 31
0.0
  0
LINE
  5
10FE
330
1F
100
AcDbEntity
  8
1-SUNPO
  6
CONTINUOUS
 62
   250
100
AcDbLine
 10
1610.047001743551
 20
2455.360305913505
 30
0.0
 11
1615.227001743551
 21
2436.040305913505
 31
0.0
  0
LINE
  5
10FF
330
1F
100
AcDbEntity
  8
1-SUNPO
  6
CONTINUOUS
 62
   250
100
AcDbLine
 10
1610.047001743551
 20
2455.360305913505
 30
0.0
 11
1604.867001743552
 21
2436.040305913505
 31
0.0
  0
LINE
  5
1100
330
1F
100
AcDbEntity
  8
1-SUNPO
  6
CONTINUOUS
 62
   250
100
AcDbLine
 10
2574.187001743551
 20
2655.360305913506
 30
0.0
 11
2593.497001743552
 21
2660.540305913504
 31
0.0
  0
LINE
  5
1101
330
1F
100
AcDbEntity
  8
1-SUNPO
  6
CONTINUOUS
 62
   250
100
AcDbLine
 10
2574.187001743551
 20
2655.360305913506
 30
0.0
 11
2593.497001743552
 21
2650.190305913505
 31
0.0
  0
LINE
  5
1102
330
1F
100
AcDbEntity
  8
1-SUNPO
  6
CONTINUOUS
 62
   250
100
AcDbLine
 10
4574.187001743552
 20
2655.360305913506
 30
0.0
 11
4554.867001743551
 21
2660.540305913504
 31
0.0
  0
LINE
  5
1103
330
1F
100
AcDbEntity
  8
1-SUNPO
  6
CONTINUOUS
 62
   250
100
AcDbLine
 10
4574.187001743552
 20
2655.360305913506
 30
0.0
 11
4554.867001743551
 21
2650.190305913505
 31
0.0
  0
LINE
  5
1104
330
1F
100
AcDbEntity
  8
1-SUNPO
  6
CONTINUOUS
 62
   250
100
AcDbLine
 10
1844.427001743551
 20
2032.110305913505
 30
0.0
 11
1800.577001743551
 21
2075.960305913505
 31
0.0
  0
LINE
  5
1105
330
1F
100
AcDbEntity
  8
0-3C1
  6
CONTINUOUS
 62
   250
100
AcDbLine
 10
2574.187001743551
 20
1940.360305913505
 30
0.0
 11
4574.187001743552
 21
1940.360305913505
 31
0.0
  0
LINE
  5
1106
330
1F
100
AcDbEntity
  8
0-3C1
  6
CONTINUOUS
 62
   250
100
AcDbLine
 10
1375.607001743551
 20
2455.360305913505
 30
0.0
 11
1430.607001743551
 21
2455.360305913505
 31
0.0
  0
LINE
  5
1107
330
1F
100
AcDbEntity
  8
0-3C1
  6
CONTINUOUS
 62
   250
100
AcDbLine
 10
2574.187001743551
 20
2455.360305913505
 30
0.0
 11
2574.187001743551
 21
1940.360305913505
 31
0.0
  0
LINE
  5
1108
330
1F
100
AcDbEntity
  8
0-3C1
  6
CONTINUOUS
 62
   250
100
AcDbLine
 10
4574.187001743552
 20
2455.360305913505
 30
0.0
 11
4574.187001743552
 21
1940.360305913505
 31
0.0
  0
LINE
  5
1109
330
1F
100
AcDbEntity
  8
1-SUNPO
  6
CONTINUOUS
 62
   250
100
AcDbLine
 10
1375.607001743551
 20
2655.360305913506
 30
0.0
 11
1935.607001743551
 21
2655.360305913506
 31
0.0
  0
LINE
  5
110A
330
1F
100
AcDbEntity
  8
0-3C1
  6
CONTINUOUS
 62
   250
100
AcDbLine
 10
1935.607001743551
 20
2455.360305913505
 30
0.0
 11
1880.607001743552
 21
2455.360305913505
 31
0.0
  0
LINE
  5
110C
330
1F
100
AcDbEntity
  8
0-3C1
  6
CONTINUOUS
 62
   250
100
AcDbLine
 10
1440.607001743551
 20
1935.360305913505
 30
0.0
 11
1870.607001743551
 21
1935.360305913504
 31
0.0
  0
LINE
  5
110E
330
1F
100
AcDbEntity
  8
0-3C1
  6
CONTINUOUS
 62
   250
100
AcDbLine
 10
1375.607001743551
 20
2455.360305913505
 30
0.0
 11
1385.39194798011
 21
1990.575359676945
 31
0.0
  0
LINE
  5
110F
330
1F
100
AcDbEntity
  8
0-3C1
  6
CONTINUOUS
 62
   250
100
AcDbLine
 10
1451.937001743552
 20
2071.480305913505
 30
0.0
 11
1430.607001743551
 21
2455.360305913505
 31
0.0
  0
LINE
  5
1110
330
1F
100
AcDbEntity
  8
0-3C1
  6
CONTINUOUS
 62
   250
100
AcDbLine
 10
1521.827001743552
 20
2005.360305913505
 30
0.0
 11
1789.387001743551
 21
2005.360305913505
 31
0.0
  0
LINE
  5
1111
330
1F
100
AcDbEntity
  8
0-3C1
  6
CONTINUOUS
 62
   250
100
AcDbLine
 10
1859.287001743551
 20
2071.480305913505
 30
0.0
 11
1880.607001743552
 21
2455.360305913505
 31
0.0
  0
LINE
  5
1112
330
1F
100
AcDbEntity
  8
1-KIJUN
  6
CENTER2
 62
   250
100
AcDbLine
 10
1450.607001743551
 20
2455.360305913505
 30
0.0
 11
1860.607001743551
 21
2455.360305913505
 31
0.0
  0
LINE
  5
1113
330
1F
100
AcDbEntity
  8
1-SUNPO
  6
CONTINUOUS
 62
   250
100
AcDbLine
 10
1610.047001743551
 20
2455.360305913505
 30
0.0
 11
1610.047001743551
 21
1935.360305913505
 31
0.0
  0
LINE
  5
1115
330
1F
100
AcDbEntity
  8
0-3C1
  6
CONTINUOUS
 62
   250
100
AcDbLine
 10
1935.607001743551
 20
2455.360305913505
 30
0.0
 11
1925.822055506992
 21
1990.575359676945
 31
0.0
  0
LINE
  5
1116
330
1F
100
AcDbEntity
  8
0-3C1
  6
CONTINUOUS
 62
   250
100
AcDbLine
 10
2574.187001743551
 20
1980.360305913505
 30
0.0
 11
4574.187001743552
 21
1980.360305913505
 31
0.0
  0
LINE
  5
1117
330
1F
100
AcDbEntity
  8
0-3C1
  6
DASHED2
 62
   250
100
AcDbLine
 10
2574.187001743551
 20
2005.360305913505
 30
0.0
 11
4574.187001743552
 21
2005.360305913505
 31
0.0
  0
ARC
  5
1118
330
1F
100
AcDbEntity
  8
1-SUNPO
  6
CONTINUOUS
 62
   250
100
AcDbCircle
 10
1867.815396184118
 20
1940.360305913505
 30
0.0
 40
42.0
100
AcDbArc
 50
353.1624759999997
 51
45.0
  0
ARC
  5
1119
330
1F
100
AcDbEntity
  8
0-3C1
  6
CONTINUOUS
 62
   250
100
AcDbCircle
 10
1521.827001743552
 20
2075.360305913505
 30
0.0
 40
70.0
100
AcDbArc
 50
183.1798099999985
 51
270.0
  0
ARC
  5
111A
330
1F
100
AcDbEntity
  8
0-3C1
  6
CONTINUOUS
 62
   250
100
AcDbCircle
 10
1789.387001743551
 20
2075.360305913505
 30
0.0
 40
70.0
100
AcDbArc
 50
270.0
 51
356.8201899999982
  0
ARC
  5
1126
330
1F
100
AcDbEntity
  8
1-SUNPO
  6
CONTINUOUS
 62
   250
100
AcDbCircle
 10
1897.515396184119
 20
1970.060305913504
 30
0.0
 40
4.0
100
AcDbArc
 50
180.0
 51
0.0
  0
ARC
  5
1127
330
1F
100
AcDbEntity
  8
1-SUNPO
  6
CONTINUOUS
 62
   250
100
AcDbCircle
 10
1897.515396184119
 20
1970.060305913504
 30
0.0
 40
4.0
100
AcDbArc
 50
0.0
 51
180.0
  0
ARC
  5
1128
330
1F
100
AcDbEntity
  8
1-SUNPO
  6
CONTINUOUS
 62
   250
100
AcDbCircle
 10
1909.515396184119
 20
1935.360305913504
 30
0.0
 40
4.0
100
AcDbArc
 50
180.0
 51
0.0
  0
ARC
  5
1129
330
1F
100
AcDbEntity
  8
1-SUNPO
  6
CONTINUOUS
 62
   250
100
AcDbCircle
 10
1909.515396184119
 20
1935.360305913504
 30
0.0
 40
4.0
100
AcDbArc
 50
0.0
 51
180.0
  0
TEXT
  5
112A
330
1F
100
AcDbEntity
  8
MOJI
 62
   250
100
AcDbText
 10
3524.187001743551
 20
2665.360305913505
 30
0.0
 40
39.0
  1
2000
 41
0.8
100
AcDbText
1001
ACAD
1000
MTEXTBEGIN
1070
    73
1070
     1
1070
    44
1040
1.0
1070
    74
1070
     0
1000
MTEXTEND
1000
MTEXTBEGIN
1070
    73
1070
     1
1070
    44
1040
1.0
1070
    74
1070
     0
1000
MTEXTEND
  0
TEXT
  5
112C
330
1F
100
AcDbEntity
  8
MOJI
 62
   250
100
AcDbText
 10
1724.947001743551
 20
2084.600305913505
 30
0.0
 40
39.0
  1
70R
 41
0.7
100
AcDbText
1001
ACAD
1000
MTEXTBEGIN
1070
    73
1070
     1
1070
    44
1040
1.0
1070
    74
1070
     0
1000
MTEXTEND
1000
MTEXTBEGIN
1070
    73
1070
     1
1070
    44
1040
1.0
1070
    74
1070
     0
1000
MTEXTEND
  0
TEXT
  5
112D
330
1F
100
AcDbEntity
  8
MOJI
 62
   250
100
AcDbText
 10
1883.107001743551
 20
2665.360305913505
 30
0.0
 40
39.0
  1
55
 41
0.8
100
AcDbText
1001
ACAD
1000
MTEXTBEGIN
1070
    73
1070
     1
1070
    44
1040
1.0
1070
    74
1070
     0
1000
MTEXTEND
1000
MTEXTBEGIN
1070
    73
1070
     1
1070
    44
1040
1.0
1070
    74
1070
     0
1000
MTEXTEND
  0
TEXT
  5
112E
330
1F
100
AcDbEntity
  8
MOJI
 62
   250
100
AcDbText
 10
1618.107001743552
 20
2665.360305913505
 30
0.0
 40
39.0
  1
450
 41
0.8
100
AcDbText
1001
ACAD
1000
MTEXTBEGIN
1070
    73
1070
     1
1070
    44
1040
1.0
1070
    74
1070
     0
1000
MTEXTEND
1000
MTEXTBEGIN
1070
    73
1070
     1
1070
    44
1040
1.0
1070
    74
1070
     0
1000
MTEXTEND
  0
TEXT
  5
112F
330
1F
100
AcDbEntity
  8
MOJI
 62
   250
100
AcDbText
 10
1378.107001743551
 20
2665.360305913505
 30
0.0
 40
39.0
  1
55
 41
0.8
100
AcDbText
1001
ACAD
1000
MTEXTBEGIN
1070
    73
1070
     1
1070
    44
1040
1.0
1070
    74
1070
     0
1000
MTEXTEND
1000
MTEXTBEGIN
1070
    73
1070
     1
1070
    44
1040
1.0
1070
    74
1070
     0
1000
MTEXTEND
  0
TEXT
  5
1130
330
1F
100
AcDbEntity
  8
MOJI
 62
   250
100
AcDbText
 10
1600.047001743551
 20
2192.860305913505
 30
0.0
 40
39.0
  1
450
 50
90.0
 41
0.8
100
AcDbText
1001
ACAD
1000
MTEXTBEGIN
1070
    73
1070
     1
1070
    44
1040
1.0
1070
    74
1070
     0
1000
MTEXTEND
1000
MTEXTBEGIN
1070
    73
1070
     1
1070
    44
1040
1.0
1070
    74
1070
     0
1000
MTEXTEND
  0
TEXT
  5
1131
330
1F
100
AcDbEntity
  8
MOJI
 62
   250
100
AcDbText
 10
1600.047001743551
 20
1945.360305913506
 30
0.0
 40
39.0
  1
70
 50
90.0
 41
0.8
100
AcDbText
1001
ACAD
1000
MTEXTBEGIN
1070
    73
1070
     1
1070
    44
1040
1.0
1070
    74
1070
     0
1000
MTEXTEND
1000
MTEXTBEGIN
1070
    73
1070
     1
1070
    44
1040
1.0
1070
    74
1070
     0
1000
MTEXTEND
  0
TEXT
  5
1132
330
1F
100
AcDbEntity
  8
MOJI
 62
   250
100
AcDbText
 10
1923.885396184119
 20
1943.610305913504
 30
0.0
 40
39.0
  1
45°
100
AcDbText
1001
ACAD
1000
MTEXTBEGIN
1070
    73
1070
     1
1070
    44
1040
1.0
1070
    74
1070
     0
1000
MTEXTEND
1000
MTEXTBEGIN
1070
    73
1070
     1
1070
    44
1040
1.0
1070
    74
1070
     0
1000
MTEXTEND
  0
LINE
  5
11C5
330
1F
100
AcDbEntity
  8
MOJI
100
AcDbLine
 10
1870.607001743551
 20
1935.360305913505
 30
0.0
 11
1925.822055506992
 21
1990.575359676945
 31
0.0
  0
LINE
  5
11C6
330
1F
100
AcDbEntity
  8
MOJI
100
AcDbLine
 10
1440.607001743551
 20
1935.360305913505
 30
0.0
 11
1385.39194798011
 21
1990.575359676945
 31
0.0
  0
TEXT
  5
11E3
330
1F
100
AcDbEntity
  8
MOJI
100
AcDbText
 10
2510.511347366813
 20
361.931382926301
 30
0.0
 40
80.0
  1
LDU450
  7
ADD
100
AcDbText
  0
TEXT
  5
11E4
330
1F
100
AcDbEntity
  8
MOJI
100
AcDbText
 10
790.2006915747188
 20
370.5159820344924
 30
0.0
 40
80.0
  1
長尺U形
  7
ADD
100
AcDbText
  0
TEXT
  5
11E5
330
1F
100
AcDbEntity
  8
MOJI
100
AcDbText
 10
3246.680311730542
 20
359.2274732162223
 30
0.0
 40
70.0
  1
１／２０
  7
ADD
100
AcDbText
  0
TEXT
  5
11E6
330
1F
100
AcDbEntity
  8
MOJI
100
AcDbText
 10
381.8862574011546
 20
488.6918916770627
 30
0.0
 40
50.0
  1
製品名
  7
ADD
100
AcDbText
  0
TEXT
  5
11E7
330
1F
100
AcDbEntity
  8
MOJI
100
AcDbText
 10
2376.290169028722
 20
494.4531736811823
 30
0.0
 40
50.0
  1
型式
  7
ADD
100
AcDbText
  0
TEXT
  5
11E8
330
1F
100
AcDbEntity
  8
MOJI
100
AcDbText
 10
3177.510249231658
 20
488.6918916770627
 30
0.0
 40
50.0
  1
縮尺
  7
ADD
100
AcDbText
  0
TEXT
  5
11E9
330
1F
100
AcDbEntity
  8
MOJI
100
AcDbText
 10
3730.870883051572
 20
352.2726133092145
 30
0.0
 40
100.0
  1
千葉県コンクリート製品協同組合
  7
ADD
100
AcDbText
  0
LINE
  5
11EA
330
1F
100
AcDbEntity
  8
HOJO
100
AcDbLine
 10
360.0
 20
260.0
 30
0.0
 11
5580.0
 21
260.0
 31
0.0
  0
LINE
  5
11EB
330
1F
100
AcDbEntity
  8
HOJO
100
AcDbLine
 10
5580.0
 20
260.0
 30
0.0
 11
5580.0
 21
3940.0
 31
0.0
  0
LINE
  5
11EC
330
1F
100
AcDbEntity
  8
HOJO
100
AcDbLine
 10
5580.0
 20
3940.0
 30
0.0
 11
360.0
 21
3940.0
 31
0.0
  0
LINE
  5
11ED
330
1F
100
AcDbEntity
  8
HOJO
100
AcDbLine
 10
360.0
 20
3940.0
 30
0.0
 11
360.0
 21
260.0
 31
0.0
  0
LINE
  5
11EE
330
1F
100
AcDbEntity
  8
HOJO
100
AcDbLine
 10
0.0
 20
0.0
 30
0.0
 11
5940.0
 21
0.0
 31
0.0
  0
LINE
  5
11EF
330
1F
100
AcDbEntity
  8
HOJO
100
AcDbLine
 10
5940.0
 20
0.0
 30
0.0
 11
5940.0
 21
4200.0
 31
0.0
  0
LINE
  5
11F0
330
1F
100
AcDbEntity
  8
HOJO
100
AcDbLine
 10
5940.0
 20
4200.0
 30
0.0
 11
0.0
 21
4200.0
 31
0.0
  0
LINE
  5
11F1
330
1F
100
AcDbEntity
  8
HOJO
100
AcDbLine
 10
0.0
 20
4200.0
 30
0.0
 11
0.0
 21
0.0
 31
0.0
  0
LINE
  5
120D
330
1F
100
AcDbEntity
  8
MOJI
 62
   144
100
AcDbLine
 10
1440.607001743551
 20
1915.360305913504
 30
0.0
 11
1440.607001743551
 21
1706.831747409385
 31
0.0
  0
LINE
  5
120E
330
1F
100
AcDbEntity
  8
MOJI
 62
   144
100
AcDbLine
 10
1870.607001743551
 20
1915.360305913504
 30
0.0
 11
1870.607001743551
 21
1706.831747409385
 31
0.0
  0
LINE
  5
120F
330
1F
100
AcDbEntity
  8
MOJI
 62
   144
100
AcDbLine
 10
1490.607001743551
 20
1716.831747409385
 30
0.0
 11
1820.607001743551
 21
1716.831747409385
 31
0.0
  0
TEXT
  5
1213
330
1F
100
AcDbEntity
  8
MOJI
 62
     7
100
AcDbText
 10
1584.17843031498
 20
1729.331747409385
 30
0.0
 40
50.0
  1
430
  7
ADD
100
AcDbText
  0
LINE
  5
1214
330
1F
100
AcDbEntity
  8
0
  6
BYBLOCK
 62
     0
100
AcDbLine
 10
1820.607001743551
 20
1725.165080742718
 30
0.0
 11
1870.607001743551
 21
1716.831747409385
 31
0.0
  0
LINE
  5
1215
330
1F
100
AcDbEntity
  8
0
  6
BYBLOCK
 62
     0
100
AcDbLine
 10
1820.607001743551
 20
1708.498414076052
 30
0.0
 11
1870.607001743551
 21
1716.831747409385
 31
0.0
  0
LINE
  5
1216
330
1F
100
AcDbEntity
  8
0
  6
BYBLOCK
 62
     0
100
AcDbLine
 10
1870.607001743551
 20
1716.831747409385
 30
0.0
 11
1820.607001743551
 21
1716.831747409385
 31
0.0
  0
LINE
  5
1217
330
1F
100
AcDbEntity
  8
0
  6
BYBLOCK
 62
     0
100
AcDbLine
 10
1490.607001743551
 20
1708.498414076052
 30
0.0
 11
1440.607001743551
 21
1716.831747409385
 31
0.0
  0
LINE
  5
1218
330
1F
100
AcDbEntity
  8
0
  6
BYBLOCK
 62
     0
100
AcDbLine
 10
1490.607001743551
 20
1725.165080742718
 30
0.0
 11
1440.607001743551
 21
1716.831747409385
 31
0.0
  0
LINE
  5
1219
330
1F
100
AcDbEntity
  8
0
  6
BYBLOCK
 62
     0
100
AcDbLine
 10
1440.607001743551
 20
1716.831747409385
 30
0.0
 11
1490.607001743551
 21
1716.831747409385
 31
0.0
  0
VIEWPORT
  5
72
330
1B
100
AcDbEntity
 67
     1
  8
0
100
AcDbViewport
 10
429.8380103383459
 20
277.0
 30
0.0
 40
948.9782706766918
 41
628.4520000000001
 68
     1
 69
     1
1001
ACAD
1000
MVIEW
1002
{
1070
    16
1010
0.0
1020
0.0
1030
0.0
1010
0.0
1020
0.0
1030
1.0
1040
0.0
1040
628.4520000000001
1040
429.8380103383459
1040
277.0
1040
50.0
1040
0.0
1040
0.0
1070
     0
1070
   100
1070
     1
1070
     1
1070
     0
1070
     0
1070
     0
1070
     0
1040
0.0
1040
0.0
1040
0.0
1040
10.0
1040
10.0
1040
10.0
1040
10.0
1070
     0
1002
{
1002
}
1002
}
  0
VIEWPORT
  5
74
330
1B
100
AcDbEntity
 67
     1
  8
VIEWPORT
100
AcDbViewport
 10
414.3779638919211
 20
277.3177265058034
 30
0.0
 40
840.0353682728887
 41
567.2285469943826
 68
     2
 69
     2
1001
ACAD
1000
MVIEW
1002
{
1070
    16
1010
0.0
1020
0.0
1030
0.0
1010
0.0
1020
0.0
1030
1.0
1040
0.0
1040
579.5583043546323
1040
424.4938908624541
1040
286.1973242720074
1040
50.0
1040
0.0
1040
0.0
1070
     0
1070
   100
1070
     1
1070
     1
1070
     0
1070
     0
1070
     0
1070
     0
1040
0.0
1040
0.0
1040
0.0
1040
10.0
1040
10.0
1040
10.0
1040
10.0
1070
     0
1002
{
1002
}
1002
}
  0
ENDSEC
  0
SECTION
  2
OBJECTS
  0
DICTIONARY
  5
C
330
0
100
AcDbDictionary
  3
ACAD_GROUP
350
D
  3
ACAD_LAYOUT
350
1A
  3
ACAD_MLINESTYLE
350
17
  3
ACAD_PLOTSETTINGS
350
19
  3
DWGPROPS
350
4C7
1001
ACAD
1000
TREAT_AS_HARD
1070
     0
  0
DICTIONARY
  5
F7B
330
1F
100
AcDbDictionary
  3
ACAD_LAYOUTSELFREF
350
129F
1001
ACAD
1000
TREAT_AS_HARD
1070
     1
  0
DICTIONARY
  5
F7D
330
1B
100
AcDbDictionary
  3
ACAD_LAYOUTSELFREF
350
129E
1001
ACAD
1000
TREAT_AS_HARD
1070
     1
  0
DICTIONARY
  5
D
102
{ACAD_REACTORS
330
C
102
}
330
C
100
AcDbDictionary
1001
ACAD
1000
TREAT_AS_HARD
1070
     0
  0
DICTIONARY
  5
1A
102
{ACAD_REACTORS
330
C
102
}
330
C
100
AcDbDictionary
1001
ACAD
1000
TREAT_AS_HARD
1070
     0
  0
DICTIONARY
  5
17
102
{ACAD_REACTORS
330
C
102
}
330
C
100
AcDbDictionary
  3
STANDARD
350
18
1001
ACAD
1000
TREAT_AS_HARD
1070
     0
  0
DICTIONARY
  5
19
102
{ACAD_REACTORS
330
C
102
}
330
C
100
AcDbDictionary
1001
ACAD
1000
TREAT_AS_HARD
1070
     0
  0
XRECORD
  5
4C7
102
{ACAD_REACTORS
330
C
102
}
330
C
100
AcDbXrecord
  1
DWGPROPS COOKIE
  2
印刷用テスト
  3
AutoCAD2000による建築設計
  4
鈴木 裕二
  6

  7

  8
U2
  9

300
=
301
=
302
=
303
=
304
=
305
=
306
=
307
=
308
=
309
=
 40
0.7653446875
 41
2451285.4846114
 42
2451333.689743032
  1

 90
        0
  0
XRECORD
  5
129F
102
{ACAD_REACTORS
330
F7B
102
}
330
F7B
100
AcDbXrecord
340
1F
  0
XRECORD
  5
129E
102
{ACAD_REACTORS
330
F7D
102
}
330
F7D
100
AcDbXrecord
340
1B
  0
MLINESTYLE
  5
18
102
{ACAD_REACTORS
330
17
102
}
330
17
100
AcDbMlineStyle
  2
STANDARD
 70
     0
  3

 62
   256
 51
90.0
 52
90.0
 71
     2
 49
0.5
 62
   256
  6
BYLAYER
 49
-0.5
 62
   256
  6
BYLAYER
  0
ENDSEC
  0
EOF
